ISO-10303-21;
HEADER;
/* Generated by software containing ST-Developer
 * from STEP Tools, Inc. (www.steptools.com) 
 */
/* OPTION: using custom schema-name function */

FILE_DESCRIPTION(
/* description */ (''),
/* implementation_level */ '2;1');

FILE_NAME(
/* name */ '1590648830676.stp',
/* time_stamp */ '2020-05-28T12:24:10+06:00',
/* author */ (''),
/* organization */ ('SMS'),
/* preprocessor_version */ 'ST-DEVELOPER v16.7',
/* originating_system */ 'SIEMENS PLM Software NX 12.0',
/* authorisation */ '');

FILE_SCHEMA (('AUTOMOTIVE_DESIGN { 1 0 10303 214 3 1 1 1 }'));
ENDSEC;

DATA;
#10=CONTEXT_DEPENDENT_SHAPE_REPRESENTATION(#16,#50);
#11=CONTEXT_DEPENDENT_SHAPE_REPRESENTATION(#17,#51);
#12=CONTEXT_DEPENDENT_SHAPE_REPRESENTATION(#18,#52);
#13=NEXT_ASSEMBLY_USAGE_OCCURRENCE('1001',' ',
'NXMOD-TM01_00-000-00-R216F_16A16S_063_PP_BAS',#56,#55,$);
#14=NEXT_ASSEMBLY_USAGE_OCCURRENCE('1002',' ',
'NXMOD-TM01_00-000-00-MI_R216F_1640_R1_BAS',#56,#54,$);
#15=NEXT_ASSEMBLY_USAGE_OCCURRENCE('1003',' ',
'NXMOD-TM01_00-000-00-R216F_16A16S_063_ACN_BAS',#56,#53,$);
#16=(
REPRESENTATION_RELATIONSHIP(' ',' ',#81,#82)
REPRESENTATION_RELATIONSHIP_WITH_TRANSFORMATION(#19)
SHAPE_REPRESENTATION_RELATIONSHIP()
);
#17=(
REPRESENTATION_RELATIONSHIP(' ',' ',#80,#82)
REPRESENTATION_RELATIONSHIP_WITH_TRANSFORMATION(#20)
SHAPE_REPRESENTATION_RELATIONSHIP()
);
#18=(
REPRESENTATION_RELATIONSHIP(' ',' ',#79,#82)
REPRESENTATION_RELATIONSHIP_WITH_TRANSFORMATION(#21)
SHAPE_REPRESENTATION_RELATIONSHIP()
);
#19=ITEM_DEFINED_TRANSFORMATION(' ',' ',#268,#293);
#20=ITEM_DEFINED_TRANSFORMATION(' ',' ',#268,#294);
#21=ITEM_DEFINED_TRANSFORMATION(' ',' ',#268,#295);
#22=ADVANCED_BREP_SHAPE_REPRESENTATION('202455403mod000_00-None',(#103),
#415);
#23=ADVANCED_BREP_SHAPE_REPRESENTATION('202458028mod000_00-None',(#102),
#414);
#24=CONSTRUCTIVE_GEOMETRY_REPRESENTATION_RELATIONSHIP(
'supplemental geometry','',#79,#28);
#25=CONSTRUCTIVE_GEOMETRY_REPRESENTATION_RELATIONSHIP(
'supplemental geometry','',#80,#29);
#26=CONSTRUCTIVE_GEOMETRY_REPRESENTATION_RELATIONSHIP(
'supplemental geometry','',#81,#30);
#27=CONSTRUCTIVE_GEOMETRY_REPRESENTATION_RELATIONSHIP(
'supplemental geometry','',#82,#31);
#28=CONSTRUCTIVE_GEOMETRY_REPRESENTATION('supplemental geometry',(#292),
#416);
#29=CONSTRUCTIVE_GEOMETRY_REPRESENTATION('supplemental geometry',(#286,
#287,#288),#415);
#30=CONSTRUCTIVE_GEOMETRY_REPRESENTATION('supplemental geometry',(#270,
#271,#272),#414);
#31=CONSTRUCTIVE_GEOMETRY_REPRESENTATION('supplemental geometry',(#269),
#413);
#32=SHAPE_REPRESENTATION_RELATIONSHIP('None',
'relationship between 202458029mod000_00-None and 202458029mod000_00-N
one',#79,#38);
#33=SHAPE_REPRESENTATION_RELATIONSHIP('None',
'relationship between 202455403mod000_00-None and 202455403mod000_00-N
one',#80,#22);
#34=SHAPE_REPRESENTATION_RELATIONSHIP('None',
'relationship between 202455403mod000_00-None and 202455403mod000_00-N
one',#80,#39);
#35=SHAPE_REPRESENTATION_RELATIONSHIP('None',
'relationship between 202458028mod000_00-None and 202458028mod000_00-N
one',#81,#23);
#36=SHAPE_REPRESENTATION_RELATIONSHIP('None',
'relationship between 202458028mod000_00-None and 202458028mod000_00-N
one',#81,#40);
#37=SHAPE_REPRESENTATION_RELATIONSHIP('None',
'relationship between 202458030mod000_00-None and 202458030mod000_00-N
one',#82,#41);
#38=GEOMETRICALLY_BOUNDED_WIREFRAME_SHAPE_REPRESENTATION(
'202458029mod000_00-None',(#83),#416);
#39=GEOMETRICALLY_BOUNDED_WIREFRAME_SHAPE_REPRESENTATION(
'202455403mod000_00-None',(#84),#415);
#40=GEOMETRICALLY_BOUNDED_WIREFRAME_SHAPE_REPRESENTATION(
'202458028mod000_00-None',(#85),#414);
#41=GEOMETRICALLY_BOUNDED_WIREFRAME_SHAPE_REPRESENTATION(
'202458030mod000_00-None',(#86),#413);
#42=SHAPE_DEFINITION_REPRESENTATION(#46,#79);
#43=SHAPE_DEFINITION_REPRESENTATION(#47,#80);
#44=SHAPE_DEFINITION_REPRESENTATION(#48,#81);
#45=SHAPE_DEFINITION_REPRESENTATION(#49,#82);
#46=PRODUCT_DEFINITION_SHAPE('','',#53);
#47=PRODUCT_DEFINITION_SHAPE('','',#54);
#48=PRODUCT_DEFINITION_SHAPE('','',#55);
#49=PRODUCT_DEFINITION_SHAPE('','',#56);
#50=PRODUCT_DEFINITION_SHAPE(' ','NAUO PRDDFN',#13);
#51=PRODUCT_DEFINITION_SHAPE(' ','NAUO PRDDFN',#14);
#52=PRODUCT_DEFINITION_SHAPE(' ','NAUO PRDDFN',#15);
#53=PRODUCT_DEFINITION(' ','',#61,#57);
#54=PRODUCT_DEFINITION(' ','',#62,#58);
#55=PRODUCT_DEFINITION(' ','',#63,#59);
#56=PRODUCT_DEFINITION(' ','',#64,#60);
#57=PRODUCT_DEFINITION_CONTEXT('part definition',#78,'design');
#58=PRODUCT_DEFINITION_CONTEXT('part definition',#78,'design');
#59=PRODUCT_DEFINITION_CONTEXT('part definition',#78,'design');
#60=PRODUCT_DEFINITION_CONTEXT('part definition',#78,'design');
#61=PRODUCT_DEFINITION_FORMATION_WITH_SPECIFIED_SOURCE(' ',' ',#69,
 .NOT_KNOWN.);
#62=PRODUCT_DEFINITION_FORMATION_WITH_SPECIFIED_SOURCE(' ',' ',#70,
 .NOT_KNOWN.);
#63=PRODUCT_DEFINITION_FORMATION_WITH_SPECIFIED_SOURCE(' ',' ',#71,
 .NOT_KNOWN.);
#64=PRODUCT_DEFINITION_FORMATION_WITH_SPECIFIED_SOURCE(' ',' ',#72,
 .NOT_KNOWN.);
#65=PRODUCT_RELATED_PRODUCT_CATEGORY('part','',(#69));
#66=PRODUCT_RELATED_PRODUCT_CATEGORY('part','',(#70));
#67=PRODUCT_RELATED_PRODUCT_CATEGORY('part','',(#71));
#68=PRODUCT_RELATED_PRODUCT_CATEGORY('part','',(#72));
#69=PRODUCT('ASSEMBLY_CONSTRUCTION','202458029mod000_00',' ',(#73));
#70=PRODUCT('202455403mod000_00','202455403mod000_00','MASTER_INSERT',(#74));
#71=PRODUCT('202458028mod000_00','202458028mod000_00','NOCUT',(#75));
#72=PRODUCT('202458030mod000_00','202458030mod000_00',' ',(#76));
#73=PRODUCT_CONTEXT(' ',#78,'mechanical');
#74=PRODUCT_CONTEXT(' ',#78,'mechanical');
#75=PRODUCT_CONTEXT(' ',#78,'mechanical');
#76=PRODUCT_CONTEXT(' ',#78,'mechanical');
#77=APPLICATION_PROTOCOL_DEFINITION('international standard',
'automotive_design',2010,#78);
#78=APPLICATION_CONTEXT(
'core data for automotive mechanical design processes');
#79=SHAPE_REPRESENTATION('202458029mod000_00-None',(#268),#416);
#80=SHAPE_REPRESENTATION('202455403mod000_00-None',(#268),#415);
#81=SHAPE_REPRESENTATION('202458028mod000_00-None',(#268),#414);
#82=SHAPE_REPRESENTATION('202458030mod000_00-None',(#268,#293,#294,#295),
#413);
#83=GEOMETRIC_CURVE_SET('None',(#403,#404));
#84=GEOMETRIC_CURVE_SET('None',(#380,#381,#382,#89));
#85=GEOMETRIC_CURVE_SET('None',(#355,#356,#357));
#86=GEOMETRIC_CURVE_SET('None',(#353));
#87=DRAUGHTING_PRE_DEFINED_COLOUR('blue');
#88=DRAUGHTING_PRE_DEFINED_COLOUR('white');
#89=TRIMMED_CURVE('CUTTING EDGE LINE',#90,(PARAMETER_VALUE(0.)),(
PARAMETER_VALUE(1.)),.T.,.PARAMETER.);
#90=(
BOUNDED_CURVE()
B_SPLINE_CURVE(3,(#383,#384,#385,#386,#387,#388,#389,#390,#391,#392,#393,
#394,#395),.UNSPECIFIED.,.T.,.F.)
B_SPLINE_CURVE_WITH_KNOTS((4,3,3,3,4),(0.,0.194219722092848,0.242497131983538,
0.663741751199388,1.),.UNSPECIFIED.)
CURVE()
GEOMETRIC_REPRESENTATION_ITEM()
RATIONAL_B_SPLINE_CURVE((1.,1.,1.,1.,0.996140396069082,0.996140396069082,
1.,0.726869726099239,0.726869726099239,1.,1.,1.,1.))
REPRESENTATION_ITEM('CUTTING EDGE LINE')
);
#91=INVISIBILITY((#206));
#92=SURFACE_STYLE_USAGE(.BOTH.,#94);
#93=SURFACE_STYLE_USAGE(.BOTH.,#95);
#94=SURFACE_SIDE_STYLE('',(#96));
#95=SURFACE_SIDE_STYLE('',(#97));
#96=SURFACE_STYLE_FILL_AREA(#98);
#97=SURFACE_STYLE_FILL_AREA(#99);
#98=FILL_AREA_STYLE('',(#100));
#99=FILL_AREA_STYLE('',(#101));
#100=FILL_AREA_STYLE_COLOUR('',#266);
#101=FILL_AREA_STYLE_COLOUR('',#267);
#102=MANIFOLD_SOLID_BREP('NOCUT',#104);
#103=MANIFOLD_SOLID_BREP('CUT',#105);
#104=CLOSED_SHELL('',(#122,#123,#124,#125,#126,#127,#128));
#105=CLOSED_SHELL('',(#129,#130));
#106=SPHERICAL_SURFACE('',#285,7.0625);
#107=SPHERICAL_SURFACE('',#290,7.99599999999274);
#108=TOROIDAL_SURFACE('',#282,9.5625,2.5);
#109=CONICAL_SURFACE('',#281,6.99749999999999,45.);
#110=CYLINDRICAL_SURFACE('',#277,7.0625);
#111=CYLINDRICAL_SURFACE('',#280,8.0625);
#112=FACE_BOUND('',#139,.T.);
#113=FACE_BOUND('',#140,.T.);
#114=FACE_BOUND('',#141,.T.);
#115=FACE_BOUND('',#142,.T.);
#116=FACE_BOUND('',#143,.T.);
#117=FACE_BOUND('',#144,.T.);
#118=FACE_BOUND('',#145,.T.);
#119=FACE_BOUND('',#146,.T.);
#120=FACE_BOUND('',#148,.T.);
#121=FACE_BOUND('',#149,.T.);
#122=ADVANCED_FACE('',(#134),#131,.T.);
#123=ADVANCED_FACE('',(#112,#113),#110,.T.);
#124=ADVANCED_FACE('',(#114,#115),#111,.T.);
#125=ADVANCED_FACE('',(#116,#117),#109,.T.);
#126=ADVANCED_FACE('',(#118,#119),#108,.F.);
#127=ADVANCED_FACE('',(#135),#132,.F.);
#128=ADVANCED_FACE('',(#120,#121),#106,.T.);
#129=ADVANCED_FACE('',(#136),#107,.T.);
#130=ADVANCED_FACE('',(#137),#133,.T.);
#131=PLANE('',#274);
#132=PLANE('',#284);
#133=PLANE('',#291);
#134=FACE_OUTER_BOUND('',#138,.T.);
#135=FACE_OUTER_BOUND('',#147,.T.);
#136=FACE_OUTER_BOUND('',#150,.T.);
#137=FACE_OUTER_BOUND('',#151,.T.);
#138=EDGE_LOOP('',(#152));
#139=EDGE_LOOP('',(#153));
#140=EDGE_LOOP('',(#154));
#141=EDGE_LOOP('',(#155));
#142=EDGE_LOOP('',(#156));
#143=EDGE_LOOP('',(#157));
#144=EDGE_LOOP('',(#158));
#145=EDGE_LOOP('',(#159));
#146=EDGE_LOOP('',(#160));
#147=EDGE_LOOP('',(#161));
#148=EDGE_LOOP('',(#162));
#149=EDGE_LOOP('',(#163));
#150=EDGE_LOOP('',(#164));
#151=EDGE_LOOP('',(#165));
#152=ORIENTED_EDGE('',*,*,#173,.T.);
#153=ORIENTED_EDGE('',*,*,#174,.T.);
#154=ORIENTED_EDGE('',*,*,#175,.T.);
#155=ORIENTED_EDGE('',*,*,#176,.F.);
#156=ORIENTED_EDGE('',*,*,#177,.T.);
#157=ORIENTED_EDGE('',*,*,#176,.T.);
#158=ORIENTED_EDGE('',*,*,#173,.F.);
#159=ORIENTED_EDGE('',*,*,#174,.F.);
#160=ORIENTED_EDGE('',*,*,#177,.F.);
#161=ORIENTED_EDGE('',*,*,#178,.F.);
#162=ORIENTED_EDGE('',*,*,#178,.T.);
#163=ORIENTED_EDGE('',*,*,#175,.F.);
#164=ORIENTED_EDGE('',*,*,#179,.T.);
#165=ORIENTED_EDGE('',*,*,#179,.F.);
#166=VERTEX_POINT('',#362);
#167=VERTEX_POINT('',#365);
#168=VERTEX_POINT('',#367);
#169=VERTEX_POINT('',#370);
#170=VERTEX_POINT('',#372);
#171=VERTEX_POINT('',#377);
#172=VERTEX_POINT('',#400);
#173=EDGE_CURVE('',#166,#166,#180,.T.);
#174=EDGE_CURVE('',#167,#167,#181,.T.);
#175=EDGE_CURVE('',#168,#168,#182,.T.);
#176=EDGE_CURVE('',#169,#169,#183,.T.);
#177=EDGE_CURVE('',#170,#170,#184,.T.);
#178=EDGE_CURVE('',#171,#171,#185,.T.);
#179=EDGE_CURVE('',#172,#172,#186,.T.);
#180=CIRCLE('',#273,6.99749999999999);
#181=CIRCLE('',#275,7.0625);
#182=CIRCLE('',#276,7.0625);
#183=CIRCLE('',#278,8.0625);
#184=CIRCLE('',#279,8.0625);
#185=CIRCLE('',#283,4.43045214961182);
#186=CIRCLE('',#289,6.92618190275133);
#187=CURVE_STYLE('',#196,POSITIVE_LENGTH_MEASURE(0.18),#265);
#188=CURVE_STYLE('',#197,POSITIVE_LENGTH_MEASURE(0.18),#265);
#189=CURVE_STYLE('',#198,POSITIVE_LENGTH_MEASURE(0.18),#265);
#190=CURVE_STYLE('',#199,POSITIVE_LENGTH_MEASURE(0.18),#265);
#191=CURVE_STYLE('',#200,POSITIVE_LENGTH_MEASURE(0.18),#87);
#192=CURVE_STYLE('',#201,POSITIVE_LENGTH_MEASURE(0.18),#265);
#193=CURVE_STYLE('',#202,POSITIVE_LENGTH_MEASURE(0.18),#265);
#194=CURVE_STYLE('',#203,POSITIVE_LENGTH_MEASURE(0.18),#265);
#195=CURVE_STYLE('',#204,POSITIVE_LENGTH_MEASURE(0.18),#265);
#196=DRAUGHTING_PRE_DEFINED_CURVE_FONT('continuous');
#197=DRAUGHTING_PRE_DEFINED_CURVE_FONT('continuous');
#198=DRAUGHTING_PRE_DEFINED_CURVE_FONT('continuous');
#199=DRAUGHTING_PRE_DEFINED_CURVE_FONT('continuous');
#200=DRAUGHTING_PRE_DEFINED_CURVE_FONT('continuous');
#201=DRAUGHTING_PRE_DEFINED_CURVE_FONT('continuous');
#202=DRAUGHTING_PRE_DEFINED_CURVE_FONT('continuous');
#203=DRAUGHTING_PRE_DEFINED_CURVE_FONT('continuous');
#204=DRAUGHTING_PRE_DEFINED_CURVE_FONT('continuous');
#205=PRESENTATION_LAYER_ASSIGNMENT('1','Layer 1',(#353,#269,#355,#356,#357,
#270,#271,#272,#380,#381,#382,#89,#286,#287,#288,#103,#403,#404,#292));
#206=PRESENTATION_LAYER_ASSIGNMENT('80','Layer 80',(#102));
#207=STYLED_ITEM('',(#227),#353);
#208=STYLED_ITEM('',(#228),#269);
#209=STYLED_ITEM('',(#229),#355);
#210=STYLED_ITEM('',(#230),#356);
#211=STYLED_ITEM('',(#231),#357);
#212=STYLED_ITEM('',(#232),#270);
#213=STYLED_ITEM('',(#233),#271);
#214=STYLED_ITEM('',(#234),#272);
#215=STYLED_ITEM('',(#235),#102);
#216=STYLED_ITEM('',(#236),#380);
#217=STYLED_ITEM('',(#237),#381);
#218=STYLED_ITEM('',(#238),#382);
#219=STYLED_ITEM('',(#239),#89);
#220=STYLED_ITEM('',(#240),#286);
#221=STYLED_ITEM('',(#241),#287);
#222=STYLED_ITEM('',(#242),#288);
#223=STYLED_ITEM('',(#243),#103);
#224=STYLED_ITEM('',(#244),#403);
#225=STYLED_ITEM('',(#245),#404);
#226=STYLED_ITEM('',(#246),#292);
#227=PRESENTATION_STYLE_ASSIGNMENT((#247));
#228=PRESENTATION_STYLE_ASSIGNMENT((#187));
#229=PRESENTATION_STYLE_ASSIGNMENT((#248));
#230=PRESENTATION_STYLE_ASSIGNMENT((#249));
#231=PRESENTATION_STYLE_ASSIGNMENT((#250));
#232=PRESENTATION_STYLE_ASSIGNMENT((#188));
#233=PRESENTATION_STYLE_ASSIGNMENT((#189));
#234=PRESENTATION_STYLE_ASSIGNMENT((#190));
#235=PRESENTATION_STYLE_ASSIGNMENT((#92));
#236=PRESENTATION_STYLE_ASSIGNMENT((#251));
#237=PRESENTATION_STYLE_ASSIGNMENT((#252));
#238=PRESENTATION_STYLE_ASSIGNMENT((#253));
#239=PRESENTATION_STYLE_ASSIGNMENT((#191));
#240=PRESENTATION_STYLE_ASSIGNMENT((#192));
#241=PRESENTATION_STYLE_ASSIGNMENT((#193));
#242=PRESENTATION_STYLE_ASSIGNMENT((#194));
#243=PRESENTATION_STYLE_ASSIGNMENT((#93));
#244=PRESENTATION_STYLE_ASSIGNMENT((#254));
#245=PRESENTATION_STYLE_ASSIGNMENT((#255));
#246=PRESENTATION_STYLE_ASSIGNMENT((#195));
#247=POINT_STYLE('',#256,POSITIVE_LENGTH_MEASURE(3.),#265);
#248=POINT_STYLE('',#257,POSITIVE_LENGTH_MEASURE(3.),#265);
#249=POINT_STYLE('',#258,POSITIVE_LENGTH_MEASURE(3.),#265);
#250=POINT_STYLE('',#259,POSITIVE_LENGTH_MEASURE(3.),#265);
#251=POINT_STYLE('',#260,POSITIVE_LENGTH_MEASURE(3.),#265);
#252=POINT_STYLE('',#261,POSITIVE_LENGTH_MEASURE(3.),#265);
#253=POINT_STYLE('',#262,POSITIVE_LENGTH_MEASURE(3.),#265);
#254=POINT_STYLE('',#263,POSITIVE_LENGTH_MEASURE(3.),#88);
#255=POINT_STYLE('',#264,POSITIVE_LENGTH_MEASURE(3.),#265);
#256=PRE_DEFINED_POINT_MARKER_SYMBOL('plus');
#257=PRE_DEFINED_POINT_MARKER_SYMBOL('plus');
#258=PRE_DEFINED_POINT_MARKER_SYMBOL('plus');
#259=PRE_DEFINED_POINT_MARKER_SYMBOL('plus');
#260=PRE_DEFINED_POINT_MARKER_SYMBOL('plus');
#261=PRE_DEFINED_POINT_MARKER_SYMBOL('plus');
#262=PRE_DEFINED_POINT_MARKER_SYMBOL('plus');
#263=PRE_DEFINED_POINT_MARKER_SYMBOL('plus');
#264=PRE_DEFINED_POINT_MARKER_SYMBOL('plus');
#265=COLOUR_RGB('Medium Maroon',0.6,0.4,0.4);
#266=COLOUR_RGB('Medium Gray',0.490196078431373,0.490196078431373,0.490196078431373);
#267=COLOUR_RGB('Light Gray',0.8,0.8,0.8);
#268=AXIS2_PLACEMENT_3D('',#352,#296,#297);
#269=AXIS2_PLACEMENT_3D('',#354,#298,#299);
#270=AXIS2_PLACEMENT_3D('CSW',#358,#300,#301);
#271=AXIS2_PLACEMENT_3D('MCS',#359,#302,#303);
#272=AXIS2_PLACEMENT_3D('PCS',#360,#304,#305);
#273=AXIS2_PLACEMENT_3D('',#361,#306,#307);
#274=AXIS2_PLACEMENT_3D('',#363,#308,#309);
#275=AXIS2_PLACEMENT_3D('',#364,#310,#311);
#276=AXIS2_PLACEMENT_3D('',#366,#312,#313);
#277=AXIS2_PLACEMENT_3D('',#368,#314,#315);
#278=AXIS2_PLACEMENT_3D('',#369,#316,#317);
#279=AXIS2_PLACEMENT_3D('',#371,#318,#319);
#280=AXIS2_PLACEMENT_3D('',#373,#320,#321);
#281=AXIS2_PLACEMENT_3D('',#374,#322,#323);
#282=AXIS2_PLACEMENT_3D('',#375,#324,#325);
#283=AXIS2_PLACEMENT_3D('',#376,#326,#327);
#284=AXIS2_PLACEMENT_3D('',#378,#328,#329);
#285=AXIS2_PLACEMENT_3D('',#379,#330,#331);
#286=AXIS2_PLACEMENT_3D('CIP',#396,#332,#333);
#287=AXIS2_PLACEMENT_3D('MCS',#397,#334,#335);
#288=AXIS2_PLACEMENT_3D('PCS',#398,#336,#337);
#289=AXIS2_PLACEMENT_3D('',#399,#338,#339);
#290=AXIS2_PLACEMENT_3D('',#401,#340,#341);
#291=AXIS2_PLACEMENT_3D('',#402,#342,#343);
#292=AXIS2_PLACEMENT_3D('',#405,#344,#345);
#293=AXIS2_PLACEMENT_3D('',#406,#346,#347);
#294=AXIS2_PLACEMENT_3D('',#407,#348,#349);
#295=AXIS2_PLACEMENT_3D('',#408,#350,#351);
#296=DIRECTION('',(0.,0.,1.));
#297=DIRECTION('',(1.,0.,0.));
#298=DIRECTION('',(0.,0.,1.));
#299=DIRECTION('',(1.,0.,0.));
#300=DIRECTION('',(0.,0.,1.));
#301=DIRECTION('',(1.,0.,0.));
#302=DIRECTION('',(0.,0.,1.));
#303=DIRECTION('',(1.,0.,0.));
#304=DIRECTION('',(0.,0.,1.));
#305=DIRECTION('',(1.,0.,0.));
#306=DIRECTION('',(0.,0.,1.));
#307=DIRECTION('',(1.,0.,0.));
#308=DIRECTION('',(0.,0.,1.));
#309=DIRECTION('',(1.,0.,0.));
#310=DIRECTION('',(0.,0.,-1.));
#311=DIRECTION('',(1.,0.,0.));
#312=DIRECTION('',(0.,0.,1.));
#313=DIRECTION('',(1.,0.,0.));
#314=DIRECTION('',(0.,0.,1.));
#315=DIRECTION('',(1.,0.,0.));
#316=DIRECTION('',(0.,0.,1.));
#317=DIRECTION('',(-1.,0.,0.));
#318=DIRECTION('',(0.,0.,1.));
#319=DIRECTION('',(-1.,0.,0.));
#320=DIRECTION('',(0.,0.,1.));
#321=DIRECTION('',(1.,0.,0.));
#322=DIRECTION('',(0.,0.,-1.));
#323=DIRECTION('',(-1.,0.,0.));
#324=DIRECTION('',(0.,0.,1.));
#325=DIRECTION('',(1.,0.,0.));
#326=DIRECTION('',(0.,0.,1.));
#327=DIRECTION('',(1.,0.,0.));
#328=DIRECTION('',(0.,0.,1.));
#329=DIRECTION('',(1.,0.,0.));
#330=DIRECTION('',(-1.,0.,0.));
#331=DIRECTION('',(0.,0.,1.));
#332=DIRECTION('',(0.,0.,1.));
#333=DIRECTION('',(1.,0.,0.));
#334=DIRECTION('',(0.,0.,1.));
#335=DIRECTION('',(1.,0.,0.));
#336=DIRECTION('',(0.,0.,1.));
#337=DIRECTION('',(1.,0.,0.));
#338=DIRECTION('',(0.,0.,-1.));
#339=DIRECTION('',(-1.,0.,0.));
#340=DIRECTION('',(-6.12323399573677E-17,0.,-1.));
#341=DIRECTION('',(-1.,5.91327350820474E-17,0.));
#342=DIRECTION('',(0.,0.,1.));
#343=DIRECTION('',(1.,0.,0.));
#344=DIRECTION('',(0.,0.,1.));
#345=DIRECTION('',(1.,0.,0.));
#346=DIRECTION('',(0.,0.,1.));
#347=DIRECTION('',(1.,0.,0.));
#348=DIRECTION('',(0.,0.,1.));
#349=DIRECTION('',(1.,0.,0.));
#350=DIRECTION('',(0.,0.,1.));
#351=DIRECTION('',(1.,0.,0.));
#352=CARTESIAN_POINT('',(0.,0.,0.));
#353=CARTESIAN_POINT('',(0.,0.,0.));
#354=CARTESIAN_POINT('',(0.,0.,0.));
#355=CARTESIAN_POINT('PCS',(-9.91123647910618E-14,-1.33473502088605E-14,
0.));
#356=CARTESIAN_POINT('MCS',(0.,0.,-48.));
#357=CARTESIAN_POINT('CSW',(-9.81252800281767E-14,0.,-111.0045));
#358=CARTESIAN_POINT('',(-9.81252800281767E-14,0.,-111.0045));
#359=CARTESIAN_POINT('',(0.,0.,-48.));
#360=CARTESIAN_POINT('',(-9.91123647910618E-14,-1.33473502088605E-14,0.));
#361=CARTESIAN_POINT('',(-1.12459714999922E-13,0.,0.));
#362=CARTESIAN_POINT('',(6.99749999999988,0.,0.));
#363=CARTESIAN_POINT('',(-1.12459714999922E-13,0.,0.));
#364=CARTESIAN_POINT('',(-1.12459714999922E-13,0.,-61.9493616102294));
#365=CARTESIAN_POINT('',(7.06249999999989,0.,-61.9493616102294));
#366=CARTESIAN_POINT('',(-1.12459714999922E-13,0.,-115.));
#367=CARTESIAN_POINT('',(7.06249999999989,0.,-115.));
#368=CARTESIAN_POINT('',(-1.12459714999922E-13,0.,20.2268152444466));
#369=CARTESIAN_POINT('',(-1.12459714999922E-13,0.,-1.06500000000001));
#370=CARTESIAN_POINT('',(-8.06250000000011,0.,-1.06500000000001));
#371=CARTESIAN_POINT('',(-1.12459714999922E-13,0.,-59.9493616102294));
#372=CARTESIAN_POINT('',(-8.06250000000011,0.,-59.9493616102294));
#373=CARTESIAN_POINT('',(-1.12459714999922E-13,0.,20.2268152444466));
#374=CARTESIAN_POINT('',(-1.12459714999922E-13,0.,0.));
#375=CARTESIAN_POINT('',(-1.12459714999922E-13,0.,-61.9493616102294));
#376=CARTESIAN_POINT('',(-1.12459714999922E-13,0.,-120.5));
#377=CARTESIAN_POINT('',(4.43045214961171,0.,-120.5));
#378=CARTESIAN_POINT('',(-1.12459714999922E-13,0.,-120.5));
#379=CARTESIAN_POINT('',(-1.12459714999922E-13,0.,-115.));
#380=CARTESIAN_POINT('',(0.,0.,-11.9955));
#381=CARTESIAN_POINT('',(0.,0.,0.));
#382=CARTESIAN_POINT('',(0.,0.,0.));
#383=CARTESIAN_POINT('',(0.,4.44089209850063E-16,1.33226762955019E-15));
#384=CARTESIAN_POINT('',(-2.30872730091711,4.44089209850063E-16,1.33226762955019E-15));
#385=CARTESIAN_POINT('',(-4.61745460183422,4.44089209850063E-16,1.33226762955019E-15));
#386=CARTESIAN_POINT('',(-6.92618190275133,4.44089209850063E-16,2.22044604925031E-15));
#387=CARTESIAN_POINT('',(-7.2134992399493,4.44089209850063E-16,-0.498063356587987));
#388=CARTESIAN_POINT('',(-7.44563675470237,4.44089209850063E-16,-1.02411519212751));
#389=CARTESIAN_POINT('',(-7.61990657042318,7.94133999890943E-16,-1.57206445144055));
#390=CARTESIAN_POINT('',(-9.41403835352665,4.39789338142519E-15,-7.21327763339791));
#391=CARTESIAN_POINT('',(-5.91964483894062,1.14417878993182E-15,-11.9915));
#392=CARTESIAN_POINT('',(2.44806895149556E-16,7.94133999890943E-16,-11.9915));
#393=CARTESIAN_POINT('',(0.,4.44089209850063E-16,-7.99433333333333));
#394=CARTESIAN_POINT('',(0.,4.44089209850063E-16,-3.99716666666667));
#395=CARTESIAN_POINT('',(0.,4.44089209850063E-16,1.77635683940025E-15));
#396=CARTESIAN_POINT('',(0.,0.,-11.9955));
#397=CARTESIAN_POINT('',(0.,0.,0.));
#398=CARTESIAN_POINT('',(0.,0.,0.));
#399=CARTESIAN_POINT('',(0.,0.,2.22044604925031E-15));
#400=CARTESIAN_POINT('',(-6.92618190275133,0.,2.22044604925031E-15));
#401=CARTESIAN_POINT('',(9.14559089545482E-15,-1.15871088149025E-15,-3.99550000002084));
#402=CARTESIAN_POINT('',(-6.92618190275133,4.44089209850063E-16,1.77635683940025E-15));
#403=CARTESIAN_POINT('CRP',(-7.996,0.,-122.996));
#404=CARTESIAN_POINT('',(0.,0.,0.));
#405=CARTESIAN_POINT('',(0.,0.,0.));
#406=CARTESIAN_POINT('',(0.,0.,0.));
#407=CARTESIAN_POINT('',(9.87084762885103E-16,1.4210854715202E-14,-111.0045));
#408=CARTESIAN_POINT('',(0.,0.,0.));
#409=MECHANICAL_DESIGN_GEOMETRIC_PRESENTATION_REPRESENTATION('',(#207,#208),
#413);
#410=MECHANICAL_DESIGN_GEOMETRIC_PRESENTATION_REPRESENTATION('',(#209,#210,
#211,#212,#213,#214,#215),#414);
#411=MECHANICAL_DESIGN_GEOMETRIC_PRESENTATION_REPRESENTATION('',(#216,#217,
#218,#219,#220,#221,#222,#223),#415);
#412=MECHANICAL_DESIGN_GEOMETRIC_PRESENTATION_REPRESENTATION('',(#224,#225,
#226),#416);
#413=(
GEOMETRIC_REPRESENTATION_CONTEXT(3)
GLOBAL_UNCERTAINTY_ASSIGNED_CONTEXT((#417))
GLOBAL_UNIT_ASSIGNED_CONTEXT((#426,#422,#421))
REPRESENTATION_CONTEXT('1590648830676','TOP_LEVEL_ASSEMBLY_PART')
);
#414=(
GEOMETRIC_REPRESENTATION_CONTEXT(3)
GLOBAL_UNCERTAINTY_ASSIGNED_CONTEXT((#418))
GLOBAL_UNIT_ASSIGNED_CONTEXT((#426,#422,#421))
REPRESENTATION_CONTEXT('202458028mod000_00','COMPONENT_PART')
);
#415=(
GEOMETRIC_REPRESENTATION_CONTEXT(3)
GLOBAL_UNCERTAINTY_ASSIGNED_CONTEXT((#419))
GLOBAL_UNIT_ASSIGNED_CONTEXT((#426,#422,#421))
REPRESENTATION_CONTEXT('202455403mod000_00','COMPONENT_PART')
);
#416=(
GEOMETRIC_REPRESENTATION_CONTEXT(3)
GLOBAL_UNCERTAINTY_ASSIGNED_CONTEXT((#420))
GLOBAL_UNIT_ASSIGNED_CONTEXT((#426,#422,#421))
REPRESENTATION_CONTEXT('202458029mod000_00','COMPONENT_PART')
);
#417=UNCERTAINTY_MEASURE_WITH_UNIT(LENGTH_MEASURE(2.E-5),#426,
'DISTANCE_ACCURACY_VALUE','Maximum Tolerance applied to model');
#418=UNCERTAINTY_MEASURE_WITH_UNIT(LENGTH_MEASURE(2.E-5),#426,
'DISTANCE_ACCURACY_VALUE','Maximum Tolerance applied to model');
#419=UNCERTAINTY_MEASURE_WITH_UNIT(LENGTH_MEASURE(2.E-5),#426,
'DISTANCE_ACCURACY_VALUE','Maximum Tolerance applied to model');
#420=UNCERTAINTY_MEASURE_WITH_UNIT(LENGTH_MEASURE(2.E-5),#426,
'DISTANCE_ACCURACY_VALUE','Maximum Tolerance applied to model');
#421=(
NAMED_UNIT(*)
SI_UNIT($,.STERADIAN.)
SOLID_ANGLE_UNIT()
);
#422=(
CONVERSION_BASED_UNIT('DEGREE',#424)
NAMED_UNIT(#423)
PLANE_ANGLE_UNIT()
);
#423=DIMENSIONAL_EXPONENTS(0.,0.,0.,0.,0.,0.,0.);
#424=PLANE_ANGLE_MEASURE_WITH_UNIT(PLANE_ANGLE_MEASURE(0.0174532925),#425);
#425=(
NAMED_UNIT(*)
PLANE_ANGLE_UNIT()
SI_UNIT($,.RADIAN.)
);
#426=(
LENGTH_UNIT()
NAMED_UNIT(*)
SI_UNIT(.MILLI.,.METRE.)
);
ENDSEC;
END-ISO-10303-21;
