ISO-10303-21;
HEADER;
/* Generated by software containing ST-Developer
 * from STEP Tools, Inc. (www.steptools.com) 
 */
/* OPTION: using custom schema-name function */

FILE_DESCRIPTION(
/* description */ (''),
/* implementation_level */ '2;1');

FILE_NAME(
/* name */ '1590648786821.stp',
/* time_stamp */ '2020-05-28T12:23:28+06:00',
/* author */ (''),
/* organization */ ('SMS'),
/* preprocessor_version */ 'ST-DEVELOPER v16.7',
/* originating_system */ 'SIEMENS PLM Software NX 12.0',
/* authorisation */ '');

FILE_SCHEMA (('AUTOMOTIVE_DESIGN { 1 0 10303 214 3 1 1 1 }'));
ENDSEC;

DATA;
#10=CONTEXT_DEPENDENT_SHAPE_REPRESENTATION(#16,#50);
#11=CONTEXT_DEPENDENT_SHAPE_REPRESENTATION(#17,#51);
#12=CONTEXT_DEPENDENT_SHAPE_REPRESENTATION(#18,#52);
#13=NEXT_ASSEMBLY_USAGE_OCCURRENCE('1001',' ',
'NXMOD-TM01_00-000-00-R216F_16A16S_032_PP_BAS',#56,#55,$);
#14=NEXT_ASSEMBLY_USAGE_OCCURRENCE('1002',' ',
'NXMOD-TM01_00-000-00-MI_R216F_1640_R1_BAS',#56,#54,$);
#15=NEXT_ASSEMBLY_USAGE_OCCURRENCE('1003',' ',
'NXMOD-TM01_00-000-00-R216F_16A16S_032_ACN_BAS',#56,#53,$);
#16=(
REPRESENTATION_RELATIONSHIP(' ',' ',#81,#82)
REPRESENTATION_RELATIONSHIP_WITH_TRANSFORMATION(#19)
SHAPE_REPRESENTATION_RELATIONSHIP()
);
#17=(
REPRESENTATION_RELATIONSHIP(' ',' ',#80,#82)
REPRESENTATION_RELATIONSHIP_WITH_TRANSFORMATION(#20)
SHAPE_REPRESENTATION_RELATIONSHIP()
);
#18=(
REPRESENTATION_RELATIONSHIP(' ',' ',#79,#82)
REPRESENTATION_RELATIONSHIP_WITH_TRANSFORMATION(#21)
SHAPE_REPRESENTATION_RELATIONSHIP()
);
#19=ITEM_DEFINED_TRANSFORMATION(' ',' ',#267,#292);
#20=ITEM_DEFINED_TRANSFORMATION(' ',' ',#267,#293);
#21=ITEM_DEFINED_TRANSFORMATION(' ',' ',#267,#294);
#22=ADVANCED_BREP_SHAPE_REPRESENTATION('202455403mod000_00-None',(#102),
#414);
#23=ADVANCED_BREP_SHAPE_REPRESENTATION('202457888mod000_00-None',(#101),
#413);
#24=CONSTRUCTIVE_GEOMETRY_REPRESENTATION_RELATIONSHIP(
'supplemental geometry','',#79,#28);
#25=CONSTRUCTIVE_GEOMETRY_REPRESENTATION_RELATIONSHIP(
'supplemental geometry','',#80,#29);
#26=CONSTRUCTIVE_GEOMETRY_REPRESENTATION_RELATIONSHIP(
'supplemental geometry','',#81,#30);
#27=CONSTRUCTIVE_GEOMETRY_REPRESENTATION_RELATIONSHIP(
'supplemental geometry','',#82,#31);
#28=CONSTRUCTIVE_GEOMETRY_REPRESENTATION('supplemental geometry',(#291),
#415);
#29=CONSTRUCTIVE_GEOMETRY_REPRESENTATION('supplemental geometry',(#285,
#286,#287),#414);
#30=CONSTRUCTIVE_GEOMETRY_REPRESENTATION('supplemental geometry',(#269,
#270,#271),#413);
#31=CONSTRUCTIVE_GEOMETRY_REPRESENTATION('supplemental geometry',(#268),
#412);
#32=SHAPE_REPRESENTATION_RELATIONSHIP('None',
'relationship between 202457887mod000_00-None and 202457887mod000_00-N
one',#79,#38);
#33=SHAPE_REPRESENTATION_RELATIONSHIP('None',
'relationship between 202455403mod000_00-None and 202455403mod000_00-N
one',#80,#22);
#34=SHAPE_REPRESENTATION_RELATIONSHIP('None',
'relationship between 202455403mod000_00-None and 202455403mod000_00-N
one',#80,#39);
#35=SHAPE_REPRESENTATION_RELATIONSHIP('None',
'relationship between 202457888mod000_00-None and 202457888mod000_00-N
one',#81,#23);
#36=SHAPE_REPRESENTATION_RELATIONSHIP('None',
'relationship between 202457888mod000_00-None and 202457888mod000_00-N
one',#81,#40);
#37=SHAPE_REPRESENTATION_RELATIONSHIP('None',
'relationship between 202457886mod000_00-None and 202457886mod000_00-N
one',#82,#41);
#38=GEOMETRICALLY_BOUNDED_WIREFRAME_SHAPE_REPRESENTATION(
'202457887mod000_00-None',(#83),#415);
#39=GEOMETRICALLY_BOUNDED_WIREFRAME_SHAPE_REPRESENTATION(
'202455403mod000_00-None',(#84),#414);
#40=GEOMETRICALLY_BOUNDED_WIREFRAME_SHAPE_REPRESENTATION(
'202457888mod000_00-None',(#85),#413);
#41=GEOMETRICALLY_BOUNDED_WIREFRAME_SHAPE_REPRESENTATION(
'202457886mod000_00-None',(#86),#412);
#42=SHAPE_DEFINITION_REPRESENTATION(#46,#79);
#43=SHAPE_DEFINITION_REPRESENTATION(#47,#80);
#44=SHAPE_DEFINITION_REPRESENTATION(#48,#81);
#45=SHAPE_DEFINITION_REPRESENTATION(#49,#82);
#46=PRODUCT_DEFINITION_SHAPE('','',#53);
#47=PRODUCT_DEFINITION_SHAPE('','',#54);
#48=PRODUCT_DEFINITION_SHAPE('','',#55);
#49=PRODUCT_DEFINITION_SHAPE('','',#56);
#50=PRODUCT_DEFINITION_SHAPE(' ','NAUO PRDDFN',#13);
#51=PRODUCT_DEFINITION_SHAPE(' ','NAUO PRDDFN',#14);
#52=PRODUCT_DEFINITION_SHAPE(' ','NAUO PRDDFN',#15);
#53=PRODUCT_DEFINITION(' ','',#61,#57);
#54=PRODUCT_DEFINITION(' ','',#62,#58);
#55=PRODUCT_DEFINITION(' ','',#63,#59);
#56=PRODUCT_DEFINITION(' ','',#64,#60);
#57=PRODUCT_DEFINITION_CONTEXT('part definition',#78,'design');
#58=PRODUCT_DEFINITION_CONTEXT('part definition',#78,'design');
#59=PRODUCT_DEFINITION_CONTEXT('part definition',#78,'design');
#60=PRODUCT_DEFINITION_CONTEXT('part definition',#78,'design');
#61=PRODUCT_DEFINITION_FORMATION_WITH_SPECIFIED_SOURCE(' ',' ',#69,
 .NOT_KNOWN.);
#62=PRODUCT_DEFINITION_FORMATION_WITH_SPECIFIED_SOURCE(' ',' ',#70,
 .NOT_KNOWN.);
#63=PRODUCT_DEFINITION_FORMATION_WITH_SPECIFIED_SOURCE(' ',' ',#71,
 .NOT_KNOWN.);
#64=PRODUCT_DEFINITION_FORMATION_WITH_SPECIFIED_SOURCE(' ',' ',#72,
 .NOT_KNOWN.);
#65=PRODUCT_RELATED_PRODUCT_CATEGORY('part','',(#69));
#66=PRODUCT_RELATED_PRODUCT_CATEGORY('part','',(#70));
#67=PRODUCT_RELATED_PRODUCT_CATEGORY('part','',(#71));
#68=PRODUCT_RELATED_PRODUCT_CATEGORY('part','',(#72));
#69=PRODUCT('ASSEMBLY_CONSTRUCTION','202457887mod000_00',' ',(#73));
#70=PRODUCT('202455403mod000_00','202455403mod000_00','MASTER_INSERT',(#74));
#71=PRODUCT('202457888mod000_00','202457888mod000_00','NOCUT',(#75));
#72=PRODUCT('202457886mod000_00','202457886mod000_00',' ',(#76));
#73=PRODUCT_CONTEXT(' ',#78,'mechanical');
#74=PRODUCT_CONTEXT(' ',#78,'mechanical');
#75=PRODUCT_CONTEXT(' ',#78,'mechanical');
#76=PRODUCT_CONTEXT(' ',#78,'mechanical');
#77=APPLICATION_PROTOCOL_DEFINITION('international standard',
'automotive_design',2010,#78);
#78=APPLICATION_CONTEXT(
'core data for automotive mechanical design processes');
#79=SHAPE_REPRESENTATION('202457887mod000_00-None',(#267),#415);
#80=SHAPE_REPRESENTATION('202455403mod000_00-None',(#267),#414);
#81=SHAPE_REPRESENTATION('202457888mod000_00-None',(#267),#413);
#82=SHAPE_REPRESENTATION('202457886mod000_00-None',(#267,#292,#293,#294),
#412);
#83=GEOMETRIC_CURVE_SET('None',(#402,#403));
#84=GEOMETRIC_CURVE_SET('None',(#379,#380,#381,#89));
#85=GEOMETRIC_CURVE_SET('None',(#354,#355,#356));
#86=GEOMETRIC_CURVE_SET('None',(#352));
#87=DRAUGHTING_PRE_DEFINED_COLOUR('blue');
#88=DRAUGHTING_PRE_DEFINED_COLOUR('white');
#89=TRIMMED_CURVE('CUTTING EDGE LINE',#90,(PARAMETER_VALUE(0.)),(
PARAMETER_VALUE(1.)),.T.,.PARAMETER.);
#90=(
BOUNDED_CURVE()
B_SPLINE_CURVE(3,(#382,#383,#384,#385,#386,#387,#388,#389,#390,#391,#392,
#393,#394),.UNSPECIFIED.,.T.,.F.)
B_SPLINE_CURVE_WITH_KNOTS((4,3,3,3,4),(0.,0.194219722092848,0.242497131983538,
0.663741751199388,1.),.UNSPECIFIED.)
CURVE()
GEOMETRIC_REPRESENTATION_ITEM()
RATIONAL_B_SPLINE_CURVE((1.,1.,1.,1.,0.996140396069082,0.996140396069082,
1.,0.726869726099239,0.726869726099239,1.,1.,1.,1.))
REPRESENTATION_ITEM('CUTTING EDGE LINE')
);
#91=SURFACE_STYLE_USAGE(.BOTH.,#93);
#92=SURFACE_STYLE_USAGE(.BOTH.,#94);
#93=SURFACE_SIDE_STYLE('',(#95));
#94=SURFACE_SIDE_STYLE('',(#96));
#95=SURFACE_STYLE_FILL_AREA(#97);
#96=SURFACE_STYLE_FILL_AREA(#98);
#97=FILL_AREA_STYLE('',(#99));
#98=FILL_AREA_STYLE('',(#100));
#99=FILL_AREA_STYLE_COLOUR('',#265);
#100=FILL_AREA_STYLE_COLOUR('',#266);
#101=MANIFOLD_SOLID_BREP('NOCUT',#103);
#102=MANIFOLD_SOLID_BREP('CUT',#104);
#103=CLOSED_SHELL('',(#121,#122,#123,#124,#125,#126,#127));
#104=CLOSED_SHELL('',(#128,#129));
#105=SPHERICAL_SURFACE('',#284,7.0625);
#106=SPHERICAL_SURFACE('',#289,7.99599999999274);
#107=TOROIDAL_SURFACE('',#281,9.5625,2.5);
#108=CONICAL_SURFACE('',#280,6.9975,45.);
#109=CYLINDRICAL_SURFACE('',#276,7.0625);
#110=CYLINDRICAL_SURFACE('',#279,8.0625);
#111=FACE_BOUND('',#138,.T.);
#112=FACE_BOUND('',#139,.T.);
#113=FACE_BOUND('',#140,.T.);
#114=FACE_BOUND('',#141,.T.);
#115=FACE_BOUND('',#142,.T.);
#116=FACE_BOUND('',#143,.T.);
#117=FACE_BOUND('',#144,.T.);
#118=FACE_BOUND('',#145,.T.);
#119=FACE_BOUND('',#147,.T.);
#120=FACE_BOUND('',#148,.T.);
#121=ADVANCED_FACE('',(#133),#130,.T.);
#122=ADVANCED_FACE('',(#111,#112),#109,.T.);
#123=ADVANCED_FACE('',(#113,#114),#110,.T.);
#124=ADVANCED_FACE('',(#115,#116),#108,.T.);
#125=ADVANCED_FACE('',(#117,#118),#107,.F.);
#126=ADVANCED_FACE('',(#134),#131,.F.);
#127=ADVANCED_FACE('',(#119,#120),#105,.T.);
#128=ADVANCED_FACE('',(#135),#106,.T.);
#129=ADVANCED_FACE('',(#136),#132,.T.);
#130=PLANE('',#273);
#131=PLANE('',#283);
#132=PLANE('',#290);
#133=FACE_OUTER_BOUND('',#137,.T.);
#134=FACE_OUTER_BOUND('',#146,.T.);
#135=FACE_OUTER_BOUND('',#149,.T.);
#136=FACE_OUTER_BOUND('',#150,.T.);
#137=EDGE_LOOP('',(#151));
#138=EDGE_LOOP('',(#152));
#139=EDGE_LOOP('',(#153));
#140=EDGE_LOOP('',(#154));
#141=EDGE_LOOP('',(#155));
#142=EDGE_LOOP('',(#156));
#143=EDGE_LOOP('',(#157));
#144=EDGE_LOOP('',(#158));
#145=EDGE_LOOP('',(#159));
#146=EDGE_LOOP('',(#160));
#147=EDGE_LOOP('',(#161));
#148=EDGE_LOOP('',(#162));
#149=EDGE_LOOP('',(#163));
#150=EDGE_LOOP('',(#164));
#151=ORIENTED_EDGE('',*,*,#172,.T.);
#152=ORIENTED_EDGE('',*,*,#173,.T.);
#153=ORIENTED_EDGE('',*,*,#174,.T.);
#154=ORIENTED_EDGE('',*,*,#175,.F.);
#155=ORIENTED_EDGE('',*,*,#176,.T.);
#156=ORIENTED_EDGE('',*,*,#175,.T.);
#157=ORIENTED_EDGE('',*,*,#172,.F.);
#158=ORIENTED_EDGE('',*,*,#173,.F.);
#159=ORIENTED_EDGE('',*,*,#176,.F.);
#160=ORIENTED_EDGE('',*,*,#177,.F.);
#161=ORIENTED_EDGE('',*,*,#177,.T.);
#162=ORIENTED_EDGE('',*,*,#174,.F.);
#163=ORIENTED_EDGE('',*,*,#178,.T.);
#164=ORIENTED_EDGE('',*,*,#178,.F.);
#165=VERTEX_POINT('',#361);
#166=VERTEX_POINT('',#364);
#167=VERTEX_POINT('',#366);
#168=VERTEX_POINT('',#369);
#169=VERTEX_POINT('',#371);
#170=VERTEX_POINT('',#376);
#171=VERTEX_POINT('',#399);
#172=EDGE_CURVE('',#165,#165,#179,.T.);
#173=EDGE_CURVE('',#166,#166,#180,.T.);
#174=EDGE_CURVE('',#167,#167,#181,.T.);
#175=EDGE_CURVE('',#168,#168,#182,.T.);
#176=EDGE_CURVE('',#169,#169,#183,.T.);
#177=EDGE_CURVE('',#170,#170,#184,.T.);
#178=EDGE_CURVE('',#171,#171,#185,.T.);
#179=CIRCLE('',#272,6.9975);
#180=CIRCLE('',#274,7.0625);
#181=CIRCLE('',#275,7.0625);
#182=CIRCLE('',#277,8.0625);
#183=CIRCLE('',#278,8.0625);
#184=CIRCLE('',#282,4.43045214961182);
#185=CIRCLE('',#288,6.92618190275133);
#186=CURVE_STYLE('',#195,POSITIVE_LENGTH_MEASURE(0.18),#264);
#187=CURVE_STYLE('',#196,POSITIVE_LENGTH_MEASURE(0.18),#264);
#188=CURVE_STYLE('',#197,POSITIVE_LENGTH_MEASURE(0.18),#264);
#189=CURVE_STYLE('',#198,POSITIVE_LENGTH_MEASURE(0.18),#264);
#190=CURVE_STYLE('',#199,POSITIVE_LENGTH_MEASURE(0.18),#87);
#191=CURVE_STYLE('',#200,POSITIVE_LENGTH_MEASURE(0.18),#264);
#192=CURVE_STYLE('',#201,POSITIVE_LENGTH_MEASURE(0.18),#264);
#193=CURVE_STYLE('',#202,POSITIVE_LENGTH_MEASURE(0.18),#264);
#194=CURVE_STYLE('',#203,POSITIVE_LENGTH_MEASURE(0.18),#264);
#195=DRAUGHTING_PRE_DEFINED_CURVE_FONT('continuous');
#196=DRAUGHTING_PRE_DEFINED_CURVE_FONT('continuous');
#197=DRAUGHTING_PRE_DEFINED_CURVE_FONT('continuous');
#198=DRAUGHTING_PRE_DEFINED_CURVE_FONT('continuous');
#199=DRAUGHTING_PRE_DEFINED_CURVE_FONT('continuous');
#200=DRAUGHTING_PRE_DEFINED_CURVE_FONT('continuous');
#201=DRAUGHTING_PRE_DEFINED_CURVE_FONT('continuous');
#202=DRAUGHTING_PRE_DEFINED_CURVE_FONT('continuous');
#203=DRAUGHTING_PRE_DEFINED_CURVE_FONT('continuous');
#204=PRESENTATION_LAYER_ASSIGNMENT('1','Layer 1',(#352,#268,#354,#355,#356,
#269,#270,#271,#379,#380,#381,#89,#285,#286,#287,#102,#402,#403,#291));
#205=PRESENTATION_LAYER_ASSIGNMENT('80','Layer 80',(#101));
#206=STYLED_ITEM('',(#226),#352);
#207=STYLED_ITEM('',(#227),#268);
#208=STYLED_ITEM('',(#228),#354);
#209=STYLED_ITEM('',(#229),#355);
#210=STYLED_ITEM('',(#230),#356);
#211=STYLED_ITEM('',(#231),#269);
#212=STYLED_ITEM('',(#232),#270);
#213=STYLED_ITEM('',(#233),#271);
#214=STYLED_ITEM('',(#234),#101);
#215=STYLED_ITEM('',(#235),#379);
#216=STYLED_ITEM('',(#236),#380);
#217=STYLED_ITEM('',(#237),#381);
#218=STYLED_ITEM('',(#238),#89);
#219=STYLED_ITEM('',(#239),#285);
#220=STYLED_ITEM('',(#240),#286);
#221=STYLED_ITEM('',(#241),#287);
#222=STYLED_ITEM('',(#242),#102);
#223=STYLED_ITEM('',(#243),#402);
#224=STYLED_ITEM('',(#244),#403);
#225=STYLED_ITEM('',(#245),#291);
#226=PRESENTATION_STYLE_ASSIGNMENT((#246));
#227=PRESENTATION_STYLE_ASSIGNMENT((#186));
#228=PRESENTATION_STYLE_ASSIGNMENT((#247));
#229=PRESENTATION_STYLE_ASSIGNMENT((#248));
#230=PRESENTATION_STYLE_ASSIGNMENT((#249));
#231=PRESENTATION_STYLE_ASSIGNMENT((#187));
#232=PRESENTATION_STYLE_ASSIGNMENT((#188));
#233=PRESENTATION_STYLE_ASSIGNMENT((#189));
#234=PRESENTATION_STYLE_ASSIGNMENT((#91));
#235=PRESENTATION_STYLE_ASSIGNMENT((#250));
#236=PRESENTATION_STYLE_ASSIGNMENT((#251));
#237=PRESENTATION_STYLE_ASSIGNMENT((#252));
#238=PRESENTATION_STYLE_ASSIGNMENT((#190));
#239=PRESENTATION_STYLE_ASSIGNMENT((#191));
#240=PRESENTATION_STYLE_ASSIGNMENT((#192));
#241=PRESENTATION_STYLE_ASSIGNMENT((#193));
#242=PRESENTATION_STYLE_ASSIGNMENT((#92));
#243=PRESENTATION_STYLE_ASSIGNMENT((#253));
#244=PRESENTATION_STYLE_ASSIGNMENT((#254));
#245=PRESENTATION_STYLE_ASSIGNMENT((#194));
#246=POINT_STYLE('',#255,POSITIVE_LENGTH_MEASURE(3.),#264);
#247=POINT_STYLE('',#256,POSITIVE_LENGTH_MEASURE(3.),#264);
#248=POINT_STYLE('',#257,POSITIVE_LENGTH_MEASURE(3.),#264);
#249=POINT_STYLE('',#258,POSITIVE_LENGTH_MEASURE(3.),#264);
#250=POINT_STYLE('',#259,POSITIVE_LENGTH_MEASURE(3.),#264);
#251=POINT_STYLE('',#260,POSITIVE_LENGTH_MEASURE(3.),#264);
#252=POINT_STYLE('',#261,POSITIVE_LENGTH_MEASURE(3.),#264);
#253=POINT_STYLE('',#262,POSITIVE_LENGTH_MEASURE(3.),#88);
#254=POINT_STYLE('',#263,POSITIVE_LENGTH_MEASURE(3.),#264);
#255=PRE_DEFINED_POINT_MARKER_SYMBOL('plus');
#256=PRE_DEFINED_POINT_MARKER_SYMBOL('plus');
#257=PRE_DEFINED_POINT_MARKER_SYMBOL('plus');
#258=PRE_DEFINED_POINT_MARKER_SYMBOL('plus');
#259=PRE_DEFINED_POINT_MARKER_SYMBOL('plus');
#260=PRE_DEFINED_POINT_MARKER_SYMBOL('plus');
#261=PRE_DEFINED_POINT_MARKER_SYMBOL('plus');
#262=PRE_DEFINED_POINT_MARKER_SYMBOL('plus');
#263=PRE_DEFINED_POINT_MARKER_SYMBOL('plus');
#264=COLOUR_RGB('Medium Maroon',0.6,0.4,0.4);
#265=COLOUR_RGB('Medium Gray',0.490196078431373,0.490196078431373,0.490196078431373);
#266=COLOUR_RGB('Light Gray',0.8,0.8,0.8);
#267=AXIS2_PLACEMENT_3D('',#351,#295,#296);
#268=AXIS2_PLACEMENT_3D('',#353,#297,#298);
#269=AXIS2_PLACEMENT_3D('CSW',#357,#299,#300);
#270=AXIS2_PLACEMENT_3D('MCS',#358,#301,#302);
#271=AXIS2_PLACEMENT_3D('PCS',#359,#303,#304);
#272=AXIS2_PLACEMENT_3D('',#360,#305,#306);
#273=AXIS2_PLACEMENT_3D('',#362,#307,#308);
#274=AXIS2_PLACEMENT_3D('',#363,#309,#310);
#275=AXIS2_PLACEMENT_3D('',#365,#311,#312);
#276=AXIS2_PLACEMENT_3D('',#367,#313,#314);
#277=AXIS2_PLACEMENT_3D('',#368,#315,#316);
#278=AXIS2_PLACEMENT_3D('',#370,#317,#318);
#279=AXIS2_PLACEMENT_3D('',#372,#319,#320);
#280=AXIS2_PLACEMENT_3D('',#373,#321,#322);
#281=AXIS2_PLACEMENT_3D('',#374,#323,#324);
#282=AXIS2_PLACEMENT_3D('',#375,#325,#326);
#283=AXIS2_PLACEMENT_3D('',#377,#327,#328);
#284=AXIS2_PLACEMENT_3D('',#378,#329,#330);
#285=AXIS2_PLACEMENT_3D('CIP',#395,#331,#332);
#286=AXIS2_PLACEMENT_3D('MCS',#396,#333,#334);
#287=AXIS2_PLACEMENT_3D('PCS',#397,#335,#336);
#288=AXIS2_PLACEMENT_3D('',#398,#337,#338);
#289=AXIS2_PLACEMENT_3D('',#400,#339,#340);
#290=AXIS2_PLACEMENT_3D('',#401,#341,#342);
#291=AXIS2_PLACEMENT_3D('',#404,#343,#344);
#292=AXIS2_PLACEMENT_3D('',#405,#345,#346);
#293=AXIS2_PLACEMENT_3D('',#406,#347,#348);
#294=AXIS2_PLACEMENT_3D('',#407,#349,#350);
#295=DIRECTION('',(0.,0.,1.));
#296=DIRECTION('',(1.,0.,0.));
#297=DIRECTION('',(0.,0.,1.));
#298=DIRECTION('',(1.,0.,0.));
#299=DIRECTION('',(0.,0.,1.));
#300=DIRECTION('',(1.,0.,0.));
#301=DIRECTION('',(0.,0.,1.));
#302=DIRECTION('',(1.,0.,0.));
#303=DIRECTION('',(0.,0.,1.));
#304=DIRECTION('',(1.,0.,0.));
#305=DIRECTION('',(0.,0.,1.));
#306=DIRECTION('',(1.,0.,0.));
#307=DIRECTION('',(0.,0.,1.));
#308=DIRECTION('',(1.,0.,0.));
#309=DIRECTION('',(0.,0.,-1.));
#310=DIRECTION('',(1.,0.,0.));
#311=DIRECTION('',(0.,0.,1.));
#312=DIRECTION('',(1.,0.,0.));
#313=DIRECTION('',(0.,0.,1.));
#314=DIRECTION('',(1.,0.,0.));
#315=DIRECTION('',(0.,0.,1.));
#316=DIRECTION('',(-1.,0.,0.));
#317=DIRECTION('',(0.,0.,1.));
#318=DIRECTION('',(-1.,0.,0.));
#319=DIRECTION('',(0.,0.,1.));
#320=DIRECTION('',(1.,0.,0.));
#321=DIRECTION('',(0.,0.,-1.));
#322=DIRECTION('',(-1.,0.,0.));
#323=DIRECTION('',(0.,0.,1.));
#324=DIRECTION('',(1.,0.,0.));
#325=DIRECTION('',(0.,0.,1.));
#326=DIRECTION('',(1.,0.,0.));
#327=DIRECTION('',(0.,0.,1.));
#328=DIRECTION('',(1.,0.,0.));
#329=DIRECTION('',(-1.,0.,0.));
#330=DIRECTION('',(0.,0.,1.));
#331=DIRECTION('',(0.,0.,1.));
#332=DIRECTION('',(1.,0.,0.));
#333=DIRECTION('',(0.,0.,1.));
#334=DIRECTION('',(1.,0.,0.));
#335=DIRECTION('',(0.,0.,1.));
#336=DIRECTION('',(1.,0.,0.));
#337=DIRECTION('',(0.,0.,-1.));
#338=DIRECTION('',(-1.,0.,0.));
#339=DIRECTION('',(-6.12323399573677E-17,0.,-1.));
#340=DIRECTION('',(-1.,5.91327350820474E-17,0.));
#341=DIRECTION('',(0.,0.,1.));
#342=DIRECTION('',(1.,0.,0.));
#343=DIRECTION('',(0.,0.,1.));
#344=DIRECTION('',(1.,0.,0.));
#345=DIRECTION('',(0.,0.,1.));
#346=DIRECTION('',(1.,0.,0.));
#347=DIRECTION('',(0.,0.,1.));
#348=DIRECTION('',(1.,0.,0.));
#349=DIRECTION('',(0.,0.,1.));
#350=DIRECTION('',(1.,0.,0.));
#351=CARTESIAN_POINT('',(0.,0.,0.));
#352=CARTESIAN_POINT('',(0.,0.,0.));
#353=CARTESIAN_POINT('',(0.,0.,0.));
#354=CARTESIAN_POINT('PCS',(6.78192604195357E-14,-8.32533827832857E-15,
0.));
#355=CARTESIAN_POINT('MCS',(0.,0.,-48.));
#356=CARTESIAN_POINT('CSW',(6.88063451824208E-14,0.,-80.0045));
#357=CARTESIAN_POINT('',(6.88063451824208E-14,0.,-80.0045));
#358=CARTESIAN_POINT('',(0.,0.,-48.));
#359=CARTESIAN_POINT('',(6.78192604195357E-14,-8.32533827832857E-15,0.));
#360=CARTESIAN_POINT('',(-7.61445986978641E-14,0.,0.));
#361=CARTESIAN_POINT('',(6.99749999999993,0.,0.));
#362=CARTESIAN_POINT('',(-7.61445986978641E-14,0.,0.));
#363=CARTESIAN_POINT('',(-7.61445986978641E-14,0.,-61.9493616102294));
#364=CARTESIAN_POINT('',(7.06249999999992,0.,-61.9493616102294));
#365=CARTESIAN_POINT('',(-7.61445986978641E-14,0.,-84.));
#366=CARTESIAN_POINT('',(7.06249999999992,0.,-84.));
#367=CARTESIAN_POINT('',(-7.61445986978641E-14,0.,51.2268152444466));
#368=CARTESIAN_POINT('',(-7.61445986978641E-14,0.,-1.065));
#369=CARTESIAN_POINT('',(-8.06250000000007,0.,-1.065));
#370=CARTESIAN_POINT('',(-7.61445986978641E-14,0.,-59.9493616102294));
#371=CARTESIAN_POINT('',(-8.06250000000007,0.,-59.9493616102294));
#372=CARTESIAN_POINT('',(-7.61445986978641E-14,0.,51.2268152444466));
#373=CARTESIAN_POINT('',(-7.61445986978641E-14,0.,0.));
#374=CARTESIAN_POINT('',(-7.61445986978641E-14,0.,-61.9493616102294));
#375=CARTESIAN_POINT('',(-7.61445986978641E-14,0.,-89.5));
#376=CARTESIAN_POINT('',(4.43045214961174,0.,-89.5));
#377=CARTESIAN_POINT('',(-7.61445986978641E-14,0.,-89.5));
#378=CARTESIAN_POINT('',(-7.61445986978641E-14,0.,-84.));
#379=CARTESIAN_POINT('',(0.,0.,-11.9955));
#380=CARTESIAN_POINT('',(0.,0.,0.));
#381=CARTESIAN_POINT('',(0.,0.,0.));
#382=CARTESIAN_POINT('',(0.,4.44089209850063E-16,1.33226762955019E-15));
#383=CARTESIAN_POINT('',(-2.30872730091711,4.44089209850063E-16,1.33226762955019E-15));
#384=CARTESIAN_POINT('',(-4.61745460183422,4.44089209850063E-16,1.33226762955019E-15));
#385=CARTESIAN_POINT('',(-6.92618190275133,4.44089209850063E-16,2.22044604925031E-15));
#386=CARTESIAN_POINT('',(-7.2134992399493,4.44089209850063E-16,-0.498063356587987));
#387=CARTESIAN_POINT('',(-7.44563675470237,4.44089209850063E-16,-1.02411519212751));
#388=CARTESIAN_POINT('',(-7.61990657042318,7.94133999890943E-16,-1.57206445144055));
#389=CARTESIAN_POINT('',(-9.41403835352665,4.39789338142519E-15,-7.21327763339791));
#390=CARTESIAN_POINT('',(-5.91964483894062,1.14417878993182E-15,-11.9915));
#391=CARTESIAN_POINT('',(2.44806895149556E-16,7.94133999890943E-16,-11.9915));
#392=CARTESIAN_POINT('',(0.,4.44089209850063E-16,-7.99433333333333));
#393=CARTESIAN_POINT('',(0.,4.44089209850063E-16,-3.99716666666667));
#394=CARTESIAN_POINT('',(0.,4.44089209850063E-16,1.77635683940025E-15));
#395=CARTESIAN_POINT('',(0.,0.,-11.9955));
#396=CARTESIAN_POINT('',(0.,0.,0.));
#397=CARTESIAN_POINT('',(0.,0.,0.));
#398=CARTESIAN_POINT('',(0.,0.,2.22044604925031E-15));
#399=CARTESIAN_POINT('',(-6.92618190275133,0.,2.22044604925031E-15));
#400=CARTESIAN_POINT('',(9.14559089545482E-15,-1.15871088149025E-15,-3.99550000002084));
#401=CARTESIAN_POINT('',(-6.92618190275133,4.44089209850063E-16,1.77635683940025E-15));
#402=CARTESIAN_POINT('CRP',(-7.996,0.,-91.996));
#403=CARTESIAN_POINT('',(0.,0.,0.));
#404=CARTESIAN_POINT('',(0.,0.,0.));
#405=CARTESIAN_POINT('',(0.,0.,0.));
#406=CARTESIAN_POINT('',(9.87084762885103E-16,0.,-80.0045));
#407=CARTESIAN_POINT('',(0.,0.,0.));
#408=MECHANICAL_DESIGN_GEOMETRIC_PRESENTATION_REPRESENTATION('',(#206,#207),
#412);
#409=MECHANICAL_DESIGN_GEOMETRIC_PRESENTATION_REPRESENTATION('',(#208,#209,
#210,#211,#212,#213,#214),#413);
#410=MECHANICAL_DESIGN_GEOMETRIC_PRESENTATION_REPRESENTATION('',(#215,#216,
#217,#218,#219,#220,#221,#222),#414);
#411=MECHANICAL_DESIGN_GEOMETRIC_PRESENTATION_REPRESENTATION('',(#223,#224,
#225),#415);
#412=(
GEOMETRIC_REPRESENTATION_CONTEXT(3)
GLOBAL_UNCERTAINTY_ASSIGNED_CONTEXT((#416))
GLOBAL_UNIT_ASSIGNED_CONTEXT((#425,#421,#420))
REPRESENTATION_CONTEXT('1590648786821','TOP_LEVEL_ASSEMBLY_PART')
);
#413=(
GEOMETRIC_REPRESENTATION_CONTEXT(3)
GLOBAL_UNCERTAINTY_ASSIGNED_CONTEXT((#417))
GLOBAL_UNIT_ASSIGNED_CONTEXT((#425,#421,#420))
REPRESENTATION_CONTEXT('202457888mod000_00','COMPONENT_PART')
);
#414=(
GEOMETRIC_REPRESENTATION_CONTEXT(3)
GLOBAL_UNCERTAINTY_ASSIGNED_CONTEXT((#418))
GLOBAL_UNIT_ASSIGNED_CONTEXT((#425,#421,#420))
REPRESENTATION_CONTEXT('202455403mod000_00','COMPONENT_PART')
);
#415=(
GEOMETRIC_REPRESENTATION_CONTEXT(3)
GLOBAL_UNCERTAINTY_ASSIGNED_CONTEXT((#419))
GLOBAL_UNIT_ASSIGNED_CONTEXT((#425,#421,#420))
REPRESENTATION_CONTEXT('202457887mod000_00','COMPONENT_PART')
);
#416=UNCERTAINTY_MEASURE_WITH_UNIT(LENGTH_MEASURE(2.E-5),#425,
'DISTANCE_ACCURACY_VALUE','Maximum Tolerance applied to model');
#417=UNCERTAINTY_MEASURE_WITH_UNIT(LENGTH_MEASURE(2.E-5),#425,
'DISTANCE_ACCURACY_VALUE','Maximum Tolerance applied to model');
#418=UNCERTAINTY_MEASURE_WITH_UNIT(LENGTH_MEASURE(2.E-5),#425,
'DISTANCE_ACCURACY_VALUE','Maximum Tolerance applied to model');
#419=UNCERTAINTY_MEASURE_WITH_UNIT(LENGTH_MEASURE(2.E-5),#425,
'DISTANCE_ACCURACY_VALUE','Maximum Tolerance applied to model');
#420=(
NAMED_UNIT(*)
SI_UNIT($,.STERADIAN.)
SOLID_ANGLE_UNIT()
);
#421=(
CONVERSION_BASED_UNIT('DEGREE',#423)
NAMED_UNIT(#422)
PLANE_ANGLE_UNIT()
);
#422=DIMENSIONAL_EXPONENTS(0.,0.,0.,0.,0.,0.,0.);
#423=PLANE_ANGLE_MEASURE_WITH_UNIT(PLANE_ANGLE_MEASURE(0.0174532925),#424);
#424=(
NAMED_UNIT(*)
PLANE_ANGLE_UNIT()
SI_UNIT($,.RADIAN.)
);
#425=(
LENGTH_UNIT()
NAMED_UNIT(*)
SI_UNIT(.MILLI.,.METRE.)
);
ENDSEC;
END-ISO-10303-21;
