ISO-10303-21;
HEADER;
/* Generated by software containing ST-Developer
 * from STEP Tools, Inc. (www.steptools.com) 
 */
/* OPTION: using custom schema-name function */

FILE_DESCRIPTION(
/* description */ (''),
/* implementation_level */ '2;1');

FILE_NAME(
/* name */ '1590648746279.stp',
/* time_stamp */ '2020-05-28T12:22:46+06:00',
/* author */ (''),
/* organization */ ('SMS'),
/* preprocessor_version */ 'ST-DEVELOPER v16.7',
/* originating_system */ 'SIEMENS PLM Software NX 12.0',
/* authorisation */ '');

FILE_SCHEMA (('AUTOMOTIVE_DESIGN { 1 0 10303 214 3 1 1 1 }'));
ENDSEC;

DATA;
#10=CONTEXT_DEPENDENT_SHAPE_REPRESENTATION(#16,#50);
#11=CONTEXT_DEPENDENT_SHAPE_REPRESENTATION(#17,#51);
#12=CONTEXT_DEPENDENT_SHAPE_REPRESENTATION(#18,#52);
#13=NEXT_ASSEMBLY_USAGE_OCCURRENCE('1001',' ',
'NXMOD-TM01_00-000-00-R216F_16A16C_063_PP_BAS',#56,#55,$);
#14=NEXT_ASSEMBLY_USAGE_OCCURRENCE('1002',' ',
'NXMOD-TM01_00-000-00-MI_R216F_1640_R1_BAS',#56,#54,$);
#15=NEXT_ASSEMBLY_USAGE_OCCURRENCE('1003',' ',
'NXMOD-TM01_00-000-00-R216F_16A16C_063_ACN_BAS',#56,#53,$);
#16=(
REPRESENTATION_RELATIONSHIP(' ',' ',#81,#82)
REPRESENTATION_RELATIONSHIP_WITH_TRANSFORMATION(#19)
SHAPE_REPRESENTATION_RELATIONSHIP()
);
#17=(
REPRESENTATION_RELATIONSHIP(' ',' ',#80,#82)
REPRESENTATION_RELATIONSHIP_WITH_TRANSFORMATION(#20)
SHAPE_REPRESENTATION_RELATIONSHIP()
);
#18=(
REPRESENTATION_RELATIONSHIP(' ',' ',#79,#82)
REPRESENTATION_RELATIONSHIP_WITH_TRANSFORMATION(#21)
SHAPE_REPRESENTATION_RELATIONSHIP()
);
#19=ITEM_DEFINED_TRANSFORMATION(' ',' ',#333,#370);
#20=ITEM_DEFINED_TRANSFORMATION(' ',' ',#333,#371);
#21=ITEM_DEFINED_TRANSFORMATION(' ',' ',#333,#372);
#22=ADVANCED_BREP_SHAPE_REPRESENTATION('202455403mod000_00-None',(#102),
#534);
#23=ADVANCED_BREP_SHAPE_REPRESENTATION('202455405mod000_00-None',(#101),
#533);
#24=CONSTRUCTIVE_GEOMETRY_REPRESENTATION_RELATIONSHIP(
'supplemental geometry','',#79,#28);
#25=CONSTRUCTIVE_GEOMETRY_REPRESENTATION_RELATIONSHIP(
'supplemental geometry','',#80,#29);
#26=CONSTRUCTIVE_GEOMETRY_REPRESENTATION_RELATIONSHIP(
'supplemental geometry','',#81,#30);
#27=CONSTRUCTIVE_GEOMETRY_REPRESENTATION_RELATIONSHIP(
'supplemental geometry','',#82,#31);
#28=CONSTRUCTIVE_GEOMETRY_REPRESENTATION('supplemental geometry',(#369),
#535);
#29=CONSTRUCTIVE_GEOMETRY_REPRESENTATION('supplemental geometry',(#363,
#364,#365),#534);
#30=CONSTRUCTIVE_GEOMETRY_REPRESENTATION('supplemental geometry',(#335,
#336,#337),#533);
#31=CONSTRUCTIVE_GEOMETRY_REPRESENTATION('supplemental geometry',(#334),
#532);
#32=SHAPE_REPRESENTATION_RELATIONSHIP('None',
'relationship between 202455406mod000_00-None and 202455406mod000_00-N
one',#79,#38);
#33=SHAPE_REPRESENTATION_RELATIONSHIP('None',
'relationship between 202455403mod000_00-None and 202455403mod000_00-N
one',#80,#22);
#34=SHAPE_REPRESENTATION_RELATIONSHIP('None',
'relationship between 202455403mod000_00-None and 202455403mod000_00-N
one',#80,#39);
#35=SHAPE_REPRESENTATION_RELATIONSHIP('None',
'relationship between 202455405mod000_00-None and 202455405mod000_00-N
one',#81,#23);
#36=SHAPE_REPRESENTATION_RELATIONSHIP('None',
'relationship between 202455405mod000_00-None and 202455405mod000_00-N
one',#81,#40);
#37=SHAPE_REPRESENTATION_RELATIONSHIP('None',
'relationship between 202455404mod000_00-None and 202455404mod000_00-N
one',#82,#41);
#38=GEOMETRICALLY_BOUNDED_WIREFRAME_SHAPE_REPRESENTATION(
'202455406mod000_00-None',(#83),#535);
#39=GEOMETRICALLY_BOUNDED_WIREFRAME_SHAPE_REPRESENTATION(
'202455403mod000_00-None',(#84),#534);
#40=GEOMETRICALLY_BOUNDED_WIREFRAME_SHAPE_REPRESENTATION(
'202455405mod000_00-None',(#85),#533);
#41=GEOMETRICALLY_BOUNDED_WIREFRAME_SHAPE_REPRESENTATION(
'202455404mod000_00-None',(#86),#532);
#42=SHAPE_DEFINITION_REPRESENTATION(#46,#79);
#43=SHAPE_DEFINITION_REPRESENTATION(#47,#80);
#44=SHAPE_DEFINITION_REPRESENTATION(#48,#81);
#45=SHAPE_DEFINITION_REPRESENTATION(#49,#82);
#46=PRODUCT_DEFINITION_SHAPE('','',#53);
#47=PRODUCT_DEFINITION_SHAPE('','',#54);
#48=PRODUCT_DEFINITION_SHAPE('','',#55);
#49=PRODUCT_DEFINITION_SHAPE('','',#56);
#50=PRODUCT_DEFINITION_SHAPE(' ','NAUO PRDDFN',#13);
#51=PRODUCT_DEFINITION_SHAPE(' ','NAUO PRDDFN',#14);
#52=PRODUCT_DEFINITION_SHAPE(' ','NAUO PRDDFN',#15);
#53=PRODUCT_DEFINITION(' ','',#61,#57);
#54=PRODUCT_DEFINITION(' ','',#62,#58);
#55=PRODUCT_DEFINITION(' ','',#63,#59);
#56=PRODUCT_DEFINITION(' ','',#64,#60);
#57=PRODUCT_DEFINITION_CONTEXT('part definition',#78,'design');
#58=PRODUCT_DEFINITION_CONTEXT('part definition',#78,'design');
#59=PRODUCT_DEFINITION_CONTEXT('part definition',#78,'design');
#60=PRODUCT_DEFINITION_CONTEXT('part definition',#78,'design');
#61=PRODUCT_DEFINITION_FORMATION_WITH_SPECIFIED_SOURCE(' ',' ',#69,
 .NOT_KNOWN.);
#62=PRODUCT_DEFINITION_FORMATION_WITH_SPECIFIED_SOURCE(' ',' ',#70,
 .NOT_KNOWN.);
#63=PRODUCT_DEFINITION_FORMATION_WITH_SPECIFIED_SOURCE(' ',' ',#71,
 .NOT_KNOWN.);
#64=PRODUCT_DEFINITION_FORMATION_WITH_SPECIFIED_SOURCE(' ',' ',#72,
 .NOT_KNOWN.);
#65=PRODUCT_RELATED_PRODUCT_CATEGORY('part','',(#69));
#66=PRODUCT_RELATED_PRODUCT_CATEGORY('part','',(#70));
#67=PRODUCT_RELATED_PRODUCT_CATEGORY('part','',(#71));
#68=PRODUCT_RELATED_PRODUCT_CATEGORY('part','',(#72));
#69=PRODUCT('ASSEMBLY_CONSTRUCTION','202455406mod000_00',' ',(#73));
#70=PRODUCT('202455403mod000_00','202455403mod000_00','MASTER_INSERT',(#74));
#71=PRODUCT('202455405mod000_00','202455405mod000_00','NOCUT',(#75));
#72=PRODUCT('202455404mod000_00','202455404mod000_00',' ',(#76));
#73=PRODUCT_CONTEXT(' ',#78,'mechanical');
#74=PRODUCT_CONTEXT(' ',#78,'mechanical');
#75=PRODUCT_CONTEXT(' ',#78,'mechanical');
#76=PRODUCT_CONTEXT(' ',#78,'mechanical');
#77=APPLICATION_PROTOCOL_DEFINITION('international standard',
'automotive_design',2010,#78);
#78=APPLICATION_CONTEXT(
'core data for automotive mechanical design processes');
#79=SHAPE_REPRESENTATION('202455406mod000_00-None',(#333),#535);
#80=SHAPE_REPRESENTATION('202455403mod000_00-None',(#333),#534);
#81=SHAPE_REPRESENTATION('202455405mod000_00-None',(#333),#533);
#82=SHAPE_REPRESENTATION('202455404mod000_00-None',(#333,#370,#371,#372),
#532);
#83=GEOMETRIC_CURVE_SET('None',(#522,#523));
#84=GEOMETRIC_CURVE_SET('None',(#499,#500,#501,#89));
#85=GEOMETRIC_CURVE_SET('None',(#456,#457,#458));
#86=GEOMETRIC_CURVE_SET('None',(#454));
#87=DRAUGHTING_PRE_DEFINED_COLOUR('blue');
#88=DRAUGHTING_PRE_DEFINED_COLOUR('white');
#89=TRIMMED_CURVE('CUTTING EDGE LINE',#90,(PARAMETER_VALUE(0.)),(
PARAMETER_VALUE(1.)),.T.,.PARAMETER.);
#90=(
BOUNDED_CURVE()
B_SPLINE_CURVE(3,(#502,#503,#504,#505,#506,#507,#508,#509,#510,#511,#512,
#513,#514),.UNSPECIFIED.,.T.,.F.)
B_SPLINE_CURVE_WITH_KNOTS((4,3,3,3,4),(0.,0.194219722092848,0.242497131983538,
0.663741751199388,1.),.UNSPECIFIED.)
CURVE()
GEOMETRIC_REPRESENTATION_ITEM()
RATIONAL_B_SPLINE_CURVE((1.,1.,1.,1.,0.996140396069082,0.996140396069082,
1.,0.726869726099239,0.726869726099239,1.,1.,1.,1.))
REPRESENTATION_ITEM('CUTTING EDGE LINE')
);
#91=SURFACE_STYLE_USAGE(.BOTH.,#93);
#92=SURFACE_STYLE_USAGE(.BOTH.,#94);
#93=SURFACE_SIDE_STYLE('',(#95));
#94=SURFACE_SIDE_STYLE('',(#96));
#95=SURFACE_STYLE_FILL_AREA(#97);
#96=SURFACE_STYLE_FILL_AREA(#98);
#97=FILL_AREA_STYLE('',(#99));
#98=FILL_AREA_STYLE('',(#100));
#99=FILL_AREA_STYLE_COLOUR('',#331);
#100=FILL_AREA_STYLE_COLOUR('',#332);
#101=MANIFOLD_SOLID_BREP('NOCUT',#103);
#102=MANIFOLD_SOLID_BREP('CUT',#104);
#103=CLOSED_SHELL('',(#122,#123,#124,#125,#126,#127,#128,#129,#130,#131,
#132,#133,#134));
#104=CLOSED_SHELL('',(#135,#136));
#105=TOROIDAL_SURFACE('',#359,8.175,1.);
#106=CYLINDRICAL_SURFACE('',#345,7.0075);
#107=CYLINDRICAL_SURFACE('',#351,7.99875);
#108=CYLINDRICAL_SURFACE('',#354,7.0075);
#109=CYLINDRICAL_SURFACE('',#358,7.175);
#110=CYLINDRICAL_SURFACE('',#362,6.975);
#111=PLANE('',#344);
#112=PLANE('',#349);
#113=PLANE('',#356);
#114=PLANE('',#361);
#115=PLANE('',#368);
#116=FACE_OUTER_BOUND('',#165,.T.);
#117=FACE_OUTER_BOUND('',#170,.T.);
#118=FACE_OUTER_BOUND('',#185,.T.);
#119=FACE_OUTER_BOUND('',#186,.T.);
#120=SPHERICAL_SURFACE('',#343,7.0625);
#121=SPHERICAL_SURFACE('',#367,7.99599999999274);
#122=ADVANCED_FACE('',(#139,#140),#137,.F.);
#123=ADVANCED_FACE('',(#141,#142),#120,.T.);
#124=ADVANCED_FACE('',(#116),#111,.T.);
#125=ADVANCED_FACE('',(#143,#144),#106,.T.);
#126=ADVANCED_FACE('',(#145,#146),#138,.T.);
#127=ADVANCED_FACE('',(#117),#112,.T.);
#128=ADVANCED_FACE('',(#147,#148),#107,.T.);
#129=ADVANCED_FACE('',(#149,#150),#108,.T.);
#130=ADVANCED_FACE('',(#151,#152),#113,.F.);
#131=ADVANCED_FACE('',(#153,#154),#109,.T.);
#132=ADVANCED_FACE('',(#155,#156),#105,.F.);
#133=ADVANCED_FACE('',(#157,#158),#114,.F.);
#134=ADVANCED_FACE('',(#159,#160),#110,.T.);
#135=ADVANCED_FACE('',(#118),#121,.T.);
#136=ADVANCED_FACE('',(#119),#115,.T.);
#137=CONICAL_SURFACE('',#340,7.02350269189626,30.);
#138=CONICAL_SURFACE('',#348,6.61912432702594,30.);
#139=FACE_BOUND('',#161,.T.);
#140=FACE_BOUND('',#162,.T.);
#141=FACE_BOUND('',#163,.T.);
#142=FACE_BOUND('',#164,.T.);
#143=FACE_BOUND('',#166,.T.);
#144=FACE_BOUND('',#167,.T.);
#145=FACE_BOUND('',#168,.T.);
#146=FACE_BOUND('',#169,.T.);
#147=FACE_BOUND('',#171,.T.);
#148=FACE_BOUND('',#172,.T.);
#149=FACE_BOUND('',#173,.T.);
#150=FACE_BOUND('',#174,.T.);
#151=FACE_BOUND('',#175,.T.);
#152=FACE_BOUND('',#176,.T.);
#153=FACE_BOUND('',#177,.T.);
#154=FACE_BOUND('',#178,.T.);
#155=FACE_BOUND('',#179,.T.);
#156=FACE_BOUND('',#180,.T.);
#157=FACE_BOUND('',#181,.T.);
#158=FACE_BOUND('',#182,.T.);
#159=FACE_BOUND('',#183,.T.);
#160=FACE_BOUND('',#184,.T.);
#161=EDGE_LOOP('',(#187));
#162=EDGE_LOOP('',(#188));
#163=EDGE_LOOP('',(#189));
#164=EDGE_LOOP('',(#190));
#165=EDGE_LOOP('',(#191));
#166=EDGE_LOOP('',(#192));
#167=EDGE_LOOP('',(#193));
#168=EDGE_LOOP('',(#194));
#169=EDGE_LOOP('',(#195));
#170=EDGE_LOOP('',(#196));
#171=EDGE_LOOP('',(#197));
#172=EDGE_LOOP('',(#198));
#173=EDGE_LOOP('',(#199));
#174=EDGE_LOOP('',(#200));
#175=EDGE_LOOP('',(#201));
#176=EDGE_LOOP('',(#202));
#177=EDGE_LOOP('',(#203));
#178=EDGE_LOOP('',(#204));
#179=EDGE_LOOP('',(#205));
#180=EDGE_LOOP('',(#206));
#181=EDGE_LOOP('',(#207));
#182=EDGE_LOOP('',(#208));
#183=EDGE_LOOP('',(#209));
#184=EDGE_LOOP('',(#210));
#185=EDGE_LOOP('',(#211));
#186=EDGE_LOOP('',(#212));
#187=ORIENTED_EDGE('',*,*,#226,.F.);
#188=ORIENTED_EDGE('',*,*,#227,.T.);
#189=ORIENTED_EDGE('',*,*,#228,.T.);
#190=ORIENTED_EDGE('',*,*,#229,.T.);
#191=ORIENTED_EDGE('',*,*,#228,.F.);
#192=ORIENTED_EDGE('',*,*,#226,.T.);
#193=ORIENTED_EDGE('',*,*,#229,.F.);
#194=ORIENTED_EDGE('',*,*,#230,.F.);
#195=ORIENTED_EDGE('',*,*,#231,.T.);
#196=ORIENTED_EDGE('',*,*,#230,.T.);
#197=ORIENTED_EDGE('',*,*,#231,.F.);
#198=ORIENTED_EDGE('',*,*,#232,.T.);
#199=ORIENTED_EDGE('',*,*,#233,.T.);
#200=ORIENTED_EDGE('',*,*,#234,.F.);
#201=ORIENTED_EDGE('',*,*,#234,.T.);
#202=ORIENTED_EDGE('',*,*,#235,.F.);
#203=ORIENTED_EDGE('',*,*,#235,.T.);
#204=ORIENTED_EDGE('',*,*,#236,.T.);
#205=ORIENTED_EDGE('',*,*,#236,.F.);
#206=ORIENTED_EDGE('',*,*,#232,.F.);
#207=ORIENTED_EDGE('',*,*,#237,.F.);
#208=ORIENTED_EDGE('',*,*,#233,.F.);
#209=ORIENTED_EDGE('',*,*,#227,.F.);
#210=ORIENTED_EDGE('',*,*,#237,.T.);
#211=ORIENTED_EDGE('',*,*,#238,.T.);
#212=ORIENTED_EDGE('',*,*,#238,.F.);
#213=VERTEX_POINT('',#463);
#214=VERTEX_POINT('',#465);
#215=VERTEX_POINT('',#468);
#216=VERTEX_POINT('',#470);
#217=VERTEX_POINT('',#475);
#218=VERTEX_POINT('',#477);
#219=VERTEX_POINT('',#481);
#220=VERTEX_POINT('',#484);
#221=VERTEX_POINT('',#486);
#222=VERTEX_POINT('',#489);
#223=VERTEX_POINT('',#492);
#224=VERTEX_POINT('',#496);
#225=VERTEX_POINT('',#519);
#226=EDGE_CURVE('',#213,#213,#239,.T.);
#227=EDGE_CURVE('',#214,#214,#240,.T.);
#228=EDGE_CURVE('',#215,#215,#241,.T.);
#229=EDGE_CURVE('',#216,#216,#242,.T.);
#230=EDGE_CURVE('',#217,#217,#243,.T.);
#231=EDGE_CURVE('',#218,#218,#244,.T.);
#232=EDGE_CURVE('',#219,#219,#245,.T.);
#233=EDGE_CURVE('',#220,#220,#246,.T.);
#234=EDGE_CURVE('',#221,#221,#247,.T.);
#235=EDGE_CURVE('',#222,#222,#248,.T.);
#236=EDGE_CURVE('',#223,#223,#249,.T.);
#237=EDGE_CURVE('',#224,#224,#250,.T.);
#238=EDGE_CURVE('',#225,#225,#251,.T.);
#239=CIRCLE('',#338,7.0075);
#240=CIRCLE('',#339,6.975);
#241=CIRCLE('',#341,4.43045214961182);
#242=CIRCLE('',#342,7.0075);
#243=CIRCLE('',#346,6.61912432702594);
#244=CIRCLE('',#347,7.99875);
#245=CIRCLE('',#350,7.99875);
#246=CIRCLE('',#352,7.0075);
#247=CIRCLE('',#353,7.0075);
#248=CIRCLE('',#355,7.175);
#249=CIRCLE('',#357,7.175);
#250=CIRCLE('',#360,6.975);
#251=CIRCLE('',#366,6.92618190275133);
#252=CURVE_STYLE('',#261,POSITIVE_LENGTH_MEASURE(0.18),#330);
#253=CURVE_STYLE('',#262,POSITIVE_LENGTH_MEASURE(0.18),#330);
#254=CURVE_STYLE('',#263,POSITIVE_LENGTH_MEASURE(0.18),#330);
#255=CURVE_STYLE('',#264,POSITIVE_LENGTH_MEASURE(0.18),#330);
#256=CURVE_STYLE('',#265,POSITIVE_LENGTH_MEASURE(0.18),#87);
#257=CURVE_STYLE('',#266,POSITIVE_LENGTH_MEASURE(0.18),#330);
#258=CURVE_STYLE('',#267,POSITIVE_LENGTH_MEASURE(0.18),#330);
#259=CURVE_STYLE('',#268,POSITIVE_LENGTH_MEASURE(0.18),#330);
#260=CURVE_STYLE('',#269,POSITIVE_LENGTH_MEASURE(0.18),#330);
#261=DRAUGHTING_PRE_DEFINED_CURVE_FONT('continuous');
#262=DRAUGHTING_PRE_DEFINED_CURVE_FONT('continuous');
#263=DRAUGHTING_PRE_DEFINED_CURVE_FONT('continuous');
#264=DRAUGHTING_PRE_DEFINED_CURVE_FONT('continuous');
#265=DRAUGHTING_PRE_DEFINED_CURVE_FONT('continuous');
#266=DRAUGHTING_PRE_DEFINED_CURVE_FONT('continuous');
#267=DRAUGHTING_PRE_DEFINED_CURVE_FONT('continuous');
#268=DRAUGHTING_PRE_DEFINED_CURVE_FONT('continuous');
#269=DRAUGHTING_PRE_DEFINED_CURVE_FONT('continuous');
#270=PRESENTATION_LAYER_ASSIGNMENT('1','Layer 1',(#454,#334,#456,#457,#458,
#335,#336,#337,#499,#500,#501,#89,#363,#364,#365,#102,#522,#523,#369));
#271=PRESENTATION_LAYER_ASSIGNMENT('72','Layer 72',(#101));
#272=STYLED_ITEM('',(#292),#454);
#273=STYLED_ITEM('',(#293),#334);
#274=STYLED_ITEM('',(#294),#456);
#275=STYLED_ITEM('',(#295),#457);
#276=STYLED_ITEM('',(#296),#458);
#277=STYLED_ITEM('',(#297),#335);
#278=STYLED_ITEM('',(#298),#336);
#279=STYLED_ITEM('',(#299),#337);
#280=STYLED_ITEM('',(#300),#101);
#281=STYLED_ITEM('',(#301),#499);
#282=STYLED_ITEM('',(#302),#500);
#283=STYLED_ITEM('',(#303),#501);
#284=STYLED_ITEM('',(#304),#89);
#285=STYLED_ITEM('',(#305),#363);
#286=STYLED_ITEM('',(#306),#364);
#287=STYLED_ITEM('',(#307),#365);
#288=STYLED_ITEM('',(#308),#102);
#289=STYLED_ITEM('',(#309),#522);
#290=STYLED_ITEM('',(#310),#523);
#291=STYLED_ITEM('',(#311),#369);
#292=PRESENTATION_STYLE_ASSIGNMENT((#312));
#293=PRESENTATION_STYLE_ASSIGNMENT((#252));
#294=PRESENTATION_STYLE_ASSIGNMENT((#313));
#295=PRESENTATION_STYLE_ASSIGNMENT((#314));
#296=PRESENTATION_STYLE_ASSIGNMENT((#315));
#297=PRESENTATION_STYLE_ASSIGNMENT((#253));
#298=PRESENTATION_STYLE_ASSIGNMENT((#254));
#299=PRESENTATION_STYLE_ASSIGNMENT((#255));
#300=PRESENTATION_STYLE_ASSIGNMENT((#91));
#301=PRESENTATION_STYLE_ASSIGNMENT((#316));
#302=PRESENTATION_STYLE_ASSIGNMENT((#317));
#303=PRESENTATION_STYLE_ASSIGNMENT((#318));
#304=PRESENTATION_STYLE_ASSIGNMENT((#256));
#305=PRESENTATION_STYLE_ASSIGNMENT((#257));
#306=PRESENTATION_STYLE_ASSIGNMENT((#258));
#307=PRESENTATION_STYLE_ASSIGNMENT((#259));
#308=PRESENTATION_STYLE_ASSIGNMENT((#92));
#309=PRESENTATION_STYLE_ASSIGNMENT((#319));
#310=PRESENTATION_STYLE_ASSIGNMENT((#320));
#311=PRESENTATION_STYLE_ASSIGNMENT((#260));
#312=POINT_STYLE('',#321,POSITIVE_LENGTH_MEASURE(3.),#330);
#313=POINT_STYLE('',#322,POSITIVE_LENGTH_MEASURE(3.),#330);
#314=POINT_STYLE('',#323,POSITIVE_LENGTH_MEASURE(3.),#330);
#315=POINT_STYLE('',#324,POSITIVE_LENGTH_MEASURE(3.),#330);
#316=POINT_STYLE('',#325,POSITIVE_LENGTH_MEASURE(3.),#330);
#317=POINT_STYLE('',#326,POSITIVE_LENGTH_MEASURE(3.),#330);
#318=POINT_STYLE('',#327,POSITIVE_LENGTH_MEASURE(3.),#330);
#319=POINT_STYLE('',#328,POSITIVE_LENGTH_MEASURE(3.),#88);
#320=POINT_STYLE('',#329,POSITIVE_LENGTH_MEASURE(3.),#330);
#321=PRE_DEFINED_POINT_MARKER_SYMBOL('plus');
#322=PRE_DEFINED_POINT_MARKER_SYMBOL('plus');
#323=PRE_DEFINED_POINT_MARKER_SYMBOL('plus');
#324=PRE_DEFINED_POINT_MARKER_SYMBOL('plus');
#325=PRE_DEFINED_POINT_MARKER_SYMBOL('plus');
#326=PRE_DEFINED_POINT_MARKER_SYMBOL('plus');
#327=PRE_DEFINED_POINT_MARKER_SYMBOL('plus');
#328=PRE_DEFINED_POINT_MARKER_SYMBOL('plus');
#329=PRE_DEFINED_POINT_MARKER_SYMBOL('plus');
#330=COLOUR_RGB('Medium Maroon',0.6,0.4,0.4);
#331=COLOUR_RGB('Medium Gray',0.490196078431373,0.490196078431373,0.490196078431373);
#332=COLOUR_RGB('Light Gray',0.8,0.8,0.8);
#333=AXIS2_PLACEMENT_3D('',#453,#373,#374);
#334=AXIS2_PLACEMENT_3D('',#455,#375,#376);
#335=AXIS2_PLACEMENT_3D('CSW',#459,#377,#378);
#336=AXIS2_PLACEMENT_3D('MCS',#460,#379,#380);
#337=AXIS2_PLACEMENT_3D('PCS',#461,#381,#382);
#338=AXIS2_PLACEMENT_3D('',#462,#383,#384);
#339=AXIS2_PLACEMENT_3D('',#464,#385,#386);
#340=AXIS2_PLACEMENT_3D('',#466,#387,#388);
#341=AXIS2_PLACEMENT_3D('',#467,#389,#390);
#342=AXIS2_PLACEMENT_3D('',#469,#391,#392);
#343=AXIS2_PLACEMENT_3D('',#471,#393,#394);
#344=AXIS2_PLACEMENT_3D('',#472,#395,#396);
#345=AXIS2_PLACEMENT_3D('',#473,#397,#398);
#346=AXIS2_PLACEMENT_3D('',#474,#399,#400);
#347=AXIS2_PLACEMENT_3D('',#476,#401,#402);
#348=AXIS2_PLACEMENT_3D('',#478,#403,#404);
#349=AXIS2_PLACEMENT_3D('',#479,#405,#406);
#350=AXIS2_PLACEMENT_3D('',#480,#407,#408);
#351=AXIS2_PLACEMENT_3D('',#482,#409,#410);
#352=AXIS2_PLACEMENT_3D('',#483,#411,#412);
#353=AXIS2_PLACEMENT_3D('',#485,#413,#414);
#354=AXIS2_PLACEMENT_3D('',#487,#415,#416);
#355=AXIS2_PLACEMENT_3D('',#488,#417,#418);
#356=AXIS2_PLACEMENT_3D('',#490,#419,#420);
#357=AXIS2_PLACEMENT_3D('',#491,#421,#422);
#358=AXIS2_PLACEMENT_3D('',#493,#423,#424);
#359=AXIS2_PLACEMENT_3D('',#494,#425,#426);
#360=AXIS2_PLACEMENT_3D('',#495,#427,#428);
#361=AXIS2_PLACEMENT_3D('',#497,#429,#430);
#362=AXIS2_PLACEMENT_3D('',#498,#431,#432);
#363=AXIS2_PLACEMENT_3D('CIP',#515,#433,#434);
#364=AXIS2_PLACEMENT_3D('MCS',#516,#435,#436);
#365=AXIS2_PLACEMENT_3D('PCS',#517,#437,#438);
#366=AXIS2_PLACEMENT_3D('',#518,#439,#440);
#367=AXIS2_PLACEMENT_3D('',#520,#441,#442);
#368=AXIS2_PLACEMENT_3D('',#521,#443,#444);
#369=AXIS2_PLACEMENT_3D('',#524,#445,#446);
#370=AXIS2_PLACEMENT_3D('',#525,#447,#448);
#371=AXIS2_PLACEMENT_3D('',#526,#449,#450);
#372=AXIS2_PLACEMENT_3D('',#527,#451,#452);
#373=DIRECTION('',(0.,0.,1.));
#374=DIRECTION('',(1.,0.,0.));
#375=DIRECTION('',(0.,0.,1.));
#376=DIRECTION('',(1.,0.,0.));
#377=DIRECTION('',(0.,0.,1.));
#378=DIRECTION('',(1.,0.,0.));
#379=DIRECTION('',(0.,0.,1.));
#380=DIRECTION('',(1.,0.,0.));
#381=DIRECTION('',(0.,0.,1.));
#382=DIRECTION('',(1.,0.,0.));
#383=DIRECTION('',(0.,0.,-1.));
#384=DIRECTION('',(1.,0.,0.));
#385=DIRECTION('',(0.,0.,-1.));
#386=DIRECTION('',(1.,0.,0.));
#387=DIRECTION('',(0.,0.,1.));
#388=DIRECTION('',(1.,0.,2.37481359971578E-17));
#389=DIRECTION('',(0.,0.,1.));
#390=DIRECTION('',(-1.,0.,0.));
#391=DIRECTION('',(0.,0.,-1.));
#392=DIRECTION('',(1.,0.,0.));
#393=DIRECTION('',(0.,6.12323399573677E-17,-1.));
#394=DIRECTION('',(0.,1.,0.));
#395=DIRECTION('',(0.,0.,-1.));
#396=DIRECTION('',(-1.,0.,0.));
#397=DIRECTION('',(0.,0.,-1.));
#398=DIRECTION('',(-1.,0.,0.));
#399=DIRECTION('',(0.,0.,1.));
#400=DIRECTION('',(-1.,0.,0.));
#401=DIRECTION('',(0.,0.,1.));
#402=DIRECTION('',(-1.,0.,0.));
#403=DIRECTION('',(0.,0.,-1.));
#404=DIRECTION('',(1.,0.,0.));
#405=DIRECTION('',(0.,0.,1.));
#406=DIRECTION('',(-1.,0.,0.));
#407=DIRECTION('',(0.,0.,1.));
#408=DIRECTION('',(-1.,0.,0.));
#409=DIRECTION('',(0.,0.,-1.));
#410=DIRECTION('',(-1.,0.,0.));
#411=DIRECTION('',(0.,0.,1.));
#412=DIRECTION('',(1.,0.,0.));
#413=DIRECTION('',(0.,0.,1.));
#414=DIRECTION('',(-1.,0.,0.));
#415=DIRECTION('',(0.,0.,-1.));
#416=DIRECTION('',(-1.,0.,0.));
#417=DIRECTION('',(0.,0.,1.));
#418=DIRECTION('',(1.,0.,0.));
#419=DIRECTION('',(0.,0.,1.));
#420=DIRECTION('',(1.,0.,0.));
#421=DIRECTION('',(0.,0.,-1.));
#422=DIRECTION('',(-1.,0.,0.));
#423=DIRECTION('',(0.,0.,1.));
#424=DIRECTION('',(-1.,0.,0.));
#425=DIRECTION('',(0.,0.,1.));
#426=DIRECTION('',(-1.,0.,0.));
#427=DIRECTION('',(0.,0.,-1.));
#428=DIRECTION('',(1.,0.,0.));
#429=DIRECTION('',(0.,0.,1.));
#430=DIRECTION('',(1.,0.,0.));
#431=DIRECTION('',(0.,0.,-1.));
#432=DIRECTION('',(-1.,0.,0.));
#433=DIRECTION('',(0.,0.,1.));
#434=DIRECTION('',(1.,0.,0.));
#435=DIRECTION('',(0.,0.,1.));
#436=DIRECTION('',(1.,0.,0.));
#437=DIRECTION('',(0.,0.,1.));
#438=DIRECTION('',(1.,0.,0.));
#439=DIRECTION('',(0.,0.,-1.));
#440=DIRECTION('',(-1.,0.,0.));
#441=DIRECTION('',(-6.12323399573677E-17,0.,-1.));
#442=DIRECTION('',(-1.,5.91327350820474E-17,0.));
#443=DIRECTION('',(0.,0.,1.));
#444=DIRECTION('',(1.,0.,0.));
#445=DIRECTION('',(0.,0.,1.));
#446=DIRECTION('',(1.,0.,0.));
#447=DIRECTION('',(0.,0.,1.));
#448=DIRECTION('',(1.,0.,0.));
#449=DIRECTION('',(0.,0.,1.));
#450=DIRECTION('',(1.,0.,0.));
#451=DIRECTION('',(0.,0.,1.));
#452=DIRECTION('',(1.,0.,0.));
#453=CARTESIAN_POINT('',(0.,0.,0.));
#454=CARTESIAN_POINT('',(0.,0.,0.));
#455=CARTESIAN_POINT('',(0.,0.,0.));
#456=CARTESIAN_POINT('PCS',(-9.75637340912015E-14,-1.31387978618471E-14,
0.));
#457=CARTESIAN_POINT('MCS',(0.,0.,-48.));
#458=CARTESIAN_POINT('CSW',(-9.04583067336005E-14,0.,-111.007901034846));
#459=CARTESIAN_POINT('',(-9.04583067336005E-14,0.,-111.007901034846));
#460=CARTESIAN_POINT('',(0.,0.,-48.));
#461=CARTESIAN_POINT('',(-9.75637340912015E-14,-1.31387978618471E-14,0.));
#462=CARTESIAN_POINT('',(-1.10702531953049E-13,0.,-94.7911185102678));
#463=CARTESIAN_POINT('',(7.00749999999989,0.,-94.7911185102678));
#464=CARTESIAN_POINT('',(-1.10702531953049E-13,0.,-94.8474101615138));
#465=CARTESIAN_POINT('',(6.97499999999989,0.,-94.8474101615138));
#466=CARTESIAN_POINT('',(-1.10702531953049E-13,0.,-94.7634010348456));
#467=CARTESIAN_POINT('',(-1.10702531953049E-13,0.,-120.503401034846));
#468=CARTESIAN_POINT('',(-4.43045214961193,0.,-120.503401034846));
#469=CARTESIAN_POINT('',(-1.10702531953049E-13,0.,-115.883088479339));
#470=CARTESIAN_POINT('',(7.00749999999989,0.,-115.883088479339));
#471=CARTESIAN_POINT('',(-1.10702531953049E-13,8.88178419700125E-16,-115.003401034846));
#472=CARTESIAN_POINT('',(-1.10702531953049E-13,-4.62223186652937E-33,-120.503401034846));
#473=CARTESIAN_POINT('',(-1.10702531953049E-13,0.,-103.503401034846));
#474=CARTESIAN_POINT('',(-1.10702531953049E-13,0.,0.));
#475=CARTESIAN_POINT('',(-6.61912432702605,0.,0.));
#476=CARTESIAN_POINT('',(-1.10702531953049E-13,0.,-2.38958176101749));
#477=CARTESIAN_POINT('',(-7.99875000000011,0.,-2.38958176101749));
#478=CARTESIAN_POINT('',(-1.10702531953049E-13,0.,0.));
#479=CARTESIAN_POINT('',(-1.10702531953049E-13,0.,0.));
#480=CARTESIAN_POINT('',(-1.10702531953049E-13,0.,-60.0093062886364));
#481=CARTESIAN_POINT('',(-7.99875000000011,0.,-60.0093062886364));
#482=CARTESIAN_POINT('',(-1.10702531953049E-13,0.,-91.5));
#483=CARTESIAN_POINT('',(-1.10702531953049E-13,0.,-94.7901185102678));
#484=CARTESIAN_POINT('',(7.00749999999989,0.,-94.7901185102678));
#485=CARTESIAN_POINT('',(-1.10702531953049E-13,0.,-61.001));
#486=CARTESIAN_POINT('',(-7.00750000000011,0.,-61.001));
#487=CARTESIAN_POINT('',(-1.10702531953049E-13,0.,-91.5));
#488=CARTESIAN_POINT('',(-1.10702531953049E-13,0.,-61.001));
#489=CARTESIAN_POINT('',(7.17499999999989,0.,-61.001));
#490=CARTESIAN_POINT('',(-1.10702531953049E-13,9.0075,-61.001));
#491=CARTESIAN_POINT('',(-1.10702531953049E-13,0.,-60.9936517247003));
#492=CARTESIAN_POINT('',(-7.17500000000011,0.,-60.9936517247003));
#493=CARTESIAN_POINT('',(-1.10702531953049E-13,0.,21.7268152444466));
#494=CARTESIAN_POINT('',(-1.10702531953049E-13,0.,-60.9936517247004));
#495=CARTESIAN_POINT('',(-1.10702531953049E-13,0.,-94.7901185102678));
#496=CARTESIAN_POINT('',(6.97499999999989,0.,-94.7901185102678));
#497=CARTESIAN_POINT('',(-1.10702531953049E-13,0.,-94.7901185102678));
#498=CARTESIAN_POINT('',(-1.10702531953049E-13,0.,-91.5));
#499=CARTESIAN_POINT('',(0.,0.,-11.9955));
#500=CARTESIAN_POINT('',(0.,0.,0.));
#501=CARTESIAN_POINT('',(0.,0.,0.));
#502=CARTESIAN_POINT('',(0.,4.44089209850063E-16,1.33226762955019E-15));
#503=CARTESIAN_POINT('',(-2.30872730091711,4.44089209850063E-16,1.33226762955019E-15));
#504=CARTESIAN_POINT('',(-4.61745460183422,4.44089209850063E-16,1.33226762955019E-15));
#505=CARTESIAN_POINT('',(-6.92618190275133,4.44089209850063E-16,2.22044604925031E-15));
#506=CARTESIAN_POINT('',(-7.2134992399493,4.44089209850063E-16,-0.498063356587987));
#507=CARTESIAN_POINT('',(-7.44563675470237,4.44089209850063E-16,-1.02411519212751));
#508=CARTESIAN_POINT('',(-7.61990657042318,7.94133999890943E-16,-1.57206445144055));
#509=CARTESIAN_POINT('',(-9.41403835352665,4.39789338142519E-15,-7.21327763339791));
#510=CARTESIAN_POINT('',(-5.91964483894062,1.14417878993182E-15,-11.9915));
#511=CARTESIAN_POINT('',(2.44806895149556E-16,7.94133999890943E-16,-11.9915));
#512=CARTESIAN_POINT('',(0.,4.44089209850063E-16,-7.99433333333333));
#513=CARTESIAN_POINT('',(0.,4.44089209850063E-16,-3.99716666666667));
#514=CARTESIAN_POINT('',(0.,4.44089209850063E-16,1.77635683940025E-15));
#515=CARTESIAN_POINT('',(0.,0.,-11.9955));
#516=CARTESIAN_POINT('',(0.,0.,0.));
#517=CARTESIAN_POINT('',(0.,0.,0.));
#518=CARTESIAN_POINT('',(0.,0.,2.22044604925031E-15));
#519=CARTESIAN_POINT('',(-6.92618190275133,0.,2.22044604925031E-15));
#520=CARTESIAN_POINT('',(9.14559089545482E-15,-1.15871088149025E-15,-3.99550000002084));
#521=CARTESIAN_POINT('',(-6.92618190275133,4.44089209850063E-16,1.77635683940025E-15));
#522=CARTESIAN_POINT('CRP',(-7.996,0.,-122.999));
#523=CARTESIAN_POINT('',(0.,0.,0.));
#524=CARTESIAN_POINT('',(0.,0.,0.));
#525=CARTESIAN_POINT('',(0.,0.,0.));
#526=CARTESIAN_POINT('',(7.10542735760101E-15,1.4210854715202E-14,-111.007901034846));
#527=CARTESIAN_POINT('',(0.,0.,0.));
#528=MECHANICAL_DESIGN_GEOMETRIC_PRESENTATION_REPRESENTATION('',(#272,#273),
#532);
#529=MECHANICAL_DESIGN_GEOMETRIC_PRESENTATION_REPRESENTATION('',(#274,#275,
#276,#277,#278,#279,#280),#533);
#530=MECHANICAL_DESIGN_GEOMETRIC_PRESENTATION_REPRESENTATION('',(#281,#282,
#283,#284,#285,#286,#287,#288),#534);
#531=MECHANICAL_DESIGN_GEOMETRIC_PRESENTATION_REPRESENTATION('',(#289,#290,
#291),#535);
#532=(
GEOMETRIC_REPRESENTATION_CONTEXT(3)
GLOBAL_UNCERTAINTY_ASSIGNED_CONTEXT((#536))
GLOBAL_UNIT_ASSIGNED_CONTEXT((#545,#541,#540))
REPRESENTATION_CONTEXT('1590648746279','TOP_LEVEL_ASSEMBLY_PART')
);
#533=(
GEOMETRIC_REPRESENTATION_CONTEXT(3)
GLOBAL_UNCERTAINTY_ASSIGNED_CONTEXT((#537))
GLOBAL_UNIT_ASSIGNED_CONTEXT((#545,#541,#540))
REPRESENTATION_CONTEXT('202455405mod000_00','COMPONENT_PART')
);
#534=(
GEOMETRIC_REPRESENTATION_CONTEXT(3)
GLOBAL_UNCERTAINTY_ASSIGNED_CONTEXT((#538))
GLOBAL_UNIT_ASSIGNED_CONTEXT((#545,#541,#540))
REPRESENTATION_CONTEXT('202455403mod000_00','COMPONENT_PART')
);
#535=(
GEOMETRIC_REPRESENTATION_CONTEXT(3)
GLOBAL_UNCERTAINTY_ASSIGNED_CONTEXT((#539))
GLOBAL_UNIT_ASSIGNED_CONTEXT((#545,#541,#540))
REPRESENTATION_CONTEXT('202455406mod000_00','COMPONENT_PART')
);
#536=UNCERTAINTY_MEASURE_WITH_UNIT(LENGTH_MEASURE(2.E-5),#545,
'DISTANCE_ACCURACY_VALUE','Maximum Tolerance applied to model');
#537=UNCERTAINTY_MEASURE_WITH_UNIT(LENGTH_MEASURE(2.E-5),#545,
'DISTANCE_ACCURACY_VALUE','Maximum Tolerance applied to model');
#538=UNCERTAINTY_MEASURE_WITH_UNIT(LENGTH_MEASURE(2.E-5),#545,
'DISTANCE_ACCURACY_VALUE','Maximum Tolerance applied to model');
#539=UNCERTAINTY_MEASURE_WITH_UNIT(LENGTH_MEASURE(2.E-5),#545,
'DISTANCE_ACCURACY_VALUE','Maximum Tolerance applied to model');
#540=(
NAMED_UNIT(*)
SI_UNIT($,.STERADIAN.)
SOLID_ANGLE_UNIT()
);
#541=(
CONVERSION_BASED_UNIT('DEGREE',#543)
NAMED_UNIT(#542)
PLANE_ANGLE_UNIT()
);
#542=DIMENSIONAL_EXPONENTS(0.,0.,0.,0.,0.,0.,0.);
#543=PLANE_ANGLE_MEASURE_WITH_UNIT(PLANE_ANGLE_MEASURE(0.0174532925),#544);
#544=(
NAMED_UNIT(*)
PLANE_ANGLE_UNIT()
SI_UNIT($,.RADIAN.)
);
#545=(
LENGTH_UNIT()
NAMED_UNIT(*)
SI_UNIT(.MILLI.,.METRE.)
);
ENDSEC;
END-ISO-10303-21;
