ISO-10303-21;
HEADER;
/* Generated by software containing ST-Developer
 * from STEP Tools, Inc. (www.steptools.com) 
 */
/* OPTION: using custom schema-name function */

FILE_DESCRIPTION(
/* description */ (''),
/* implementation_level */ '2;1');

FILE_NAME(
/* name */ '1590408090978.stp',
/* time_stamp */ '2020-05-25T17:32:03+05:00',
/* author */ (''),
/* organization */ ('SMS'),
/* preprocessor_version */ 'ST-DEVELOPER v16.7',
/* originating_system */ 'SIEMENS PLM Software NX 12.0',
/* authorisation */ '');

FILE_SCHEMA (('AUTOMOTIVE_DESIGN { 1 0 10303 214 3 1 1 1 }'));
ENDSEC;

DATA;
#10=CONTEXT_DEPENDENT_SHAPE_REPRESENTATION(#16,#50);
#11=CONTEXT_DEPENDENT_SHAPE_REPRESENTATION(#17,#51);
#12=CONTEXT_DEPENDENT_SHAPE_REPRESENTATION(#18,#52);
#13=NEXT_ASSEMBLY_USAGE_OCCURRENCE('1001',' ',
'NXMOD-TM01_00-000-00-R216F_20A25S_115_PP_BAS',#56,#55,$);
#14=NEXT_ASSEMBLY_USAGE_OCCURRENCE('1002',' ',
'NXMOD-TM01_00-000-00-MI_R216F_2050_R1_BAS',#56,#54,$);
#15=NEXT_ASSEMBLY_USAGE_OCCURRENCE('1003',' ',
'NXMOD-TM01_00-000-00-R216F_20A25S_115_ACN_BAS',#56,#53,$);
#16=(
REPRESENTATION_RELATIONSHIP(' ',' ',#81,#82)
REPRESENTATION_RELATIONSHIP_WITH_TRANSFORMATION(#19)
SHAPE_REPRESENTATION_RELATIONSHIP()
);
#17=(
REPRESENTATION_RELATIONSHIP(' ',' ',#80,#82)
REPRESENTATION_RELATIONSHIP_WITH_TRANSFORMATION(#20)
SHAPE_REPRESENTATION_RELATIONSHIP()
);
#18=(
REPRESENTATION_RELATIONSHIP(' ',' ',#79,#82)
REPRESENTATION_RELATIONSHIP_WITH_TRANSFORMATION(#21)
SHAPE_REPRESENTATION_RELATIONSHIP()
);
#19=ITEM_DEFINED_TRANSFORMATION(' ',' ',#310,#343);
#20=ITEM_DEFINED_TRANSFORMATION(' ',' ',#310,#344);
#21=ITEM_DEFINED_TRANSFORMATION(' ',' ',#310,#345);
#22=ADVANCED_BREP_SHAPE_REPRESENTATION('202454541mod000_00-None',(#102),
#490);
#23=ADVANCED_BREP_SHAPE_REPRESENTATION('202455183mod000_00-None',(#101),
#489);
#24=CONSTRUCTIVE_GEOMETRY_REPRESENTATION_RELATIONSHIP(
'supplemental geometry','',#79,#28);
#25=CONSTRUCTIVE_GEOMETRY_REPRESENTATION_RELATIONSHIP(
'supplemental geometry','',#80,#29);
#26=CONSTRUCTIVE_GEOMETRY_REPRESENTATION_RELATIONSHIP(
'supplemental geometry','',#81,#30);
#27=CONSTRUCTIVE_GEOMETRY_REPRESENTATION_RELATIONSHIP(
'supplemental geometry','',#82,#31);
#28=CONSTRUCTIVE_GEOMETRY_REPRESENTATION('supplemental geometry',(#342),
#491);
#29=CONSTRUCTIVE_GEOMETRY_REPRESENTATION('supplemental geometry',(#336,
#337,#338),#490);
#30=CONSTRUCTIVE_GEOMETRY_REPRESENTATION('supplemental geometry',(#312,
#313,#314),#489);
#31=CONSTRUCTIVE_GEOMETRY_REPRESENTATION('supplemental geometry',(#311),
#488);
#32=SHAPE_REPRESENTATION_RELATIONSHIP('None',
'relationship between 202455182mod000_00-None and 202455182mod000_00-N
one',#79,#38);
#33=SHAPE_REPRESENTATION_RELATIONSHIP('None',
'relationship between 202454541mod000_00-None and 202454541mod000_00-N
one',#80,#22);
#34=SHAPE_REPRESENTATION_RELATIONSHIP('None',
'relationship between 202454541mod000_00-None and 202454541mod000_00-N
one',#80,#39);
#35=SHAPE_REPRESENTATION_RELATIONSHIP('None',
'relationship between 202455183mod000_00-None and 202455183mod000_00-N
one',#81,#23);
#36=SHAPE_REPRESENTATION_RELATIONSHIP('None',
'relationship between 202455183mod000_00-None and 202455183mod000_00-N
one',#81,#40);
#37=SHAPE_REPRESENTATION_RELATIONSHIP('None',
'relationship between 202455180mod000_00-None and 202455180mod000_00-N
one',#82,#41);
#38=GEOMETRICALLY_BOUNDED_WIREFRAME_SHAPE_REPRESENTATION(
'202455182mod000_00-None',(#83),#491);
#39=GEOMETRICALLY_BOUNDED_WIREFRAME_SHAPE_REPRESENTATION(
'202454541mod000_00-None',(#84),#490);
#40=GEOMETRICALLY_BOUNDED_WIREFRAME_SHAPE_REPRESENTATION(
'202455183mod000_00-None',(#85),#489);
#41=GEOMETRICALLY_BOUNDED_WIREFRAME_SHAPE_REPRESENTATION(
'202455180mod000_00-None',(#86),#488);
#42=SHAPE_DEFINITION_REPRESENTATION(#46,#79);
#43=SHAPE_DEFINITION_REPRESENTATION(#47,#80);
#44=SHAPE_DEFINITION_REPRESENTATION(#48,#81);
#45=SHAPE_DEFINITION_REPRESENTATION(#49,#82);
#46=PRODUCT_DEFINITION_SHAPE('','',#53);
#47=PRODUCT_DEFINITION_SHAPE('','',#54);
#48=PRODUCT_DEFINITION_SHAPE('','',#55);
#49=PRODUCT_DEFINITION_SHAPE('','',#56);
#50=PRODUCT_DEFINITION_SHAPE(' ','NAUO PRDDFN',#13);
#51=PRODUCT_DEFINITION_SHAPE(' ','NAUO PRDDFN',#14);
#52=PRODUCT_DEFINITION_SHAPE(' ','NAUO PRDDFN',#15);
#53=PRODUCT_DEFINITION(' ','',#61,#57);
#54=PRODUCT_DEFINITION(' ','',#62,#58);
#55=PRODUCT_DEFINITION(' ','',#63,#59);
#56=PRODUCT_DEFINITION(' ','',#64,#60);
#57=PRODUCT_DEFINITION_CONTEXT('part definition',#78,'design');
#58=PRODUCT_DEFINITION_CONTEXT('part definition',#78,'design');
#59=PRODUCT_DEFINITION_CONTEXT('part definition',#78,'design');
#60=PRODUCT_DEFINITION_CONTEXT('part definition',#78,'design');
#61=PRODUCT_DEFINITION_FORMATION_WITH_SPECIFIED_SOURCE(' ',' ',#69,
 .NOT_KNOWN.);
#62=PRODUCT_DEFINITION_FORMATION_WITH_SPECIFIED_SOURCE(' ',' ',#70,
 .NOT_KNOWN.);
#63=PRODUCT_DEFINITION_FORMATION_WITH_SPECIFIED_SOURCE(' ',' ',#71,
 .NOT_KNOWN.);
#64=PRODUCT_DEFINITION_FORMATION_WITH_SPECIFIED_SOURCE(' ',' ',#72,
 .NOT_KNOWN.);
#65=PRODUCT_RELATED_PRODUCT_CATEGORY('part','',(#69));
#66=PRODUCT_RELATED_PRODUCT_CATEGORY('part','',(#70));
#67=PRODUCT_RELATED_PRODUCT_CATEGORY('part','',(#71));
#68=PRODUCT_RELATED_PRODUCT_CATEGORY('part','',(#72));
#69=PRODUCT('ASSEMBLY_CONSTRUCTION','202455182mod000_00',' ',(#73));
#70=PRODUCT('202454541mod000_00','202454541mod000_00','MASTER_INSERT',(#74));
#71=PRODUCT('202455183mod000_00','202455183mod000_00','NOCUT',(#75));
#72=PRODUCT('202455180mod000_00','202455180mod000_00',' ',(#76));
#73=PRODUCT_CONTEXT(' ',#78,'mechanical');
#74=PRODUCT_CONTEXT(' ',#78,'mechanical');
#75=PRODUCT_CONTEXT(' ',#78,'mechanical');
#76=PRODUCT_CONTEXT(' ',#78,'mechanical');
#77=APPLICATION_PROTOCOL_DEFINITION('international standard',
'automotive_design',2010,#78);
#78=APPLICATION_CONTEXT(
'core data for automotive mechanical design processes');
#79=SHAPE_REPRESENTATION('202455182mod000_00-None',(#310),#491);
#80=SHAPE_REPRESENTATION('202454541mod000_00-None',(#310),#490);
#81=SHAPE_REPRESENTATION('202455183mod000_00-None',(#310),#489);
#82=SHAPE_REPRESENTATION('202455180mod000_00-None',(#310,#343,#344,#345),
#488);
#83=GEOMETRIC_CURVE_SET('None',(#478,#479));
#84=GEOMETRIC_CURVE_SET('None',(#458,#459,#460,#89));
#85=GEOMETRIC_CURVE_SET('None',(#421,#422,#423));
#86=GEOMETRIC_CURVE_SET('None',(#419));
#87=DRAUGHTING_PRE_DEFINED_COLOUR('blue');
#88=DRAUGHTING_PRE_DEFINED_COLOUR('white');
#89=TRIMMED_CURVE('CUTTING EDGE LINE',#90,(PARAMETER_VALUE(0.)),(
PARAMETER_VALUE(1.)),.T.,.PARAMETER.);
#90=(
BOUNDED_CURVE()
B_SPLINE_CURVE(3,(#461,#462,#463,#464,#465,#466,#467,#468,#469,#470),
 .UNSPECIFIED.,.T.,.F.)
B_SPLINE_CURVE_WITH_KNOTS((4,3,3,4),(0.,0.469527832805784,0.805792667231414,
1.),.UNSPECIFIED.)
CURVE()
GEOMETRIC_REPRESENTATION_ITEM()
RATIONAL_B_SPLINE_CURVE((0.666611100460056,0.444462966513315,0.444462966513315,
0.666611100460056,0.666611100460056,0.666611100460056,0.666611100460056,
0.666611100460056,0.666611100460056,0.666611100460056))
REPRESENTATION_ITEM('CUTTING EDGE LINE')
);
#91=SURFACE_STYLE_USAGE(.BOTH.,#93);
#92=SURFACE_STYLE_USAGE(.BOTH.,#94);
#93=SURFACE_SIDE_STYLE('',(#95));
#94=SURFACE_SIDE_STYLE('',(#96));
#95=SURFACE_STYLE_FILL_AREA(#97);
#96=SURFACE_STYLE_FILL_AREA(#98);
#97=FILL_AREA_STYLE('',(#99));
#98=FILL_AREA_STYLE('',(#100));
#99=FILL_AREA_STYLE_COLOUR('',#308);
#100=FILL_AREA_STYLE_COLOUR('',#309);
#101=MANIFOLD_SOLID_BREP('NOCUT',#103);
#102=MANIFOLD_SOLID_BREP('CUT',#104);
#103=CLOSED_SHELL('',(#119,#120,#121,#122,#123,#124,#125,#126,#127,#128,
#129));
#104=CLOSED_SHELL('',(#130,#131));
#105=SPHERICAL_SURFACE('',#335,8.5625);
#106=SPHERICAL_SURFACE('',#341,9.99599999999998);
#107=TOROIDAL_SURFACE('',#330,13.5625,5.);
#108=TOROIDAL_SURFACE('',#331,12.9411920231988,2.);
#109=CONICAL_SURFACE('',#325,8.5625,1.74491621505435);
#110=CONICAL_SURFACE('',#329,10.9975,44.9999999999986);
#111=PLANE('',#319);
#112=PLANE('',#332);
#113=PLANE('',#334);
#114=PLANE('',#340);
#115=FACE_OUTER_BOUND('',#155,.T.);
#116=FACE_OUTER_BOUND('',#170,.T.);
#117=FACE_OUTER_BOUND('',#173,.T.);
#118=FACE_OUTER_BOUND('',#174,.T.);
#119=ADVANCED_FACE('',(#135,#136),#132,.T.);
#120=ADVANCED_FACE('',(#115),#111,.T.);
#121=ADVANCED_FACE('',(#137,#138),#133,.T.);
#122=ADVANCED_FACE('',(#139,#140),#109,.T.);
#123=ADVANCED_FACE('',(#141,#142),#134,.T.);
#124=ADVANCED_FACE('',(#143,#144),#110,.T.);
#125=ADVANCED_FACE('',(#145,#146),#107,.F.);
#126=ADVANCED_FACE('',(#147,#148),#108,.F.);
#127=ADVANCED_FACE('',(#149,#150),#112,.F.);
#128=ADVANCED_FACE('',(#116),#113,.F.);
#129=ADVANCED_FACE('',(#151,#152),#105,.T.);
#130=ADVANCED_FACE('',(#117),#114,.T.);
#131=ADVANCED_FACE('',(#118),#106,.T.);
#132=CYLINDRICAL_SURFACE('',#317,8.4975);
#133=CYLINDRICAL_SURFACE('',#322,8.5625);
#134=CYLINDRICAL_SURFACE('',#328,12.49675);
#135=FACE_BOUND('',#153,.T.);
#136=FACE_BOUND('',#154,.T.);
#137=FACE_BOUND('',#156,.T.);
#138=FACE_BOUND('',#157,.T.);
#139=FACE_BOUND('',#158,.T.);
#140=FACE_BOUND('',#159,.T.);
#141=FACE_BOUND('',#160,.T.);
#142=FACE_BOUND('',#161,.T.);
#143=FACE_BOUND('',#162,.T.);
#144=FACE_BOUND('',#163,.T.);
#145=FACE_BOUND('',#164,.T.);
#146=FACE_BOUND('',#165,.T.);
#147=FACE_BOUND('',#166,.T.);
#148=FACE_BOUND('',#167,.T.);
#149=FACE_BOUND('',#168,.T.);
#150=FACE_BOUND('',#169,.T.);
#151=FACE_BOUND('',#171,.T.);
#152=FACE_BOUND('',#172,.T.);
#153=EDGE_LOOP('',(#175));
#154=EDGE_LOOP('',(#176));
#155=EDGE_LOOP('',(#177));
#156=EDGE_LOOP('',(#178));
#157=EDGE_LOOP('',(#179));
#158=EDGE_LOOP('',(#180));
#159=EDGE_LOOP('',(#181));
#160=EDGE_LOOP('',(#182));
#161=EDGE_LOOP('',(#183));
#162=EDGE_LOOP('',(#184));
#163=EDGE_LOOP('',(#185));
#164=EDGE_LOOP('',(#186));
#165=EDGE_LOOP('',(#187));
#166=EDGE_LOOP('',(#188));
#167=EDGE_LOOP('',(#189));
#168=EDGE_LOOP('',(#190));
#169=EDGE_LOOP('',(#191));
#170=EDGE_LOOP('',(#192));
#171=EDGE_LOOP('',(#193));
#172=EDGE_LOOP('',(#194));
#173=EDGE_LOOP('',(#195));
#174=EDGE_LOOP('',(#196));
#175=ORIENTED_EDGE('',*,*,#208,.F.);
#176=ORIENTED_EDGE('',*,*,#209,.F.);
#177=ORIENTED_EDGE('',*,*,#210,.T.);
#178=ORIENTED_EDGE('',*,*,#211,.T.);
#179=ORIENTED_EDGE('',*,*,#212,.T.);
#180=ORIENTED_EDGE('',*,*,#213,.T.);
#181=ORIENTED_EDGE('',*,*,#214,.T.);
#182=ORIENTED_EDGE('',*,*,#215,.F.);
#183=ORIENTED_EDGE('',*,*,#216,.T.);
#184=ORIENTED_EDGE('',*,*,#215,.T.);
#185=ORIENTED_EDGE('',*,*,#210,.F.);
#186=ORIENTED_EDGE('',*,*,#212,.F.);
#187=ORIENTED_EDGE('',*,*,#214,.F.);
#188=ORIENTED_EDGE('',*,*,#213,.F.);
#189=ORIENTED_EDGE('',*,*,#216,.F.);
#190=ORIENTED_EDGE('',*,*,#209,.T.);
#191=ORIENTED_EDGE('',*,*,#211,.F.);
#192=ORIENTED_EDGE('',*,*,#217,.F.);
#193=ORIENTED_EDGE('',*,*,#208,.T.);
#194=ORIENTED_EDGE('',*,*,#217,.T.);
#195=ORIENTED_EDGE('',*,*,#218,.F.);
#196=ORIENTED_EDGE('',*,*,#218,.T.);
#197=VERTEX_POINT('',#428);
#198=VERTEX_POINT('',#430);
#199=VERTEX_POINT('',#433);
#200=VERTEX_POINT('',#436);
#201=VERTEX_POINT('',#438);
#202=VERTEX_POINT('',#441);
#203=VERTEX_POINT('',#443);
#204=VERTEX_POINT('',#446);
#205=VERTEX_POINT('',#448);
#206=VERTEX_POINT('',#455);
#207=VERTEX_POINT('',#475);
#208=EDGE_CURVE('',#197,#197,#219,.T.);
#209=EDGE_CURVE('',#198,#198,#220,.T.);
#210=EDGE_CURVE('',#199,#199,#221,.T.);
#211=EDGE_CURVE('',#200,#200,#222,.T.);
#212=EDGE_CURVE('',#201,#201,#223,.T.);
#213=EDGE_CURVE('',#202,#202,#224,.T.);
#214=EDGE_CURVE('',#203,#203,#225,.T.);
#215=EDGE_CURVE('',#204,#204,#226,.T.);
#216=EDGE_CURVE('',#205,#205,#227,.T.);
#217=EDGE_CURVE('',#206,#206,#228,.T.);
#218=EDGE_CURVE('',#207,#207,#229,.T.);
#219=CIRCLE('',#315,8.4975);
#220=CIRCLE('',#316,8.4975);
#221=CIRCLE('',#318,10.9975);
#222=CIRCLE('',#320,8.5625);
#223=CIRCLE('',#321,8.5625);
#224=CIRCLE('',#323,10.9421194301041);
#225=CIRCLE('',#324,8.56481851726329);
#226=CIRCLE('',#326,12.49675);
#227=CIRCLE('',#327,12.49675);
#228=CIRCLE('',#333,4.13115071741519);
#229=CIRCLE('',#339,8.6582328306647);
#230=CURVE_STYLE('',#239,POSITIVE_LENGTH_MEASURE(0.18),#307);
#231=CURVE_STYLE('',#240,POSITIVE_LENGTH_MEASURE(0.18),#307);
#232=CURVE_STYLE('',#241,POSITIVE_LENGTH_MEASURE(0.18),#307);
#233=CURVE_STYLE('',#242,POSITIVE_LENGTH_MEASURE(0.18),#307);
#234=CURVE_STYLE('',#243,POSITIVE_LENGTH_MEASURE(0.18),#87);
#235=CURVE_STYLE('',#244,POSITIVE_LENGTH_MEASURE(0.18),#307);
#236=CURVE_STYLE('',#245,POSITIVE_LENGTH_MEASURE(0.18),#307);
#237=CURVE_STYLE('',#246,POSITIVE_LENGTH_MEASURE(0.18),#307);
#238=CURVE_STYLE('',#247,POSITIVE_LENGTH_MEASURE(0.18),#307);
#239=DRAUGHTING_PRE_DEFINED_CURVE_FONT('continuous');
#240=DRAUGHTING_PRE_DEFINED_CURVE_FONT('continuous');
#241=DRAUGHTING_PRE_DEFINED_CURVE_FONT('continuous');
#242=DRAUGHTING_PRE_DEFINED_CURVE_FONT('continuous');
#243=DRAUGHTING_PRE_DEFINED_CURVE_FONT('continuous');
#244=DRAUGHTING_PRE_DEFINED_CURVE_FONT('continuous');
#245=DRAUGHTING_PRE_DEFINED_CURVE_FONT('continuous');
#246=DRAUGHTING_PRE_DEFINED_CURVE_FONT('continuous');
#247=DRAUGHTING_PRE_DEFINED_CURVE_FONT('continuous');
#248=PRESENTATION_LAYER_ASSIGNMENT('1','Layer 1',(#419,#311,#421,#422,#423,
#312,#313,#314,#101,#458,#459,#460,#89,#336,#337,#338,#102,#478,#479,#342));
#249=STYLED_ITEM('',(#269),#419);
#250=STYLED_ITEM('',(#270),#311);
#251=STYLED_ITEM('',(#271),#421);
#252=STYLED_ITEM('',(#272),#422);
#253=STYLED_ITEM('',(#273),#423);
#254=STYLED_ITEM('',(#274),#312);
#255=STYLED_ITEM('',(#275),#313);
#256=STYLED_ITEM('',(#276),#314);
#257=STYLED_ITEM('',(#277),#101);
#258=STYLED_ITEM('',(#278),#458);
#259=STYLED_ITEM('',(#279),#459);
#260=STYLED_ITEM('',(#280),#460);
#261=STYLED_ITEM('',(#281),#89);
#262=STYLED_ITEM('',(#282),#336);
#263=STYLED_ITEM('',(#283),#337);
#264=STYLED_ITEM('',(#284),#338);
#265=STYLED_ITEM('',(#285),#102);
#266=STYLED_ITEM('',(#286),#478);
#267=STYLED_ITEM('',(#287),#479);
#268=STYLED_ITEM('',(#288),#342);
#269=PRESENTATION_STYLE_ASSIGNMENT((#289));
#270=PRESENTATION_STYLE_ASSIGNMENT((#230));
#271=PRESENTATION_STYLE_ASSIGNMENT((#290));
#272=PRESENTATION_STYLE_ASSIGNMENT((#291));
#273=PRESENTATION_STYLE_ASSIGNMENT((#292));
#274=PRESENTATION_STYLE_ASSIGNMENT((#231));
#275=PRESENTATION_STYLE_ASSIGNMENT((#232));
#276=PRESENTATION_STYLE_ASSIGNMENT((#233));
#277=PRESENTATION_STYLE_ASSIGNMENT((#91));
#278=PRESENTATION_STYLE_ASSIGNMENT((#293));
#279=PRESENTATION_STYLE_ASSIGNMENT((#294));
#280=PRESENTATION_STYLE_ASSIGNMENT((#295));
#281=PRESENTATION_STYLE_ASSIGNMENT((#234));
#282=PRESENTATION_STYLE_ASSIGNMENT((#235));
#283=PRESENTATION_STYLE_ASSIGNMENT((#236));
#284=PRESENTATION_STYLE_ASSIGNMENT((#237));
#285=PRESENTATION_STYLE_ASSIGNMENT((#92));
#286=PRESENTATION_STYLE_ASSIGNMENT((#296));
#287=PRESENTATION_STYLE_ASSIGNMENT((#297));
#288=PRESENTATION_STYLE_ASSIGNMENT((#238));
#289=POINT_STYLE('',#298,POSITIVE_LENGTH_MEASURE(3.),#307);
#290=POINT_STYLE('',#299,POSITIVE_LENGTH_MEASURE(3.),#307);
#291=POINT_STYLE('',#300,POSITIVE_LENGTH_MEASURE(3.),#307);
#292=POINT_STYLE('',#301,POSITIVE_LENGTH_MEASURE(3.),#307);
#293=POINT_STYLE('',#302,POSITIVE_LENGTH_MEASURE(3.),#307);
#294=POINT_STYLE('',#303,POSITIVE_LENGTH_MEASURE(3.),#307);
#295=POINT_STYLE('',#304,POSITIVE_LENGTH_MEASURE(3.),#307);
#296=POINT_STYLE('',#305,POSITIVE_LENGTH_MEASURE(3.),#88);
#297=POINT_STYLE('',#306,POSITIVE_LENGTH_MEASURE(3.),#307);
#298=PRE_DEFINED_POINT_MARKER_SYMBOL('plus');
#299=PRE_DEFINED_POINT_MARKER_SYMBOL('plus');
#300=PRE_DEFINED_POINT_MARKER_SYMBOL('plus');
#301=PRE_DEFINED_POINT_MARKER_SYMBOL('plus');
#302=PRE_DEFINED_POINT_MARKER_SYMBOL('plus');
#303=PRE_DEFINED_POINT_MARKER_SYMBOL('plus');
#304=PRE_DEFINED_POINT_MARKER_SYMBOL('plus');
#305=PRE_DEFINED_POINT_MARKER_SYMBOL('plus');
#306=PRE_DEFINED_POINT_MARKER_SYMBOL('plus');
#307=COLOUR_RGB('Medium Maroon',0.6,0.4,0.4);
#308=COLOUR_RGB('Medium Gray',0.490196078431373,0.490196078431373,0.490196078431373);
#309=COLOUR_RGB('Light Gray',0.8,0.8,0.8);
#310=AXIS2_PLACEMENT_3D('',#418,#346,#347);
#311=AXIS2_PLACEMENT_3D('',#420,#348,#349);
#312=AXIS2_PLACEMENT_3D('PCS',#424,#350,#351);
#313=AXIS2_PLACEMENT_3D('MCS',#425,#352,#353);
#314=AXIS2_PLACEMENT_3D('CSW',#426,#354,#355);
#315=AXIS2_PLACEMENT_3D('',#427,#356,#357);
#316=AXIS2_PLACEMENT_3D('',#429,#358,#359);
#317=AXIS2_PLACEMENT_3D('',#431,#360,#361);
#318=AXIS2_PLACEMENT_3D('',#432,#362,#363);
#319=AXIS2_PLACEMENT_3D('',#434,#364,#365);
#320=AXIS2_PLACEMENT_3D('',#435,#366,#367);
#321=AXIS2_PLACEMENT_3D('',#437,#368,#369);
#322=AXIS2_PLACEMENT_3D('',#439,#370,#371);
#323=AXIS2_PLACEMENT_3D('',#440,#372,#373);
#324=AXIS2_PLACEMENT_3D('',#442,#374,#375);
#325=AXIS2_PLACEMENT_3D('',#444,#376,#377);
#326=AXIS2_PLACEMENT_3D('',#445,#378,#379);
#327=AXIS2_PLACEMENT_3D('',#447,#380,#381);
#328=AXIS2_PLACEMENT_3D('',#449,#382,#383);
#329=AXIS2_PLACEMENT_3D('',#450,#384,#385);
#330=AXIS2_PLACEMENT_3D('',#451,#386,#387);
#331=AXIS2_PLACEMENT_3D('',#452,#388,#389);
#332=AXIS2_PLACEMENT_3D('',#453,#390,#391);
#333=AXIS2_PLACEMENT_3D('',#454,#392,#393);
#334=AXIS2_PLACEMENT_3D('',#456,#394,#395);
#335=AXIS2_PLACEMENT_3D('',#457,#396,#397);
#336=AXIS2_PLACEMENT_3D('MCS',#471,#398,#399);
#337=AXIS2_PLACEMENT_3D('PCS',#472,#400,#401);
#338=AXIS2_PLACEMENT_3D('CIP',#473,#402,#403);
#339=AXIS2_PLACEMENT_3D('',#474,#404,#405);
#340=AXIS2_PLACEMENT_3D('',#476,#406,#407);
#341=AXIS2_PLACEMENT_3D('',#477,#408,#409);
#342=AXIS2_PLACEMENT_3D('',#480,#410,#411);
#343=AXIS2_PLACEMENT_3D('',#481,#412,#413);
#344=AXIS2_PLACEMENT_3D('',#482,#414,#415);
#345=AXIS2_PLACEMENT_3D('',#483,#416,#417);
#346=DIRECTION('',(0.,0.,1.));
#347=DIRECTION('',(1.,0.,0.));
#348=DIRECTION('',(0.,0.,1.));
#349=DIRECTION('',(1.,0.,0.));
#350=DIRECTION('',(0.,0.,1.));
#351=DIRECTION('',(1.,0.,0.));
#352=DIRECTION('',(0.,0.,1.));
#353=DIRECTION('',(1.,0.,0.));
#354=DIRECTION('',(0.,0.,1.));
#355=DIRECTION('',(1.,0.,0.));
#356=DIRECTION('',(0.,0.,-1.));
#357=DIRECTION('',(0.,1.,0.));
#358=DIRECTION('',(0.,0.,1.));
#359=DIRECTION('',(0.,1.,0.));
#360=DIRECTION('',(0.,0.,-1.));
#361=DIRECTION('',(0.,-1.,0.));
#362=DIRECTION('',(0.,0.,1.));
#363=DIRECTION('',(0.,1.,0.));
#364=DIRECTION('',(0.,0.,1.));
#365=DIRECTION('',(0.,1.,0.));
#366=DIRECTION('',(0.,0.,1.));
#367=DIRECTION('',(0.,1.,0.));
#368=DIRECTION('',(0.,0.,-1.));
#369=DIRECTION('',(0.,1.,0.));
#370=DIRECTION('',(0.,0.,1.));
#371=DIRECTION('',(0.,1.,0.));
#372=DIRECTION('',(0.,0.,-1.));
#373=DIRECTION('',(0.,-1.,0.));
#374=DIRECTION('',(0.,0.,1.));
#375=DIRECTION('',(0.,1.,0.));
#376=DIRECTION('',(0.,0.,1.));
#377=DIRECTION('',(0.,1.,0.));
#378=DIRECTION('',(0.,0.,1.));
#379=DIRECTION('',(0.,-1.,0.));
#380=DIRECTION('',(0.,0.,1.));
#381=DIRECTION('',(0.,-1.,0.));
#382=DIRECTION('',(0.,0.,1.));
#383=DIRECTION('',(0.,1.,0.));
#384=DIRECTION('',(0.,0.,-1.));
#385=DIRECTION('',(0.,-1.,0.));
#386=DIRECTION('',(0.,0.,1.));
#387=DIRECTION('',(0.,1.,0.));
#388=DIRECTION('',(0.,0.,1.));
#389=DIRECTION('',(0.,1.,0.));
#390=DIRECTION('',(0.,0.,1.));
#391=DIRECTION('',(0.,1.,0.));
#392=DIRECTION('',(0.,0.,1.));
#393=DIRECTION('',(0.,1.,0.));
#394=DIRECTION('',(0.,0.,1.));
#395=DIRECTION('',(0.,1.,0.));
#396=DIRECTION('',(0.,-1.,0.));
#397=DIRECTION('',(0.,0.,1.));
#398=DIRECTION('',(0.,0.,1.));
#399=DIRECTION('',(1.,0.,0.));
#400=DIRECTION('',(0.,0.,1.));
#401=DIRECTION('',(1.,0.,0.));
#402=DIRECTION('',(0.,0.,1.));
#403=DIRECTION('',(1.,0.,0.));
#404=DIRECTION('',(0.,0.,-1.));
#405=DIRECTION('',(-1.,0.,0.));
#406=DIRECTION('',(0.,0.,1.));
#407=DIRECTION('',(1.,0.,0.));
#408=DIRECTION('',(6.12323399573677E-17,0.,-1.));
#409=DIRECTION('',(1.,2.56551083627407E-17,0.));
#410=DIRECTION('',(0.,0.,1.));
#411=DIRECTION('',(1.,0.,0.));
#412=DIRECTION('',(0.,0.,1.));
#413=DIRECTION('',(1.,0.,0.));
#414=DIRECTION('',(0.,0.,1.));
#415=DIRECTION('',(1.,0.,0.));
#416=DIRECTION('',(0.,0.,1.));
#417=DIRECTION('',(1.,0.,0.));
#418=CARTESIAN_POINT('',(0.,0.,0.));
#419=CARTESIAN_POINT('',(0.,0.,0.));
#420=CARTESIAN_POINT('',(0.,0.,0.));
#421=CARTESIAN_POINT('CSW',(9.87084762884879E-16,-1.88737914186277E-13,
-176.0045));
#422=CARTESIAN_POINT('MCS',(0.,0.,-56.));
#423=CARTESIAN_POINT('PCS',(-2.1682461205105E-28,-1.85089947604039E-13,
0.));
#424=CARTESIAN_POINT('',(-2.1682461205105E-28,-1.85089947604039E-13,0.));
#425=CARTESIAN_POINT('',(0.,0.,-56.));
#426=CARTESIAN_POINT('',(9.87084762884879E-16,-1.88737914186277E-13,-176.0045));
#427=CARTESIAN_POINT('',(-2.1682461205105E-28,-1.85089947604039E-13,-182.05304320899));
#428=CARTESIAN_POINT('',(-2.1682461205105E-28,8.49749999999981,-182.05304320899));
#429=CARTESIAN_POINT('',(-2.1682461205105E-28,-1.85089947604039E-13,-157.));
#430=CARTESIAN_POINT('',(-2.1682461205105E-28,8.49749999999981,-157.));
#431=CARTESIAN_POINT('',(-2.1682461205105E-28,-1.85089947604039E-13,-169.447678340341));
#432=CARTESIAN_POINT('',(-2.1682461205105E-28,-1.85089947604039E-13,0.));
#433=CARTESIAN_POINT('',(-2.1682461205105E-28,10.9974999999998,0.));
#434=CARTESIAN_POINT('',(-2.1682461205105E-28,-1.85089947604039E-13,0.));
#435=CARTESIAN_POINT('',(-2.1682461205105E-28,-1.85089947604039E-13,-157.));
#436=CARTESIAN_POINT('',(-2.1682461205105E-28,8.56249999999982,-157.));
#437=CARTESIAN_POINT('',(-2.1682461205105E-28,-1.85089947604039E-13,-156.076142217924));
#438=CARTESIAN_POINT('',(-2.1682461205105E-28,8.56249999999982,-156.076142217924));
#439=CARTESIAN_POINT('',(-2.1682461205105E-28,-1.85089947604039E-13,-41.7731847555535));
#440=CARTESIAN_POINT('',(-2.1682461205105E-28,-1.85089947604039E-13,-77.887369184349));
#441=CARTESIAN_POINT('',(-2.1682461205105E-28,-10.9421194301043,-77.887369184349));
#442=CARTESIAN_POINT('',(-2.1682461205105E-28,-1.85089947604039E-13,-155.923893089485));
#443=CARTESIAN_POINT('',(-2.1682461205105E-28,8.5648185172631,-155.923893089485));
#444=CARTESIAN_POINT('',(-2.1682461205105E-28,-1.85089947604039E-13,-156.));
#445=CARTESIAN_POINT('',(-2.1682461205105E-28,-1.85089947604039E-13,-1.49925000000006));
#446=CARTESIAN_POINT('',(-2.1682461205105E-28,-12.4967500000002,-1.49925000000006));
#447=CARTESIAN_POINT('',(-2.1682461205105E-28,-1.85089947604039E-13,-75.9982761977861));
#448=CARTESIAN_POINT('',(-2.1682461205105E-28,-12.4967500000002,-75.9982761977861));
#449=CARTESIAN_POINT('',(-2.1682461205105E-28,-1.85089947604039E-13,-41.7731847555535));
#450=CARTESIAN_POINT('',(-2.1682461205105E-28,-1.85089947604039E-13,0.));
#451=CARTESIAN_POINT('',(-2.1682461205105E-28,-1.85089947604039E-13,-156.076142217924));
#452=CARTESIAN_POINT('',(-2.1682461205105E-28,-1.85089947604039E-13,-77.9482688357248));
#453=CARTESIAN_POINT('',(-8.4975,-1.85089947604039E-13,-157.));
#454=CARTESIAN_POINT('',(-2.1682461205105E-28,-1.85089947604039E-13,-188.5));
#455=CARTESIAN_POINT('',(-2.1682461205105E-28,4.131150717415,-188.5));
#456=CARTESIAN_POINT('',(-2.1682461205105E-28,-1.85089947604039E-13,-188.5));
#457=CARTESIAN_POINT('',(-2.1682461205105E-28,-1.85089947604039E-13,-181.));
#458=CARTESIAN_POINT('',(0.,0.,-14.9955));
#459=CARTESIAN_POINT('',(0.,0.,0.));
#460=CARTESIAN_POINT('MCS',(0.,0.,0.));
#461=CARTESIAN_POINT('',(-8.6582328306647,-4.44089209850063E-16,-1.86517468137026E-14));
#462=CARTESIAN_POINT('',(-12.983561242027,-4.44089209850063E-16,-7.49668710933114));
#463=CARTESIAN_POINT('',(-8.65498604743801,-4.44089209850063E-16,-14.9915000000001));
#464=CARTESIAN_POINT('',(6.50565399493838E-14,-2.22044604925031E-16,-14.9915));
#465=CARTESIAN_POINT('',(0.,0.,-9.99433333333335));
#466=CARTESIAN_POINT('',(0.,0.,-4.99716666666667));
#467=CARTESIAN_POINT('',(0.,-2.22044604925031E-16,-1.06581410364015E-14));
#468=CARTESIAN_POINT('',(-2.88607761022157,-4.44089209850063E-16,-2.1316282072803E-14));
#469=CARTESIAN_POINT('',(-5.77215522044313,-4.44089209850063E-16,-2.1316282072803E-14));
#470=CARTESIAN_POINT('',(-8.6582328306647,-4.44089209850063E-16,-2.1316282072803E-14));
#471=CARTESIAN_POINT('',(0.,0.,0.));
#472=CARTESIAN_POINT('',(0.,0.,0.));
#473=CARTESIAN_POINT('',(0.,0.,-14.9955));
#474=CARTESIAN_POINT('',(0.,0.,-2.1316282072803E-14));
#475=CARTESIAN_POINT('',(-8.6582328306647,0.,-2.1316282072803E-14));
#476=CARTESIAN_POINT('',(-8.6582328306647,-4.44089209850063E-16,-1.59872115546023E-14));
#477=CARTESIAN_POINT('',(-6.18071165820281E-14,-2.59011926118183E-16,-4.99549999999998));
#478=CARTESIAN_POINT('CRP',(-9.995,0.,-191.));
#479=CARTESIAN_POINT('',(0.,0.,0.));
#480=CARTESIAN_POINT('',(0.,0.,0.));
#481=CARTESIAN_POINT('',(0.,0.,0.));
#482=CARTESIAN_POINT('',(9.87084762885096E-16,2.8421709430404E-14,-176.0045));
#483=CARTESIAN_POINT('',(0.,0.,0.));
#484=MECHANICAL_DESIGN_GEOMETRIC_PRESENTATION_REPRESENTATION('',(#249,#250),
#488);
#485=MECHANICAL_DESIGN_GEOMETRIC_PRESENTATION_REPRESENTATION('',(#251,#252,
#253,#254,#255,#256,#257),#489);
#486=MECHANICAL_DESIGN_GEOMETRIC_PRESENTATION_REPRESENTATION('',(#258,#259,
#260,#261,#262,#263,#264,#265),#490);
#487=MECHANICAL_DESIGN_GEOMETRIC_PRESENTATION_REPRESENTATION('',(#266,#267,
#268),#491);
#488=(
GEOMETRIC_REPRESENTATION_CONTEXT(3)
GLOBAL_UNCERTAINTY_ASSIGNED_CONTEXT((#492))
GLOBAL_UNIT_ASSIGNED_CONTEXT((#501,#497,#496))
REPRESENTATION_CONTEXT('1590408090978','TOP_LEVEL_ASSEMBLY_PART')
);
#489=(
GEOMETRIC_REPRESENTATION_CONTEXT(3)
GLOBAL_UNCERTAINTY_ASSIGNED_CONTEXT((#493))
GLOBAL_UNIT_ASSIGNED_CONTEXT((#501,#497,#496))
REPRESENTATION_CONTEXT('202455183mod000_00','COMPONENT_PART')
);
#490=(
GEOMETRIC_REPRESENTATION_CONTEXT(3)
GLOBAL_UNCERTAINTY_ASSIGNED_CONTEXT((#494))
GLOBAL_UNIT_ASSIGNED_CONTEXT((#501,#497,#496))
REPRESENTATION_CONTEXT('202454541mod000_00','COMPONENT_PART')
);
#491=(
GEOMETRIC_REPRESENTATION_CONTEXT(3)
GLOBAL_UNCERTAINTY_ASSIGNED_CONTEXT((#495))
GLOBAL_UNIT_ASSIGNED_CONTEXT((#501,#497,#496))
REPRESENTATION_CONTEXT('202455182mod000_00','COMPONENT_PART')
);
#492=UNCERTAINTY_MEASURE_WITH_UNIT(LENGTH_MEASURE(2.E-5),#501,
'DISTANCE_ACCURACY_VALUE','Maximum Tolerance applied to model');
#493=UNCERTAINTY_MEASURE_WITH_UNIT(LENGTH_MEASURE(2.E-5),#501,
'DISTANCE_ACCURACY_VALUE','Maximum Tolerance applied to model');
#494=UNCERTAINTY_MEASURE_WITH_UNIT(LENGTH_MEASURE(2.E-5),#501,
'DISTANCE_ACCURACY_VALUE','Maximum Tolerance applied to model');
#495=UNCERTAINTY_MEASURE_WITH_UNIT(LENGTH_MEASURE(2.E-5),#501,
'DISTANCE_ACCURACY_VALUE','Maximum Tolerance applied to model');
#496=(
NAMED_UNIT(*)
SI_UNIT($,.STERADIAN.)
SOLID_ANGLE_UNIT()
);
#497=(
CONVERSION_BASED_UNIT('DEGREE',#499)
NAMED_UNIT(#498)
PLANE_ANGLE_UNIT()
);
#498=DIMENSIONAL_EXPONENTS(0.,0.,0.,0.,0.,0.,0.);
#499=PLANE_ANGLE_MEASURE_WITH_UNIT(PLANE_ANGLE_MEASURE(0.0174532925),#500);
#500=(
NAMED_UNIT(*)
PLANE_ANGLE_UNIT()
SI_UNIT($,.RADIAN.)
);
#501=(
LENGTH_UNIT()
NAMED_UNIT(*)
SI_UNIT(.MILLI.,.METRE.)
);
ENDSEC;
END-ISO-10303-21;
