ISO-10303-21;
HEADER;
/* Generated by software containing ST-Developer
 * from STEP Tools, Inc. (www.steptools.com) 
 */
/* OPTION: using custom schema-name function */

FILE_DESCRIPTION(
/* description */ (''),
/* implementation_level */ '2;1');

FILE_NAME(
/* name */ '1590648663892.stp',
/* time_stamp */ '2020-05-28T12:21:23+06:00',
/* author */ (''),
/* organization */ ('SMS'),
/* preprocessor_version */ 'ST-DEVELOPER v16.7',
/* originating_system */ 'SIEMENS PLM Software NX 12.0',
/* authorisation */ '');

FILE_SCHEMA (('AUTOMOTIVE_DESIGN { 1 0 10303 214 3 1 1 1 }'));
ENDSEC;

DATA;
#10=CONTEXT_DEPENDENT_SHAPE_REPRESENTATION(#16,#50);
#11=CONTEXT_DEPENDENT_SHAPE_REPRESENTATION(#17,#51);
#12=CONTEXT_DEPENDENT_SHAPE_REPRESENTATION(#18,#52);
#13=NEXT_ASSEMBLY_USAGE_OCCURRENCE('1001',' ',
'NXMOD-TM01_00-000-00-R216F_12A16C_085_PP_BAS',#56,#55,$);
#14=NEXT_ASSEMBLY_USAGE_OCCURRENCE('1002',' ',
'NXMOD-TM01_00-000-00-MI_R216F_1230_R1_BAS',#56,#54,$);
#15=NEXT_ASSEMBLY_USAGE_OCCURRENCE('1003',' ',
'NXMOD-TM01_00-000-00-R216F_12A16C_085_ACN_BAS',#56,#53,$);
#16=(
REPRESENTATION_RELATIONSHIP(' ',' ',#81,#82)
REPRESENTATION_RELATIONSHIP_WITH_TRANSFORMATION(#19)
SHAPE_REPRESENTATION_RELATIONSHIP()
);
#17=(
REPRESENTATION_RELATIONSHIP(' ',' ',#80,#82)
REPRESENTATION_RELATIONSHIP_WITH_TRANSFORMATION(#20)
SHAPE_REPRESENTATION_RELATIONSHIP()
);
#18=(
REPRESENTATION_RELATIONSHIP(' ',' ',#79,#82)
REPRESENTATION_RELATIONSHIP_WITH_TRANSFORMATION(#21)
SHAPE_REPRESENTATION_RELATIONSHIP()
);
#19=ITEM_DEFINED_TRANSFORMATION(' ',' ',#299,#330);
#20=ITEM_DEFINED_TRANSFORMATION(' ',' ',#299,#331);
#21=ITEM_DEFINED_TRANSFORMATION(' ',' ',#299,#332);
#22=ADVANCED_BREP_SHAPE_REPRESENTATION('202449663mod000_00-None',(#102),
#476);
#23=ADVANCED_BREP_SHAPE_REPRESENTATION('202454535mod000_00-None',(#101),
#475);
#24=CONSTRUCTIVE_GEOMETRY_REPRESENTATION_RELATIONSHIP(
'supplemental geometry','',#79,#28);
#25=CONSTRUCTIVE_GEOMETRY_REPRESENTATION_RELATIONSHIP(
'supplemental geometry','',#80,#29);
#26=CONSTRUCTIVE_GEOMETRY_REPRESENTATION_RELATIONSHIP(
'supplemental geometry','',#81,#30);
#27=CONSTRUCTIVE_GEOMETRY_REPRESENTATION_RELATIONSHIP(
'supplemental geometry','',#82,#31);
#28=CONSTRUCTIVE_GEOMETRY_REPRESENTATION('supplemental geometry',(#329),
#477);
#29=CONSTRUCTIVE_GEOMETRY_REPRESENTATION('supplemental geometry',(#323,
#324,#325),#476);
#30=CONSTRUCTIVE_GEOMETRY_REPRESENTATION('supplemental geometry',(#301,
#302,#303),#475);
#31=CONSTRUCTIVE_GEOMETRY_REPRESENTATION('supplemental geometry',(#300),
#474);
#32=SHAPE_REPRESENTATION_RELATIONSHIP('None',
'relationship between 202454537mod000_00-None and 202454537mod000_00-N
one',#79,#38);
#33=SHAPE_REPRESENTATION_RELATIONSHIP('None',
'relationship between 202449663mod000_00-None and 202449663mod000_00-N
one',#80,#22);
#34=SHAPE_REPRESENTATION_RELATIONSHIP('None',
'relationship between 202449663mod000_00-None and 202449663mod000_00-N
one',#80,#39);
#35=SHAPE_REPRESENTATION_RELATIONSHIP('None',
'relationship between 202454535mod000_00-None and 202454535mod000_00-N
one',#81,#23);
#36=SHAPE_REPRESENTATION_RELATIONSHIP('None',
'relationship between 202454535mod000_00-None and 202454535mod000_00-N
one',#81,#40);
#37=SHAPE_REPRESENTATION_RELATIONSHIP('None',
'relationship between 202454536mod000_00-None and 202454536mod000_00-N
one',#82,#41);
#38=GEOMETRICALLY_BOUNDED_WIREFRAME_SHAPE_REPRESENTATION(
'202454537mod000_00-None',(#83),#477);
#39=GEOMETRICALLY_BOUNDED_WIREFRAME_SHAPE_REPRESENTATION(
'202449663mod000_00-None',(#84),#476);
#40=GEOMETRICALLY_BOUNDED_WIREFRAME_SHAPE_REPRESENTATION(
'202454535mod000_00-None',(#85),#475);
#41=GEOMETRICALLY_BOUNDED_WIREFRAME_SHAPE_REPRESENTATION(
'202454536mod000_00-None',(#86),#474);
#42=SHAPE_DEFINITION_REPRESENTATION(#46,#79);
#43=SHAPE_DEFINITION_REPRESENTATION(#47,#80);
#44=SHAPE_DEFINITION_REPRESENTATION(#48,#81);
#45=SHAPE_DEFINITION_REPRESENTATION(#49,#82);
#46=PRODUCT_DEFINITION_SHAPE('','',#53);
#47=PRODUCT_DEFINITION_SHAPE('','',#54);
#48=PRODUCT_DEFINITION_SHAPE('','',#55);
#49=PRODUCT_DEFINITION_SHAPE('','',#56);
#50=PRODUCT_DEFINITION_SHAPE(' ','NAUO PRDDFN',#13);
#51=PRODUCT_DEFINITION_SHAPE(' ','NAUO PRDDFN',#14);
#52=PRODUCT_DEFINITION_SHAPE(' ','NAUO PRDDFN',#15);
#53=PRODUCT_DEFINITION(' ','',#61,#57);
#54=PRODUCT_DEFINITION(' ','',#62,#58);
#55=PRODUCT_DEFINITION(' ','',#63,#59);
#56=PRODUCT_DEFINITION(' ','',#64,#60);
#57=PRODUCT_DEFINITION_CONTEXT('part definition',#78,'design');
#58=PRODUCT_DEFINITION_CONTEXT('part definition',#78,'design');
#59=PRODUCT_DEFINITION_CONTEXT('part definition',#78,'design');
#60=PRODUCT_DEFINITION_CONTEXT('part definition',#78,'design');
#61=PRODUCT_DEFINITION_FORMATION_WITH_SPECIFIED_SOURCE(' ',' ',#69,
 .NOT_KNOWN.);
#62=PRODUCT_DEFINITION_FORMATION_WITH_SPECIFIED_SOURCE(' ',' ',#70,
 .NOT_KNOWN.);
#63=PRODUCT_DEFINITION_FORMATION_WITH_SPECIFIED_SOURCE(' ',' ',#71,
 .NOT_KNOWN.);
#64=PRODUCT_DEFINITION_FORMATION_WITH_SPECIFIED_SOURCE(' ',' ',#72,
 .NOT_KNOWN.);
#65=PRODUCT_RELATED_PRODUCT_CATEGORY('part','',(#69));
#66=PRODUCT_RELATED_PRODUCT_CATEGORY('part','',(#70));
#67=PRODUCT_RELATED_PRODUCT_CATEGORY('part','',(#71));
#68=PRODUCT_RELATED_PRODUCT_CATEGORY('part','',(#72));
#69=PRODUCT('ASSEMBLY_CONSTRUCTION','202454537mod000_00',' ',(#73));
#70=PRODUCT('202449663mod000_00','202449663mod000_00','MASTER_INSERT',(#74));
#71=PRODUCT('202454535mod000_00','202454535mod000_00','NOCUT',(#75));
#72=PRODUCT('202454536mod000_00','202454536mod000_00',' ',(#76));
#73=PRODUCT_CONTEXT(' ',#78,'mechanical');
#74=PRODUCT_CONTEXT(' ',#78,'mechanical');
#75=PRODUCT_CONTEXT(' ',#78,'mechanical');
#76=PRODUCT_CONTEXT(' ',#78,'mechanical');
#77=APPLICATION_PROTOCOL_DEFINITION('international standard',
'automotive_design',2010,#78);
#78=APPLICATION_CONTEXT(
'core data for automotive mechanical design processes');
#79=SHAPE_REPRESENTATION('202454537mod000_00-None',(#299),#477);
#80=SHAPE_REPRESENTATION('202449663mod000_00-None',(#299),#476);
#81=SHAPE_REPRESENTATION('202454535mod000_00-None',(#299),#475);
#82=SHAPE_REPRESENTATION('202454536mod000_00-None',(#299,#330,#331,#332),
#474);
#83=GEOMETRIC_CURVE_SET('None',(#464,#465));
#84=GEOMETRIC_CURVE_SET('None',(#438,#439,#440,#89));
#85=GEOMETRIC_CURVE_SET('None',(#404,#405,#406));
#86=GEOMETRIC_CURVE_SET('None',(#402));
#87=DRAUGHTING_PRE_DEFINED_COLOUR('blue');
#88=DRAUGHTING_PRE_DEFINED_COLOUR('white');
#89=TRIMMED_CURVE('CUTTING EDGE LINE',#90,(PARAMETER_VALUE(0.)),(
PARAMETER_VALUE(1.)),.T.,.PARAMETER.);
#90=(
BOUNDED_CURVE()
B_SPLINE_CURVE(3,(#441,#442,#443,#444,#445,#446,#447,#448,#449,#450,#451,
#452,#453,#454,#455,#456),.UNSPECIFIED.,.T.,.F.)
B_SPLINE_CURVE_WITH_KNOTS((4,3,3,3,3,4),(0.,0.0308431629862163,0.413628150790855,
0.488128824726359,0.646365854826422,1.),.UNSPECIFIED.)
CURVE()
GEOMETRIC_REPRESENTATION_ITEM()
RATIONAL_B_SPLINE_CURVE((0.500660662927186,0.499779779024271,0.499779779024271,
0.500660662927186,0.37387697536949,0.37387697536949,0.500660662927186,0.495532083959873,
0.495532083959873,0.500660662927186,0.500660662927186,0.500660662927186,
0.500660662927186,0.500660662927186,0.500660662927186,0.500660662927186))
REPRESENTATION_ITEM('CUTTING EDGE LINE')
);
#91=SURFACE_STYLE_USAGE(.BOTH.,#93);
#92=SURFACE_STYLE_USAGE(.BOTH.,#94);
#93=SURFACE_SIDE_STYLE('',(#95));
#94=SURFACE_SIDE_STYLE('',(#96));
#95=SURFACE_STYLE_FILL_AREA(#97);
#96=SURFACE_STYLE_FILL_AREA(#98);
#97=FILL_AREA_STYLE('',(#99));
#98=FILL_AREA_STYLE('',(#100));
#99=FILL_AREA_STYLE_COLOUR('',#297);
#100=FILL_AREA_STYLE_COLOUR('',#298);
#101=MANIFOLD_SOLID_BREP('NOCUT',#103);
#102=MANIFOLD_SOLID_BREP('CUT',#104);
#103=CLOSED_SHELL('',(#119,#120,#121,#122,#123,#124,#125,#126,#127,#128));
#104=CLOSED_SHELL('',(#129,#130));
#105=TOROIDAL_SURFACE('',#316,7.47858053356392,1.);
#106=CONICAL_SURFACE('',#315,5.125,1.24048232190032);
#107=CONICAL_SURFACE('',#322,6.61912432702594,30.);
#108=CYLINDRICAL_SURFACE('',#309,5.0075);
#109=CYLINDRICAL_SURFACE('',#319,7.99875);
#110=PLANE('',#307);
#111=PLANE('',#312);
#112=PLANE('',#317);
#113=PLANE('',#321);
#114=PLANE('',#328);
#115=FACE_OUTER_BOUND('',#151,.T.);
#116=FACE_OUTER_BOUND('',#164,.T.);
#117=FACE_OUTER_BOUND('',#167,.T.);
#118=FACE_OUTER_BOUND('',#168,.T.);
#119=ADVANCED_FACE('',(#133,#134),#131,.T.);
#120=ADVANCED_FACE('',(#115),#110,.T.);
#121=ADVANCED_FACE('',(#135,#136),#108,.T.);
#122=ADVANCED_FACE('',(#137,#138),#111,.F.);
#123=ADVANCED_FACE('',(#139,#140),#106,.T.);
#124=ADVANCED_FACE('',(#141,#142),#105,.F.);
#125=ADVANCED_FACE('',(#143,#144),#112,.F.);
#126=ADVANCED_FACE('',(#145,#146),#109,.T.);
#127=ADVANCED_FACE('',(#116),#113,.T.);
#128=ADVANCED_FACE('',(#147,#148),#107,.T.);
#129=ADVANCED_FACE('',(#117),#132,.T.);
#130=ADVANCED_FACE('',(#118),#114,.T.);
#131=SPHERICAL_SURFACE('',#306,5.0625);
#132=SPHERICAL_SURFACE('',#327,5.99599999999997);
#133=FACE_BOUND('',#149,.T.);
#134=FACE_BOUND('',#150,.T.);
#135=FACE_BOUND('',#152,.T.);
#136=FACE_BOUND('',#153,.T.);
#137=FACE_BOUND('',#154,.T.);
#138=FACE_BOUND('',#155,.T.);
#139=FACE_BOUND('',#156,.T.);
#140=FACE_BOUND('',#157,.T.);
#141=FACE_BOUND('',#158,.T.);
#142=FACE_BOUND('',#159,.T.);
#143=FACE_BOUND('',#160,.T.);
#144=FACE_BOUND('',#161,.T.);
#145=FACE_BOUND('',#162,.T.);
#146=FACE_BOUND('',#163,.T.);
#147=FACE_BOUND('',#165,.T.);
#148=FACE_BOUND('',#166,.T.);
#149=EDGE_LOOP('',(#169));
#150=EDGE_LOOP('',(#170));
#151=EDGE_LOOP('',(#171));
#152=EDGE_LOOP('',(#172));
#153=EDGE_LOOP('',(#173));
#154=EDGE_LOOP('',(#174));
#155=EDGE_LOOP('',(#175));
#156=EDGE_LOOP('',(#176));
#157=EDGE_LOOP('',(#177));
#158=EDGE_LOOP('',(#178));
#159=EDGE_LOOP('',(#179));
#160=EDGE_LOOP('',(#180));
#161=EDGE_LOOP('',(#181));
#162=EDGE_LOOP('',(#182));
#163=EDGE_LOOP('',(#183));
#164=EDGE_LOOP('',(#184));
#165=EDGE_LOOP('',(#185));
#166=EDGE_LOOP('',(#186));
#167=EDGE_LOOP('',(#187));
#168=EDGE_LOOP('',(#188));
#169=ORIENTED_EDGE('',*,*,#199,.T.);
#170=ORIENTED_EDGE('',*,*,#200,.T.);
#171=ORIENTED_EDGE('',*,*,#200,.F.);
#172=ORIENTED_EDGE('',*,*,#199,.F.);
#173=ORIENTED_EDGE('',*,*,#201,.F.);
#174=ORIENTED_EDGE('',*,*,#202,.T.);
#175=ORIENTED_EDGE('',*,*,#203,.F.);
#176=ORIENTED_EDGE('',*,*,#204,.T.);
#177=ORIENTED_EDGE('',*,*,#205,.T.);
#178=ORIENTED_EDGE('',*,*,#205,.F.);
#179=ORIENTED_EDGE('',*,*,#202,.F.);
#180=ORIENTED_EDGE('',*,*,#201,.T.);
#181=ORIENTED_EDGE('',*,*,#204,.F.);
#182=ORIENTED_EDGE('',*,*,#206,.F.);
#183=ORIENTED_EDGE('',*,*,#203,.T.);
#184=ORIENTED_EDGE('',*,*,#207,.T.);
#185=ORIENTED_EDGE('',*,*,#207,.F.);
#186=ORIENTED_EDGE('',*,*,#206,.T.);
#187=ORIENTED_EDGE('',*,*,#208,.T.);
#188=ORIENTED_EDGE('',*,*,#208,.F.);
#189=VERTEX_POINT('',#411);
#190=VERTEX_POINT('',#413);
#191=VERTEX_POINT('',#417);
#192=VERTEX_POINT('',#420);
#193=VERTEX_POINT('',#422);
#194=VERTEX_POINT('',#425);
#195=VERTEX_POINT('',#427);
#196=VERTEX_POINT('',#432);
#197=VERTEX_POINT('',#435);
#198=VERTEX_POINT('',#461);
#199=EDGE_CURVE('',#189,#189,#209,.T.);
#200=EDGE_CURVE('',#190,#190,#210,.T.);
#201=EDGE_CURVE('',#191,#191,#211,.T.);
#202=EDGE_CURVE('',#192,#192,#212,.T.);
#203=EDGE_CURVE('',#193,#193,#213,.T.);
#204=EDGE_CURVE('',#194,#194,#214,.T.);
#205=EDGE_CURVE('',#195,#195,#215,.T.);
#206=EDGE_CURVE('',#196,#196,#216,.T.);
#207=EDGE_CURVE('',#197,#197,#217,.T.);
#208=EDGE_CURVE('',#198,#198,#218,.T.);
#209=CIRCLE('',#304,5.0075);
#210=CIRCLE('',#305,2.31924691440993);
#211=CIRCLE('',#308,5.0075);
#212=CIRCLE('',#310,7.47858053356392);
#213=CIRCLE('',#311,7.99875);
#214=CIRCLE('',#313,5.14119710546623);
#215=CIRCLE('',#314,6.47881489650211);
#216=CIRCLE('',#318,7.99875);
#217=CIRCLE('',#320,6.61912432702594);
#218=CIRCLE('',#326,4.47079363759369);
#219=CURVE_STYLE('',#228,POSITIVE_LENGTH_MEASURE(0.18),#296);
#220=CURVE_STYLE('',#229,POSITIVE_LENGTH_MEASURE(0.18),#296);
#221=CURVE_STYLE('',#230,POSITIVE_LENGTH_MEASURE(0.18),#296);
#222=CURVE_STYLE('',#231,POSITIVE_LENGTH_MEASURE(0.18),#296);
#223=CURVE_STYLE('',#232,POSITIVE_LENGTH_MEASURE(0.18),#87);
#224=CURVE_STYLE('',#233,POSITIVE_LENGTH_MEASURE(0.18),#296);
#225=CURVE_STYLE('',#234,POSITIVE_LENGTH_MEASURE(0.18),#296);
#226=CURVE_STYLE('',#235,POSITIVE_LENGTH_MEASURE(0.18),#296);
#227=CURVE_STYLE('',#236,POSITIVE_LENGTH_MEASURE(0.18),#296);
#228=DRAUGHTING_PRE_DEFINED_CURVE_FONT('continuous');
#229=DRAUGHTING_PRE_DEFINED_CURVE_FONT('continuous');
#230=DRAUGHTING_PRE_DEFINED_CURVE_FONT('continuous');
#231=DRAUGHTING_PRE_DEFINED_CURVE_FONT('continuous');
#232=DRAUGHTING_PRE_DEFINED_CURVE_FONT('continuous');
#233=DRAUGHTING_PRE_DEFINED_CURVE_FONT('continuous');
#234=DRAUGHTING_PRE_DEFINED_CURVE_FONT('continuous');
#235=DRAUGHTING_PRE_DEFINED_CURVE_FONT('continuous');
#236=DRAUGHTING_PRE_DEFINED_CURVE_FONT('continuous');
#237=PRESENTATION_LAYER_ASSIGNMENT('1','Layer 1',(#402,#300,#404,#405,#406,
#301,#302,#303,#101,#438,#439,#440,#89,#323,#324,#325,#102,#464,#465,#329));
#238=STYLED_ITEM('',(#258),#402);
#239=STYLED_ITEM('',(#259),#300);
#240=STYLED_ITEM('',(#260),#404);
#241=STYLED_ITEM('',(#261),#405);
#242=STYLED_ITEM('',(#262),#406);
#243=STYLED_ITEM('',(#263),#301);
#244=STYLED_ITEM('',(#264),#302);
#245=STYLED_ITEM('',(#265),#303);
#246=STYLED_ITEM('',(#266),#101);
#247=STYLED_ITEM('',(#267),#438);
#248=STYLED_ITEM('',(#268),#439);
#249=STYLED_ITEM('',(#269),#440);
#250=STYLED_ITEM('',(#270),#89);
#251=STYLED_ITEM('',(#271),#323);
#252=STYLED_ITEM('',(#272),#324);
#253=STYLED_ITEM('',(#273),#325);
#254=STYLED_ITEM('',(#274),#102);
#255=STYLED_ITEM('',(#275),#464);
#256=STYLED_ITEM('',(#276),#465);
#257=STYLED_ITEM('',(#277),#329);
#258=PRESENTATION_STYLE_ASSIGNMENT((#278));
#259=PRESENTATION_STYLE_ASSIGNMENT((#219));
#260=PRESENTATION_STYLE_ASSIGNMENT((#279));
#261=PRESENTATION_STYLE_ASSIGNMENT((#280));
#262=PRESENTATION_STYLE_ASSIGNMENT((#281));
#263=PRESENTATION_STYLE_ASSIGNMENT((#220));
#264=PRESENTATION_STYLE_ASSIGNMENT((#221));
#265=PRESENTATION_STYLE_ASSIGNMENT((#222));
#266=PRESENTATION_STYLE_ASSIGNMENT((#91));
#267=PRESENTATION_STYLE_ASSIGNMENT((#282));
#268=PRESENTATION_STYLE_ASSIGNMENT((#283));
#269=PRESENTATION_STYLE_ASSIGNMENT((#284));
#270=PRESENTATION_STYLE_ASSIGNMENT((#223));
#271=PRESENTATION_STYLE_ASSIGNMENT((#224));
#272=PRESENTATION_STYLE_ASSIGNMENT((#225));
#273=PRESENTATION_STYLE_ASSIGNMENT((#226));
#274=PRESENTATION_STYLE_ASSIGNMENT((#92));
#275=PRESENTATION_STYLE_ASSIGNMENT((#285));
#276=PRESENTATION_STYLE_ASSIGNMENT((#286));
#277=PRESENTATION_STYLE_ASSIGNMENT((#227));
#278=POINT_STYLE('',#287,POSITIVE_LENGTH_MEASURE(3.),#296);
#279=POINT_STYLE('',#288,POSITIVE_LENGTH_MEASURE(3.),#296);
#280=POINT_STYLE('',#289,POSITIVE_LENGTH_MEASURE(3.),#296);
#281=POINT_STYLE('',#290,POSITIVE_LENGTH_MEASURE(3.),#296);
#282=POINT_STYLE('',#291,POSITIVE_LENGTH_MEASURE(3.),#296);
#283=POINT_STYLE('',#292,POSITIVE_LENGTH_MEASURE(3.),#296);
#284=POINT_STYLE('',#293,POSITIVE_LENGTH_MEASURE(3.),#296);
#285=POINT_STYLE('',#294,POSITIVE_LENGTH_MEASURE(3.),#296);
#286=POINT_STYLE('',#295,POSITIVE_LENGTH_MEASURE(3.),#88);
#287=PRE_DEFINED_POINT_MARKER_SYMBOL('plus');
#288=PRE_DEFINED_POINT_MARKER_SYMBOL('plus');
#289=PRE_DEFINED_POINT_MARKER_SYMBOL('plus');
#290=PRE_DEFINED_POINT_MARKER_SYMBOL('plus');
#291=PRE_DEFINED_POINT_MARKER_SYMBOL('plus');
#292=PRE_DEFINED_POINT_MARKER_SYMBOL('plus');
#293=PRE_DEFINED_POINT_MARKER_SYMBOL('plus');
#294=PRE_DEFINED_POINT_MARKER_SYMBOL('plus');
#295=PRE_DEFINED_POINT_MARKER_SYMBOL('plus');
#296=COLOUR_RGB('Medium Maroon',0.6,0.4,0.4);
#297=COLOUR_RGB('Medium Gray',0.490196078431373,0.490196078431373,0.490196078431373);
#298=COLOUR_RGB('Light Gray',0.8,0.8,0.8);
#299=AXIS2_PLACEMENT_3D('',#401,#333,#334);
#300=AXIS2_PLACEMENT_3D('',#403,#335,#336);
#301=AXIS2_PLACEMENT_3D('CSW',#407,#337,#338);
#302=AXIS2_PLACEMENT_3D('MCS',#408,#339,#340);
#303=AXIS2_PLACEMENT_3D('PCS',#409,#341,#342);
#304=AXIS2_PLACEMENT_3D('',#410,#343,#344);
#305=AXIS2_PLACEMENT_3D('',#412,#345,#346);
#306=AXIS2_PLACEMENT_3D('',#414,#347,#348);
#307=AXIS2_PLACEMENT_3D('',#415,#349,#350);
#308=AXIS2_PLACEMENT_3D('',#416,#351,#352);
#309=AXIS2_PLACEMENT_3D('',#418,#353,#354);
#310=AXIS2_PLACEMENT_3D('',#419,#355,#356);
#311=AXIS2_PLACEMENT_3D('',#421,#357,#358);
#312=AXIS2_PLACEMENT_3D('',#423,#359,#360);
#313=AXIS2_PLACEMENT_3D('',#424,#361,#362);
#314=AXIS2_PLACEMENT_3D('',#426,#363,#364);
#315=AXIS2_PLACEMENT_3D('',#428,#365,#366);
#316=AXIS2_PLACEMENT_3D('',#429,#367,#368);
#317=AXIS2_PLACEMENT_3D('',#430,#369,#370);
#318=AXIS2_PLACEMENT_3D('',#431,#371,#372);
#319=AXIS2_PLACEMENT_3D('',#433,#373,#374);
#320=AXIS2_PLACEMENT_3D('',#434,#375,#376);
#321=AXIS2_PLACEMENT_3D('',#436,#377,#378);
#322=AXIS2_PLACEMENT_3D('',#437,#379,#380);
#323=AXIS2_PLACEMENT_3D('MCS',#457,#381,#382);
#324=AXIS2_PLACEMENT_3D('PCS',#458,#383,#384);
#325=AXIS2_PLACEMENT_3D('CIP',#459,#385,#386);
#326=AXIS2_PLACEMENT_3D('',#460,#387,#388);
#327=AXIS2_PLACEMENT_3D('',#462,#389,#390);
#328=AXIS2_PLACEMENT_3D('',#463,#391,#392);
#329=AXIS2_PLACEMENT_3D('',#466,#393,#394);
#330=AXIS2_PLACEMENT_3D('',#467,#395,#396);
#331=AXIS2_PLACEMENT_3D('',#468,#397,#398);
#332=AXIS2_PLACEMENT_3D('',#469,#399,#400);
#333=DIRECTION('',(0.,0.,1.));
#334=DIRECTION('',(1.,0.,0.));
#335=DIRECTION('',(0.,0.,1.));
#336=DIRECTION('',(1.,0.,0.));
#337=DIRECTION('',(0.,0.,1.));
#338=DIRECTION('',(1.,0.,0.));
#339=DIRECTION('',(0.,0.,1.));
#340=DIRECTION('',(1.,0.,0.));
#341=DIRECTION('',(0.,0.,1.));
#342=DIRECTION('',(1.,0.,0.));
#343=DIRECTION('',(0.,0.,-1.));
#344=DIRECTION('',(1.,0.,0.));
#345=DIRECTION('',(0.,0.,1.));
#346=DIRECTION('',(-1.,0.,0.));
#347=DIRECTION('',(0.,6.12323399573677E-17,-1.));
#348=DIRECTION('',(0.,1.,0.));
#349=DIRECTION('',(0.,0.,-1.));
#350=DIRECTION('',(-1.,0.,0.));
#351=DIRECTION('',(0.,0.,1.));
#352=DIRECTION('',(-1.,0.,0.));
#353=DIRECTION('',(0.,0.,-1.));
#354=DIRECTION('',(-1.,0.,0.));
#355=DIRECTION('',(0.,0.,1.));
#356=DIRECTION('',(-1.,0.,0.));
#357=DIRECTION('',(0.,0.,1.));
#358=DIRECTION('',(1.,0.,0.));
#359=DIRECTION('',(0.,0.,1.));
#360=DIRECTION('',(-1.,0.,0.));
#361=DIRECTION('',(0.,0.,1.));
#362=DIRECTION('',(1.,0.,0.));
#363=DIRECTION('',(0.,0.,-1.));
#364=DIRECTION('',(-1.,0.,0.));
#365=DIRECTION('',(0.,0.,1.));
#366=DIRECTION('',(-1.,0.,-1.03647244190868E-15));
#367=DIRECTION('',(0.,0.,1.));
#368=DIRECTION('',(-1.,0.,0.));
#369=DIRECTION('',(0.,0.,1.));
#370=DIRECTION('',(1.,0.,0.));
#371=DIRECTION('',(0.,0.,1.));
#372=DIRECTION('',(-1.,0.,0.));
#373=DIRECTION('',(0.,0.,-1.));
#374=DIRECTION('',(-1.,0.,0.));
#375=DIRECTION('',(0.,0.,1.));
#376=DIRECTION('',(-1.,0.,0.));
#377=DIRECTION('',(0.,0.,1.));
#378=DIRECTION('',(-1.,0.,0.));
#379=DIRECTION('',(0.,0.,-1.));
#380=DIRECTION('',(1.,0.,0.));
#381=DIRECTION('',(0.,0.,1.));
#382=DIRECTION('',(1.,0.,0.));
#383=DIRECTION('',(0.,0.,1.));
#384=DIRECTION('',(1.,0.,0.));
#385=DIRECTION('',(0.,0.,1.));
#386=DIRECTION('',(1.,0.,0.));
#387=DIRECTION('',(0.,0.,-1.));
#388=DIRECTION('',(-1.,0.,0.));
#389=DIRECTION('',(-6.12323399573676E-17,0.,-1.));
#390=DIRECTION('',(-1.,-1.68631290994547E-31,0.));
#391=DIRECTION('',(0.,0.,1.));
#392=DIRECTION('',(1.,0.,0.));
#393=DIRECTION('',(0.,0.,1.));
#394=DIRECTION('',(1.,0.,0.));
#395=DIRECTION('',(0.,0.,1.));
#396=DIRECTION('',(1.,0.,0.));
#397=DIRECTION('',(0.,0.,1.));
#398=DIRECTION('',(1.,0.,0.));
#399=DIRECTION('',(0.,0.,1.));
#400=DIRECTION('',(1.,0.,0.));
#401=CARTESIAN_POINT('',(0.,0.,0.));
#402=CARTESIAN_POINT('',(0.,0.,0.));
#403=CARTESIAN_POINT('',(0.,0.,0.));
#404=CARTESIAN_POINT('CSW',(-1.21425059835048E-13,0.,-135.004209581222));
#405=CARTESIAN_POINT('PCS',(-1.28530487192649E-13,-1.61442503332927E-14,
0.));
#406=CARTESIAN_POINT('MCS',(0.,0.,-48.));
#407=CARTESIAN_POINT('',(-1.21425059835048E-13,0.,-135.004209581222));
#408=CARTESIAN_POINT('',(0.,0.,-48.));
#409=CARTESIAN_POINT('',(-1.28530487192649E-13,-1.61442503332927E-14,0.));
#410=CARTESIAN_POINT('',(-1.44674737525942E-13,0.,-139.743920572809));
#411=CARTESIAN_POINT('',(5.00749999999986,0.,-139.743920572809));
#412=CARTESIAN_POINT('',(-1.44674737525942E-13,0.,-143.499709581222));
#413=CARTESIAN_POINT('',(-2.31924691441008,0.,-143.499709581222));
#414=CARTESIAN_POINT('',(-1.44674737525942E-13,0.,-138.999709581222));
#415=CARTESIAN_POINT('',(-1.44674737525942E-13,3.08148791101958E-33,-143.499709581222));
#416=CARTESIAN_POINT('',(-1.44674737525942E-13,0.,-122.751));
#417=CARTESIAN_POINT('',(-5.00750000000015,0.,-122.751));
#418=CARTESIAN_POINT('',(-1.44674737525942E-13,0.,-126.499709581222));
#419=CARTESIAN_POINT('',(-1.44674737525942E-13,0.,-60.));
#420=CARTESIAN_POINT('',(-7.47858053356406,0.,-60.));
#421=CARTESIAN_POINT('',(-1.44674737525942E-13,0.,-60.));
#422=CARTESIAN_POINT('',(7.99874999999986,0.,-60.));
#423=CARTESIAN_POINT('',(-1.44674737525942E-13,-6.5,-60.));
#424=CARTESIAN_POINT('',(-1.44674737525942E-13,0.,-122.751));
#425=CARTESIAN_POINT('',(5.14119710546608,0.,-122.751));
#426=CARTESIAN_POINT('',(-1.44674737525942E-13,0.,-60.9783511905548));
#427=CARTESIAN_POINT('',(-6.47881489650225,0.,-60.9783511905548));
#428=CARTESIAN_POINT('',(-1.44674737525942E-13,0.,-123.499));
#429=CARTESIAN_POINT('',(-1.44674737525942E-13,0.,-61.));
#430=CARTESIAN_POINT('',(-1.44674737525942E-13,7.0075,-122.751));
#431=CARTESIAN_POINT('',(-1.44674737525942E-13,0.,-2.38958176101749));
#432=CARTESIAN_POINT('',(-7.99875000000015,0.,-2.38958176101749));
#433=CARTESIAN_POINT('',(-1.44674737525942E-13,0.,-120.5));
#434=CARTESIAN_POINT('',(-1.44674737525942E-13,0.,0.));
#435=CARTESIAN_POINT('',(-6.61912432702608,0.,0.));
#436=CARTESIAN_POINT('',(-1.44674737525942E-13,0.,0.));
#437=CARTESIAN_POINT('',(-1.44674737525942E-13,0.,0.));
#438=CARTESIAN_POINT('',(0.,0.,-9.9955));
#439=CARTESIAN_POINT('',(0.,0.,0.));
#440=CARTESIAN_POINT('',(0.,0.,0.));
#441=CARTESIAN_POINT('',(1.83574555192188E-15,-2.22044604925031E-16,-9.99149999999999));
#442=CARTESIAN_POINT('',(-0.290734553900667,-2.22044604925031E-16,-9.99149999999999));
#443=CARTESIAN_POINT('',(-0.580701811484142,-2.22044604925031E-16,-9.97039146235903));
#444=CARTESIAN_POINT('',(-0.86837123015844,-2.22044604925031E-16,-9.928285804884));
#445=CARTESIAN_POINT('',(-5.02331804431449,-2.22044604925031E-16,-9.32013368294466));
#446=CARTESIAN_POINT('',(-7.12292705743366,-2.22044604925031E-16,-5.68350419619276));
#447=CARTESIAN_POINT('',(-5.57212883731548,-2.22044604925031E-16,-1.78113864277819));
#448=CARTESIAN_POINT('',(-5.31166848736251,-2.22044604925031E-16,-1.12572681388834));
#449=CARTESIAN_POINT('',(-4.94075727962512,-2.22044604925031E-16,-0.525869218035052));
#450=CARTESIAN_POINT('',(-4.47079363759369,-2.22044604925031E-16,6.48303632999614E-12));
#451=CARTESIAN_POINT('',(-2.98052909173299,-2.22044604925031E-16,7.54951656745106E-15));
#452=CARTESIAN_POINT('',(-1.49026454586649,-2.22044604925031E-16,7.54951656745106E-15));
#453=CARTESIAN_POINT('',(0.,-2.22044604925031E-16,7.56823564886461E-15));
#454=CARTESIAN_POINT('',(0.,-2.22044604925031E-16,-3.33049999999999));
#455=CARTESIAN_POINT('',(0.,-2.22044604925031E-16,-6.66099999999999));
#456=CARTESIAN_POINT('',(0.,-2.22044604925031E-16,-9.99149999999999));
#457=CARTESIAN_POINT('',(0.,0.,0.));
#458=CARTESIAN_POINT('',(0.,0.,0.));
#459=CARTESIAN_POINT('',(0.,0.,-9.9955));
#460=CARTESIAN_POINT('',(0.,0.,6.48303632999614E-12));
#461=CARTESIAN_POINT('',(-4.47079363759369,0.,6.48303632999614E-12));
#462=CARTESIAN_POINT('',(1.8936547311979E-15,-2.22044604925018E-16,-3.99550000000003));
#463=CARTESIAN_POINT('',(-4.47079363759369,-2.22044604925031E-16,3.2453022828225E-12));
#464=CARTESIAN_POINT('',(0.,0.,0.));
#465=CARTESIAN_POINT('CRP',(-5.996,0.,-144.996));
#466=CARTESIAN_POINT('',(0.,0.,0.));
#467=CARTESIAN_POINT('',(0.,0.,0.));
#468=CARTESIAN_POINT('',(7.10542735760098E-15,0.,-135.004209581222));
#469=CARTESIAN_POINT('',(0.,0.,0.));
#470=MECHANICAL_DESIGN_GEOMETRIC_PRESENTATION_REPRESENTATION('',(#238,#239),
#474);
#471=MECHANICAL_DESIGN_GEOMETRIC_PRESENTATION_REPRESENTATION('',(#240,#241,
#242,#243,#244,#245,#246),#475);
#472=MECHANICAL_DESIGN_GEOMETRIC_PRESENTATION_REPRESENTATION('',(#247,#248,
#249,#250,#251,#252,#253,#254),#476);
#473=MECHANICAL_DESIGN_GEOMETRIC_PRESENTATION_REPRESENTATION('',(#255,#256,
#257),#477);
#474=(
GEOMETRIC_REPRESENTATION_CONTEXT(3)
GLOBAL_UNCERTAINTY_ASSIGNED_CONTEXT((#478))
GLOBAL_UNIT_ASSIGNED_CONTEXT((#487,#483,#482))
REPRESENTATION_CONTEXT('1590648663892','TOP_LEVEL_ASSEMBLY_PART')
);
#475=(
GEOMETRIC_REPRESENTATION_CONTEXT(3)
GLOBAL_UNCERTAINTY_ASSIGNED_CONTEXT((#479))
GLOBAL_UNIT_ASSIGNED_CONTEXT((#487,#483,#482))
REPRESENTATION_CONTEXT('202454535mod000_00','COMPONENT_PART')
);
#476=(
GEOMETRIC_REPRESENTATION_CONTEXT(3)
GLOBAL_UNCERTAINTY_ASSIGNED_CONTEXT((#480))
GLOBAL_UNIT_ASSIGNED_CONTEXT((#487,#483,#482))
REPRESENTATION_CONTEXT('202449663mod000_00','COMPONENT_PART')
);
#477=(
GEOMETRIC_REPRESENTATION_CONTEXT(3)
GLOBAL_UNCERTAINTY_ASSIGNED_CONTEXT((#481))
GLOBAL_UNIT_ASSIGNED_CONTEXT((#487,#483,#482))
REPRESENTATION_CONTEXT('202454537mod000_00','COMPONENT_PART')
);
#478=UNCERTAINTY_MEASURE_WITH_UNIT(LENGTH_MEASURE(2.E-5),#487,
'DISTANCE_ACCURACY_VALUE','Maximum Tolerance applied to model');
#479=UNCERTAINTY_MEASURE_WITH_UNIT(LENGTH_MEASURE(2.E-5),#487,
'DISTANCE_ACCURACY_VALUE','Maximum Tolerance applied to model');
#480=UNCERTAINTY_MEASURE_WITH_UNIT(LENGTH_MEASURE(2.E-5),#487,
'DISTANCE_ACCURACY_VALUE','Maximum Tolerance applied to model');
#481=UNCERTAINTY_MEASURE_WITH_UNIT(LENGTH_MEASURE(2.E-5),#487,
'DISTANCE_ACCURACY_VALUE','Maximum Tolerance applied to model');
#482=(
NAMED_UNIT(*)
SI_UNIT($,.STERADIAN.)
SOLID_ANGLE_UNIT()
);
#483=(
CONVERSION_BASED_UNIT('DEGREE',#485)
NAMED_UNIT(#484)
PLANE_ANGLE_UNIT()
);
#484=DIMENSIONAL_EXPONENTS(0.,0.,0.,0.,0.,0.,0.);
#485=PLANE_ANGLE_MEASURE_WITH_UNIT(PLANE_ANGLE_MEASURE(0.0174532925),#486);
#486=(
NAMED_UNIT(*)
PLANE_ANGLE_UNIT()
SI_UNIT($,.RADIAN.)
);
#487=(
LENGTH_UNIT()
NAMED_UNIT(*)
SI_UNIT(.MILLI.,.METRE.)
);
ENDSEC;
END-ISO-10303-21;
