ISO-10303-21;
HEADER;
/* Generated by software containing ST-Developer
 * from STEP Tools, Inc. (www.steptools.com) 
 */
/* OPTION: using custom schema-name function */

FILE_DESCRIPTION(
/* description */ (''),
/* implementation_level */ '2;1');

FILE_NAME(
/* name */ '1590407835130.stp',
/* time_stamp */ '2020-05-25T17:27:43+06:00',
/* author */ (''),
/* organization */ ('SMS'),
/* preprocessor_version */ 'ST-DEVELOPER v16.7',
/* originating_system */ 'SIEMENS PLM Software NX 12.0',
/* authorisation */ '');

FILE_SCHEMA (('AUTOMOTIVE_DESIGN { 1 0 10303 214 3 1 1 1 }'));
ENDSEC;

DATA;
#10=CONTEXT_DEPENDENT_SHAPE_REPRESENTATION(#16,#50);
#11=CONTEXT_DEPENDENT_SHAPE_REPRESENTATION(#17,#51);
#12=CONTEXT_DEPENDENT_SHAPE_REPRESENTATION(#18,#52);
#13=NEXT_ASSEMBLY_USAGE_OCCURRENCE('1001',' ',
'NXMOD-TM01_00-000-00-R216F_32A32S_054_PP_BAS',#56,#55,$);
#14=NEXT_ASSEMBLY_USAGE_OCCURRENCE('1002',' ',
'NXMOD-TM01_00-000-00-MI_R216F_3270_R1_BAS',#56,#54,$);
#15=NEXT_ASSEMBLY_USAGE_OCCURRENCE('1003',' ',
'NXMOD-TM02_00-000-00-R216F_32A32S_054_ACN_BAS',#56,#53,$);
#16=(
REPRESENTATION_RELATIONSHIP(' ',' ',#81,#82)
REPRESENTATION_RELATIONSHIP_WITH_TRANSFORMATION(#19)
SHAPE_REPRESENTATION_RELATIONSHIP()
);
#17=(
REPRESENTATION_RELATIONSHIP(' ',' ',#80,#82)
REPRESENTATION_RELATIONSHIP_WITH_TRANSFORMATION(#20)
SHAPE_REPRESENTATION_RELATIONSHIP()
);
#18=(
REPRESENTATION_RELATIONSHIP(' ',' ',#79,#82)
REPRESENTATION_RELATIONSHIP_WITH_TRANSFORMATION(#21)
SHAPE_REPRESENTATION_RELATIONSHIP()
);
#19=ITEM_DEFINED_TRANSFORMATION(' ',' ',#288,#317);
#20=ITEM_DEFINED_TRANSFORMATION(' ',' ',#288,#318);
#21=ITEM_DEFINED_TRANSFORMATION(' ',' ',#288,#319);
#22=ADVANCED_BREP_SHAPE_REPRESENTATION('202454479mod000_00-None',(#102),
#450);
#23=ADVANCED_BREP_SHAPE_REPRESENTATION('202454465mod000_00-None',(#101),
#449);
#24=CONSTRUCTIVE_GEOMETRY_REPRESENTATION_RELATIONSHIP(
'supplemental geometry','',#79,#28);
#25=CONSTRUCTIVE_GEOMETRY_REPRESENTATION_RELATIONSHIP(
'supplemental geometry','',#80,#29);
#26=CONSTRUCTIVE_GEOMETRY_REPRESENTATION_RELATIONSHIP(
'supplemental geometry','',#81,#30);
#27=CONSTRUCTIVE_GEOMETRY_REPRESENTATION_RELATIONSHIP(
'supplemental geometry','',#82,#31);
#28=CONSTRUCTIVE_GEOMETRY_REPRESENTATION('supplemental geometry',(#316),
#451);
#29=CONSTRUCTIVE_GEOMETRY_REPRESENTATION('supplemental geometry',(#310,
#311,#312),#450);
#30=CONSTRUCTIVE_GEOMETRY_REPRESENTATION('supplemental geometry',(#290,
#291,#292),#449);
#31=CONSTRUCTIVE_GEOMETRY_REPRESENTATION('supplemental geometry',(#289),
#448);
#32=SHAPE_REPRESENTATION_RELATIONSHIP('None',
'relationship between 202454467mod000_00-None and 202454467mod000_00-N
one',#79,#38);
#33=SHAPE_REPRESENTATION_RELATIONSHIP('None',
'relationship between 202454479mod000_00-None and 202454479mod000_00-N
one',#80,#22);
#34=SHAPE_REPRESENTATION_RELATIONSHIP('None',
'relationship between 202454479mod000_00-None and 202454479mod000_00-N
one',#80,#39);
#35=SHAPE_REPRESENTATION_RELATIONSHIP('None',
'relationship between 202454465mod000_00-None and 202454465mod000_00-N
one',#81,#23);
#36=SHAPE_REPRESENTATION_RELATIONSHIP('None',
'relationship between 202454465mod000_00-None and 202454465mod000_00-N
one',#81,#40);
#37=SHAPE_REPRESENTATION_RELATIONSHIP('None',
'relationship between 202454466mod000_00-None and 202454466mod000_00-N
one',#82,#41);
#38=GEOMETRICALLY_BOUNDED_WIREFRAME_SHAPE_REPRESENTATION(
'202454467mod000_00-None',(#83),#451);
#39=GEOMETRICALLY_BOUNDED_WIREFRAME_SHAPE_REPRESENTATION(
'202454479mod000_00-None',(#84),#450);
#40=GEOMETRICALLY_BOUNDED_WIREFRAME_SHAPE_REPRESENTATION(
'202454465mod000_00-None',(#85),#449);
#41=GEOMETRICALLY_BOUNDED_WIREFRAME_SHAPE_REPRESENTATION(
'202454466mod000_00-None',(#86),#448);
#42=SHAPE_DEFINITION_REPRESENTATION(#46,#79);
#43=SHAPE_DEFINITION_REPRESENTATION(#47,#80);
#44=SHAPE_DEFINITION_REPRESENTATION(#48,#81);
#45=SHAPE_DEFINITION_REPRESENTATION(#49,#82);
#46=PRODUCT_DEFINITION_SHAPE('','',#53);
#47=PRODUCT_DEFINITION_SHAPE('','',#54);
#48=PRODUCT_DEFINITION_SHAPE('','',#55);
#49=PRODUCT_DEFINITION_SHAPE('','',#56);
#50=PRODUCT_DEFINITION_SHAPE(' ','NAUO PRDDFN',#13);
#51=PRODUCT_DEFINITION_SHAPE(' ','NAUO PRDDFN',#14);
#52=PRODUCT_DEFINITION_SHAPE(' ','NAUO PRDDFN',#15);
#53=PRODUCT_DEFINITION(' ','',#61,#57);
#54=PRODUCT_DEFINITION(' ','',#62,#58);
#55=PRODUCT_DEFINITION(' ','',#63,#59);
#56=PRODUCT_DEFINITION(' ','',#64,#60);
#57=PRODUCT_DEFINITION_CONTEXT('part definition',#78,'design');
#58=PRODUCT_DEFINITION_CONTEXT('part definition',#78,'design');
#59=PRODUCT_DEFINITION_CONTEXT('part definition',#78,'design');
#60=PRODUCT_DEFINITION_CONTEXT('part definition',#78,'design');
#61=PRODUCT_DEFINITION_FORMATION_WITH_SPECIFIED_SOURCE(' ',' ',#69,
 .NOT_KNOWN.);
#62=PRODUCT_DEFINITION_FORMATION_WITH_SPECIFIED_SOURCE(' ',' ',#70,
 .NOT_KNOWN.);
#63=PRODUCT_DEFINITION_FORMATION_WITH_SPECIFIED_SOURCE(' ',' ',#71,
 .NOT_KNOWN.);
#64=PRODUCT_DEFINITION_FORMATION_WITH_SPECIFIED_SOURCE(' ',' ',#72,
 .NOT_KNOWN.);
#65=PRODUCT_RELATED_PRODUCT_CATEGORY('part','',(#69));
#66=PRODUCT_RELATED_PRODUCT_CATEGORY('part','',(#70));
#67=PRODUCT_RELATED_PRODUCT_CATEGORY('part','',(#71));
#68=PRODUCT_RELATED_PRODUCT_CATEGORY('part','',(#72));
#69=PRODUCT('ASSEMBLY_CONSTRUCTION','202454467mod000_00',' ',(#73));
#70=PRODUCT('202454479mod000_00','202454479mod000_00','MASTER_INSERT',(#74));
#71=PRODUCT('202454465mod000_00','202454465mod000_00','NOCUT',(#75));
#72=PRODUCT('202454466mod000_00','202454466mod000_00',' ',(#76));
#73=PRODUCT_CONTEXT(' ',#78,'mechanical');
#74=PRODUCT_CONTEXT(' ',#78,'mechanical');
#75=PRODUCT_CONTEXT(' ',#78,'mechanical');
#76=PRODUCT_CONTEXT(' ',#78,'mechanical');
#77=APPLICATION_PROTOCOL_DEFINITION('international standard',
'automotive_design',2010,#78);
#78=APPLICATION_CONTEXT(
'core data for automotive mechanical design processes');
#79=SHAPE_REPRESENTATION('202454467mod000_00-None',(#288),#451);
#80=SHAPE_REPRESENTATION('202454479mod000_00-None',(#288),#450);
#81=SHAPE_REPRESENTATION('202454465mod000_00-None',(#288),#449);
#82=SHAPE_REPRESENTATION('202454466mod000_00-None',(#288,#317,#318,#319),
#448);
#83=GEOMETRIC_CURVE_SET('None',(#438,#439));
#84=GEOMETRIC_CURVE_SET('None',(#418,#419,#420,#89));
#85=GEOMETRIC_CURVE_SET('None',(#387,#388,#389));
#86=GEOMETRIC_CURVE_SET('None',(#385));
#87=DRAUGHTING_PRE_DEFINED_COLOUR('blue');
#88=DRAUGHTING_PRE_DEFINED_COLOUR('white');
#89=TRIMMED_CURVE('CUTTING EDGE LINE',#90,(PARAMETER_VALUE(0.)),(
PARAMETER_VALUE(1.)),.T.,.PARAMETER.);
#90=(
BOUNDED_CURVE()
B_SPLINE_CURVE(3,(#421,#422,#423,#424,#425,#426,#427,#428,#429,#430),
 .UNSPECIFIED.,.F.,.F.)
B_SPLINE_CURVE_WITH_KNOTS((4,3,3,4),(0.,0.200290386544023,0.667019798923855,
1.),.UNSPECIFIED.)
CURVE()
GEOMETRIC_REPRESENTATION_ITEM()
RATIONAL_B_SPLINE_CURVE((1.,1.,1.,1.,0.676963372378622,0.676963372378622,
1.,1.,1.,1.))
REPRESENTATION_ITEM('CUTTING EDGE LINE')
);
#91=SURFACE_STYLE_USAGE(.BOTH.,#93);
#92=SURFACE_STYLE_USAGE(.BOTH.,#94);
#93=SURFACE_SIDE_STYLE('',(#95));
#94=SURFACE_SIDE_STYLE('',(#96));
#95=SURFACE_STYLE_FILL_AREA(#97);
#96=SURFACE_STYLE_FILL_AREA(#98);
#97=FILL_AREA_STYLE('',(#99));
#98=FILL_AREA_STYLE('',(#100));
#99=FILL_AREA_STYLE_COLOUR('',#286);
#100=FILL_AREA_STYLE_COLOUR('',#287);
#101=MANIFOLD_SOLID_BREP('NOCUT',#103);
#102=MANIFOLD_SOLID_BREP('CUT',#104);
#103=CLOSED_SHELL('',(#117,#118,#119,#120,#121,#122,#123,#124,#125));
#104=CLOSED_SHELL('',(#126,#127));
#105=SPHERICAL_SURFACE('',#309,13.0625);
#106=SPHERICAL_SURFACE('',#314,15.996);
#107=TOROIDAL_SURFACE('',#305,16.0625,3.);
#108=CONICAL_SURFACE('',#304,13.9975,45.);
#109=PLANE('',#297);
#110=PLANE('',#306);
#111=PLANE('',#308);
#112=PLANE('',#315);
#113=FACE_OUTER_BOUND('',#147,.T.);
#114=FACE_OUTER_BOUND('',#158,.T.);
#115=FACE_OUTER_BOUND('',#161,.T.);
#116=FACE_OUTER_BOUND('',#162,.T.);
#117=ADVANCED_FACE('',(#131,#132),#128,.T.);
#118=ADVANCED_FACE('',(#113),#109,.T.);
#119=ADVANCED_FACE('',(#133,#134),#129,.T.);
#120=ADVANCED_FACE('',(#135,#136),#130,.T.);
#121=ADVANCED_FACE('',(#137,#138),#108,.T.);
#122=ADVANCED_FACE('',(#139,#140),#107,.F.);
#123=ADVANCED_FACE('',(#141,#142),#110,.F.);
#124=ADVANCED_FACE('',(#114),#111,.F.);
#125=ADVANCED_FACE('',(#143,#144),#105,.T.);
#126=ADVANCED_FACE('',(#115),#106,.T.);
#127=ADVANCED_FACE('',(#116),#112,.T.);
#128=CYLINDRICAL_SURFACE('',#295,12.9975);
#129=CYLINDRICAL_SURFACE('',#300,13.0625);
#130=CYLINDRICAL_SURFACE('',#303,15.996);
#131=FACE_BOUND('',#145,.T.);
#132=FACE_BOUND('',#146,.T.);
#133=FACE_BOUND('',#148,.T.);
#134=FACE_BOUND('',#149,.T.);
#135=FACE_BOUND('',#150,.T.);
#136=FACE_BOUND('',#151,.T.);
#137=FACE_BOUND('',#152,.T.);
#138=FACE_BOUND('',#153,.T.);
#139=FACE_BOUND('',#154,.T.);
#140=FACE_BOUND('',#155,.T.);
#141=FACE_BOUND('',#156,.T.);
#142=FACE_BOUND('',#157,.T.);
#143=FACE_BOUND('',#159,.T.);
#144=FACE_BOUND('',#160,.T.);
#145=EDGE_LOOP('',(#163));
#146=EDGE_LOOP('',(#164));
#147=EDGE_LOOP('',(#165));
#148=EDGE_LOOP('',(#166));
#149=EDGE_LOOP('',(#167));
#150=EDGE_LOOP('',(#168));
#151=EDGE_LOOP('',(#169));
#152=EDGE_LOOP('',(#170));
#153=EDGE_LOOP('',(#171));
#154=EDGE_LOOP('',(#172));
#155=EDGE_LOOP('',(#173));
#156=EDGE_LOOP('',(#174));
#157=EDGE_LOOP('',(#175));
#158=EDGE_LOOP('',(#176));
#159=EDGE_LOOP('',(#177));
#160=EDGE_LOOP('',(#178));
#161=EDGE_LOOP('',(#179));
#162=EDGE_LOOP('',(#180));
#163=ORIENTED_EDGE('',*,*,#190,.F.);
#164=ORIENTED_EDGE('',*,*,#191,.F.);
#165=ORIENTED_EDGE('',*,*,#192,.T.);
#166=ORIENTED_EDGE('',*,*,#193,.T.);
#167=ORIENTED_EDGE('',*,*,#194,.T.);
#168=ORIENTED_EDGE('',*,*,#195,.F.);
#169=ORIENTED_EDGE('',*,*,#196,.T.);
#170=ORIENTED_EDGE('',*,*,#195,.T.);
#171=ORIENTED_EDGE('',*,*,#192,.F.);
#172=ORIENTED_EDGE('',*,*,#194,.F.);
#173=ORIENTED_EDGE('',*,*,#196,.F.);
#174=ORIENTED_EDGE('',*,*,#190,.T.);
#175=ORIENTED_EDGE('',*,*,#193,.F.);
#176=ORIENTED_EDGE('',*,*,#197,.F.);
#177=ORIENTED_EDGE('',*,*,#191,.T.);
#178=ORIENTED_EDGE('',*,*,#197,.T.);
#179=ORIENTED_EDGE('',*,*,#198,.T.);
#180=ORIENTED_EDGE('',*,*,#198,.F.);
#181=VERTEX_POINT('',#394);
#182=VERTEX_POINT('',#396);
#183=VERTEX_POINT('',#399);
#184=VERTEX_POINT('',#402);
#185=VERTEX_POINT('',#404);
#186=VERTEX_POINT('',#407);
#187=VERTEX_POINT('',#409);
#188=VERTEX_POINT('',#415);
#189=VERTEX_POINT('',#435);
#190=EDGE_CURVE('',#181,#181,#199,.T.);
#191=EDGE_CURVE('',#182,#182,#200,.T.);
#192=EDGE_CURVE('',#183,#183,#201,.T.);
#193=EDGE_CURVE('',#184,#184,#202,.T.);
#194=EDGE_CURVE('',#185,#185,#203,.T.);
#195=EDGE_CURVE('',#186,#186,#204,.T.);
#196=EDGE_CURVE('',#187,#187,#205,.T.);
#197=EDGE_CURVE('',#188,#188,#206,.T.);
#198=EDGE_CURVE('',#189,#189,#207,.T.);
#199=CIRCLE('',#293,12.9975);
#200=CIRCLE('',#294,12.9975);
#201=CIRCLE('',#296,13.9975);
#202=CIRCLE('',#298,13.0625);
#203=CIRCLE('',#299,13.0625);
#204=CIRCLE('',#301,15.996);
#205=CIRCLE('',#302,15.996);
#206=CIRCLE('',#307,7.04477865159723);
#207=CIRCLE('',#313,14.1307555331447);
#208=CURVE_STYLE('',#217,POSITIVE_LENGTH_MEASURE(0.18),#285);
#209=CURVE_STYLE('',#218,POSITIVE_LENGTH_MEASURE(0.18),#285);
#210=CURVE_STYLE('',#219,POSITIVE_LENGTH_MEASURE(0.18),#285);
#211=CURVE_STYLE('',#220,POSITIVE_LENGTH_MEASURE(0.18),#285);
#212=CURVE_STYLE('',#221,POSITIVE_LENGTH_MEASURE(0.18),#87);
#213=CURVE_STYLE('',#222,POSITIVE_LENGTH_MEASURE(0.18),#285);
#214=CURVE_STYLE('',#223,POSITIVE_LENGTH_MEASURE(0.18),#285);
#215=CURVE_STYLE('',#224,POSITIVE_LENGTH_MEASURE(0.18),#285);
#216=CURVE_STYLE('',#225,POSITIVE_LENGTH_MEASURE(0.18),#285);
#217=DRAUGHTING_PRE_DEFINED_CURVE_FONT('continuous');
#218=DRAUGHTING_PRE_DEFINED_CURVE_FONT('continuous');
#219=DRAUGHTING_PRE_DEFINED_CURVE_FONT('continuous');
#220=DRAUGHTING_PRE_DEFINED_CURVE_FONT('continuous');
#221=DRAUGHTING_PRE_DEFINED_CURVE_FONT('continuous');
#222=DRAUGHTING_PRE_DEFINED_CURVE_FONT('continuous');
#223=DRAUGHTING_PRE_DEFINED_CURVE_FONT('continuous');
#224=DRAUGHTING_PRE_DEFINED_CURVE_FONT('continuous');
#225=DRAUGHTING_PRE_DEFINED_CURVE_FONT('continuous');
#226=PRESENTATION_LAYER_ASSIGNMENT('1','Layer 1',(#385,#289,#387,#388,#389,
#290,#291,#292,#101,#418,#419,#420,#89,#310,#311,#312,#102,#438,#439,#316));
#227=STYLED_ITEM('',(#247),#385);
#228=STYLED_ITEM('',(#248),#289);
#229=STYLED_ITEM('',(#249),#387);
#230=STYLED_ITEM('',(#250),#388);
#231=STYLED_ITEM('',(#251),#389);
#232=STYLED_ITEM('',(#252),#290);
#233=STYLED_ITEM('',(#253),#291);
#234=STYLED_ITEM('',(#254),#292);
#235=STYLED_ITEM('',(#255),#101);
#236=STYLED_ITEM('',(#256),#418);
#237=STYLED_ITEM('',(#257),#419);
#238=STYLED_ITEM('',(#258),#420);
#239=STYLED_ITEM('',(#259),#89);
#240=STYLED_ITEM('',(#260),#310);
#241=STYLED_ITEM('',(#261),#311);
#242=STYLED_ITEM('',(#262),#312);
#243=STYLED_ITEM('',(#263),#102);
#244=STYLED_ITEM('',(#264),#438);
#245=STYLED_ITEM('',(#265),#439);
#246=STYLED_ITEM('',(#266),#316);
#247=PRESENTATION_STYLE_ASSIGNMENT((#267));
#248=PRESENTATION_STYLE_ASSIGNMENT((#208));
#249=PRESENTATION_STYLE_ASSIGNMENT((#268));
#250=PRESENTATION_STYLE_ASSIGNMENT((#269));
#251=PRESENTATION_STYLE_ASSIGNMENT((#270));
#252=PRESENTATION_STYLE_ASSIGNMENT((#209));
#253=PRESENTATION_STYLE_ASSIGNMENT((#210));
#254=PRESENTATION_STYLE_ASSIGNMENT((#211));
#255=PRESENTATION_STYLE_ASSIGNMENT((#91));
#256=PRESENTATION_STYLE_ASSIGNMENT((#271));
#257=PRESENTATION_STYLE_ASSIGNMENT((#272));
#258=PRESENTATION_STYLE_ASSIGNMENT((#273));
#259=PRESENTATION_STYLE_ASSIGNMENT((#212));
#260=PRESENTATION_STYLE_ASSIGNMENT((#213));
#261=PRESENTATION_STYLE_ASSIGNMENT((#214));
#262=PRESENTATION_STYLE_ASSIGNMENT((#215));
#263=PRESENTATION_STYLE_ASSIGNMENT((#92));
#264=PRESENTATION_STYLE_ASSIGNMENT((#274));
#265=PRESENTATION_STYLE_ASSIGNMENT((#275));
#266=PRESENTATION_STYLE_ASSIGNMENT((#216));
#267=POINT_STYLE('',#276,POSITIVE_LENGTH_MEASURE(3.),#285);
#268=POINT_STYLE('',#277,POSITIVE_LENGTH_MEASURE(3.),#285);
#269=POINT_STYLE('',#278,POSITIVE_LENGTH_MEASURE(3.),#285);
#270=POINT_STYLE('',#279,POSITIVE_LENGTH_MEASURE(3.),#285);
#271=POINT_STYLE('',#280,POSITIVE_LENGTH_MEASURE(3.),#285);
#272=POINT_STYLE('',#281,POSITIVE_LENGTH_MEASURE(3.),#285);
#273=POINT_STYLE('',#282,POSITIVE_LENGTH_MEASURE(3.),#285);
#274=POINT_STYLE('',#283,POSITIVE_LENGTH_MEASURE(3.),#285);
#275=POINT_STYLE('',#284,POSITIVE_LENGTH_MEASURE(3.),#88);
#276=PRE_DEFINED_POINT_MARKER_SYMBOL('plus');
#277=PRE_DEFINED_POINT_MARKER_SYMBOL('plus');
#278=PRE_DEFINED_POINT_MARKER_SYMBOL('plus');
#279=PRE_DEFINED_POINT_MARKER_SYMBOL('plus');
#280=PRE_DEFINED_POINT_MARKER_SYMBOL('plus');
#281=PRE_DEFINED_POINT_MARKER_SYMBOL('plus');
#282=PRE_DEFINED_POINT_MARKER_SYMBOL('plus');
#283=PRE_DEFINED_POINT_MARKER_SYMBOL('plus');
#284=PRE_DEFINED_POINT_MARKER_SYMBOL('plus');
#285=COLOUR_RGB('Medium Maroon',0.6,0.4,0.4);
#286=COLOUR_RGB('Medium Gray',0.490196078431373,0.490196078431373,0.490196078431373);
#287=COLOUR_RGB('Light Gray',0.8,0.8,0.8);
#288=AXIS2_PLACEMENT_3D('',#384,#320,#321);
#289=AXIS2_PLACEMENT_3D('',#386,#322,#323);
#290=AXIS2_PLACEMENT_3D('PCS',#390,#324,#325);
#291=AXIS2_PLACEMENT_3D('MCS',#391,#326,#327);
#292=AXIS2_PLACEMENT_3D('CSW',#392,#328,#329);
#293=AXIS2_PLACEMENT_3D('',#393,#330,#331);
#294=AXIS2_PLACEMENT_3D('',#395,#332,#333);
#295=AXIS2_PLACEMENT_3D('',#397,#334,#335);
#296=AXIS2_PLACEMENT_3D('',#398,#336,#337);
#297=AXIS2_PLACEMENT_3D('',#400,#338,#339);
#298=AXIS2_PLACEMENT_3D('',#401,#340,#341);
#299=AXIS2_PLACEMENT_3D('',#403,#342,#343);
#300=AXIS2_PLACEMENT_3D('',#405,#344,#345);
#301=AXIS2_PLACEMENT_3D('',#406,#346,#347);
#302=AXIS2_PLACEMENT_3D('',#408,#348,#349);
#303=AXIS2_PLACEMENT_3D('',#410,#350,#351);
#304=AXIS2_PLACEMENT_3D('',#411,#352,#353);
#305=AXIS2_PLACEMENT_3D('',#412,#354,#355);
#306=AXIS2_PLACEMENT_3D('',#413,#356,#357);
#307=AXIS2_PLACEMENT_3D('',#414,#358,#359);
#308=AXIS2_PLACEMENT_3D('',#416,#360,#361);
#309=AXIS2_PLACEMENT_3D('',#417,#362,#363);
#310=AXIS2_PLACEMENT_3D('CIP',#431,#364,#365);
#311=AXIS2_PLACEMENT_3D('MCS',#432,#366,#367);
#312=AXIS2_PLACEMENT_3D('PCS',#433,#368,#369);
#313=AXIS2_PLACEMENT_3D('',#434,#370,#371);
#314=AXIS2_PLACEMENT_3D('',#436,#372,#373);
#315=AXIS2_PLACEMENT_3D('',#437,#374,#375);
#316=AXIS2_PLACEMENT_3D('',#440,#376,#377);
#317=AXIS2_PLACEMENT_3D('',#441,#378,#379);
#318=AXIS2_PLACEMENT_3D('',#442,#380,#381);
#319=AXIS2_PLACEMENT_3D('',#443,#382,#383);
#320=DIRECTION('',(0.,0.,1.));
#321=DIRECTION('',(1.,0.,0.));
#322=DIRECTION('',(0.,0.,1.));
#323=DIRECTION('',(1.,0.,0.));
#324=DIRECTION('',(0.,0.,1.));
#325=DIRECTION('',(1.,0.,0.));
#326=DIRECTION('',(0.,0.,1.));
#327=DIRECTION('',(1.,0.,0.));
#328=DIRECTION('',(0.,0.,1.));
#329=DIRECTION('',(1.,0.,0.));
#330=DIRECTION('',(0.,0.,1.));
#331=DIRECTION('',(0.,1.,0.));
#332=DIRECTION('',(0.,0.,-1.));
#333=DIRECTION('',(0.,1.,0.));
#334=DIRECTION('',(0.,0.,-1.));
#335=DIRECTION('',(0.,-1.,0.));
#336=DIRECTION('',(0.,0.,1.));
#337=DIRECTION('',(0.,1.,0.));
#338=DIRECTION('',(0.,0.,1.));
#339=DIRECTION('',(0.,1.,0.));
#340=DIRECTION('',(0.,0.,1.));
#341=DIRECTION('',(0.,1.,0.));
#342=DIRECTION('',(0.,0.,-1.));
#343=DIRECTION('',(0.,1.,0.));
#344=DIRECTION('',(0.,0.,1.));
#345=DIRECTION('',(0.,1.,0.));
#346=DIRECTION('',(0.,0.,1.));
#347=DIRECTION('',(0.,-1.,0.));
#348=DIRECTION('',(0.,0.,1.));
#349=DIRECTION('',(0.,-1.,0.));
#350=DIRECTION('',(0.,0.,1.));
#351=DIRECTION('',(0.,1.,0.));
#352=DIRECTION('',(0.,0.,-1.));
#353=DIRECTION('',(0.,-1.,0.));
#354=DIRECTION('',(0.,0.,1.));
#355=DIRECTION('',(0.,1.,0.));
#356=DIRECTION('',(0.,0.,1.));
#357=DIRECTION('',(0.,1.,0.));
#358=DIRECTION('',(0.,0.,1.));
#359=DIRECTION('',(0.,1.,0.));
#360=DIRECTION('',(0.,0.,1.));
#361=DIRECTION('',(0.,1.,0.));
#362=DIRECTION('',(0.,-1.,0.));
#363=DIRECTION('',(0.,0.,1.));
#364=DIRECTION('',(0.,0.,1.));
#365=DIRECTION('',(1.,0.,0.));
#366=DIRECTION('',(0.,0.,1.));
#367=DIRECTION('',(1.,0.,0.));
#368=DIRECTION('',(0.,0.,1.));
#369=DIRECTION('',(1.,0.,0.));
#370=DIRECTION('',(0.,0.,-1.));
#371=DIRECTION('',(-1.,0.,0.));
#372=DIRECTION('',(6.12323399573677E-17,0.,-1.));
#373=DIRECTION('',(1.,-1.71997389347636E-17,0.));
#374=DIRECTION('',(0.,0.,1.));
#375=DIRECTION('',(1.,0.,0.));
#376=DIRECTION('',(0.,0.,1.));
#377=DIRECTION('',(1.,0.,0.));
#378=DIRECTION('',(0.,0.,1.));
#379=DIRECTION('',(1.,0.,0.));
#380=DIRECTION('',(0.,0.,1.));
#381=DIRECTION('',(1.,0.,0.));
#382=DIRECTION('',(0.,0.,1.));
#383=DIRECTION('',(1.,0.,0.));
#384=CARTESIAN_POINT('',(0.,0.,0.));
#385=CARTESIAN_POINT('',(0.,0.,0.));
#386=CARTESIAN_POINT('',(0.,0.,0.));
#387=CARTESIAN_POINT('MCS',(0.,0.,-60.));
#388=CARTESIAN_POINT('PCS',(-5.83230760263899E-28,-9.95737059895145E-14,
0.));
#389=CARTESIAN_POINT('CSW',(-2.56562891591599E-15,-9.81437153768638E-14,
-110.5038));
#390=CARTESIAN_POINT('',(-5.83230760263899E-28,-9.95737059895145E-14,0.));
#391=CARTESIAN_POINT('',(0.,0.,-60.));
#392=CARTESIAN_POINT('',(-2.56562891591599E-15,-9.81437153768638E-14,-110.5038));
#393=CARTESIAN_POINT('',(-5.83230760263899E-28,-9.95737059895145E-14,-84.));
#394=CARTESIAN_POINT('',(-5.83230760263899E-28,12.9974999999999,-84.));
#395=CARTESIAN_POINT('',(-5.83230760263899E-28,-9.95737059895145E-14,-119.301499135612));
#396=CARTESIAN_POINT('',(-5.83230760263899E-28,12.9974999999999,-119.301499135612));
#397=CARTESIAN_POINT('',(-5.83230760263899E-28,-9.95737059895145E-14,-106.447678340341));
#398=CARTESIAN_POINT('',(-5.83230760263899E-28,-9.95737059895145E-14,0.));
#399=CARTESIAN_POINT('',(-5.83230760263899E-28,13.9974999999999,0.));
#400=CARTESIAN_POINT('',(-5.83230760263899E-28,-9.95737059895145E-14,0.));
#401=CARTESIAN_POINT('',(-5.83230760263899E-28,-9.95737059895145E-14,-84.));
#402=CARTESIAN_POINT('',(-5.83230760263899E-28,13.0624999999999,-84.));
#403=CARTESIAN_POINT('',(-5.83230760263899E-28,-9.95737059895145E-14,-82.9999624997656));
#404=CARTESIAN_POINT('',(-5.83230760263899E-28,13.0624999999999,-82.9999624997656));
#405=CARTESIAN_POINT('',(-5.83230760263899E-28,-9.95737059895145E-14,31.2268152444466));
#406=CARTESIAN_POINT('',(-5.83230760263899E-28,-9.95737059895145E-14,-1.9985));
#407=CARTESIAN_POINT('',(-5.83230760263899E-28,-15.9960000000001,-1.9985));
#408=CARTESIAN_POINT('',(-5.83230760263899E-28,-9.95737059895145E-14,-80.0006996319929));
#409=CARTESIAN_POINT('',(-5.83230760263899E-28,-15.9960000000001,-80.0006996319929));
#410=CARTESIAN_POINT('',(-5.83230760263899E-28,-9.95737059895145E-14,31.2268152444466));
#411=CARTESIAN_POINT('',(-5.83230760263899E-28,-9.95737059895145E-14,0.));
#412=CARTESIAN_POINT('',(-5.83230760263899E-28,-9.95737059895145E-14,-82.9999624997656));
#413=CARTESIAN_POINT('',(-12.9975,-9.95737059895145E-14,-84.));
#414=CARTESIAN_POINT('',(-5.83230760263899E-28,-9.95737059895145E-14,-129.));
#415=CARTESIAN_POINT('',(-5.83230760263899E-28,7.04477865159713,-129.));
#416=CARTESIAN_POINT('',(-5.83230760263899E-28,-9.95737059895145E-14,-129.));
#417=CARTESIAN_POINT('',(-5.83230760263899E-28,-9.95737059895145E-14,-118.));
#418=CARTESIAN_POINT('',(3.85185988877447E-31,0.,-23.4962));
#419=CARTESIAN_POINT('',(0.,0.,0.));
#420=CARTESIAN_POINT('MCS',(0.,0.,0.));
#421=CARTESIAN_POINT('',(0.,-1.33226762955019E-15,4.99999999910017E-5));
#422=CARTESIAN_POINT('',(-4.71025184438157,-1.33226762955019E-15,4.99999999910017E-5));
#423=CARTESIAN_POINT('',(-9.42050368876315,-1.33226762955019E-15,4.99999999910017E-5));
#424=CARTESIAN_POINT('',(-14.1307555331447,-1.33226762955019E-15,4.99999999945544E-5));
#425=CARTESIAN_POINT('',(-20.4567563357269,-6.56001828119123E-16,-11.9247351717548));
#426=CARTESIAN_POINT('',(-13.4988439337142,-6.56001828119123E-16,-23.4922));
#427=CARTESIAN_POINT('',(4.65496972586647E-15,-8.88178419700125E-16,-23.4922));
#428=CARTESIAN_POINT('',(0.,0.,-15.6614666666667));
#429=CARTESIAN_POINT('',(0.,0.,-7.83073333333333));
#430=CARTESIAN_POINT('',(0.,0.,0.));
#431=CARTESIAN_POINT('',(3.85185988877447E-31,0.,-23.4962));
#432=CARTESIAN_POINT('',(0.,0.,0.));
#433=CARTESIAN_POINT('',(0.,0.,0.));
#434=CARTESIAN_POINT('',(0.,0.,4.99999999945544E-5));
#435=CARTESIAN_POINT('',(-14.1307555331447,0.,4.99999999945544E-5));
#436=CARTESIAN_POINT('',(-1.78377634698727E-15,-1.43398287097835E-15,-7.4962));
#437=CARTESIAN_POINT('',(-14.1307555331447,-1.33226762955019E-15,4.99999999927781E-5));
#438=CARTESIAN_POINT('',(0.,0.,0.));
#439=CARTESIAN_POINT('CRP',(-15.995,0.,-134.));
#440=CARTESIAN_POINT('',(0.,0.,0.));
#441=CARTESIAN_POINT('',(0.,0.,0.));
#442=CARTESIAN_POINT('',(-2.56562891591541E-15,0.,-110.5038));
#443=CARTESIAN_POINT('',(0.,0.,0.));
#444=MECHANICAL_DESIGN_GEOMETRIC_PRESENTATION_REPRESENTATION('',(#227,#228),
#448);
#445=MECHANICAL_DESIGN_GEOMETRIC_PRESENTATION_REPRESENTATION('',(#229,#230,
#231,#232,#233,#234,#235),#449);
#446=MECHANICAL_DESIGN_GEOMETRIC_PRESENTATION_REPRESENTATION('',(#236,#237,
#238,#239,#240,#241,#242,#243),#450);
#447=MECHANICAL_DESIGN_GEOMETRIC_PRESENTATION_REPRESENTATION('',(#244,#245,
#246),#451);
#448=(
GEOMETRIC_REPRESENTATION_CONTEXT(3)
GLOBAL_UNCERTAINTY_ASSIGNED_CONTEXT((#452))
GLOBAL_UNIT_ASSIGNED_CONTEXT((#461,#457,#456))
REPRESENTATION_CONTEXT('1590407835130','TOP_LEVEL_ASSEMBLY_PART')
);
#449=(
GEOMETRIC_REPRESENTATION_CONTEXT(3)
GLOBAL_UNCERTAINTY_ASSIGNED_CONTEXT((#453))
GLOBAL_UNIT_ASSIGNED_CONTEXT((#461,#457,#456))
REPRESENTATION_CONTEXT('202454465mod000_00','COMPONENT_PART')
);
#450=(
GEOMETRIC_REPRESENTATION_CONTEXT(3)
GLOBAL_UNCERTAINTY_ASSIGNED_CONTEXT((#454))
GLOBAL_UNIT_ASSIGNED_CONTEXT((#461,#457,#456))
REPRESENTATION_CONTEXT('202454479mod000_00','COMPONENT_PART')
);
#451=(
GEOMETRIC_REPRESENTATION_CONTEXT(3)
GLOBAL_UNCERTAINTY_ASSIGNED_CONTEXT((#455))
GLOBAL_UNIT_ASSIGNED_CONTEXT((#461,#457,#456))
REPRESENTATION_CONTEXT('202454467mod000_00','COMPONENT_PART')
);
#452=UNCERTAINTY_MEASURE_WITH_UNIT(LENGTH_MEASURE(2.E-5),#461,
'DISTANCE_ACCURACY_VALUE','Maximum Tolerance applied to model');
#453=UNCERTAINTY_MEASURE_WITH_UNIT(LENGTH_MEASURE(2.E-5),#461,
'DISTANCE_ACCURACY_VALUE','Maximum Tolerance applied to model');
#454=UNCERTAINTY_MEASURE_WITH_UNIT(LENGTH_MEASURE(2.E-5),#461,
'DISTANCE_ACCURACY_VALUE','Maximum Tolerance applied to model');
#455=UNCERTAINTY_MEASURE_WITH_UNIT(LENGTH_MEASURE(2.E-5),#461,
'DISTANCE_ACCURACY_VALUE','Maximum Tolerance applied to model');
#456=(
NAMED_UNIT(*)
SI_UNIT($,.STERADIAN.)
SOLID_ANGLE_UNIT()
);
#457=(
CONVERSION_BASED_UNIT('DEGREE',#459)
NAMED_UNIT(#458)
PLANE_ANGLE_UNIT()
);
#458=DIMENSIONAL_EXPONENTS(0.,0.,0.,0.,0.,0.,0.);
#459=PLANE_ANGLE_MEASURE_WITH_UNIT(PLANE_ANGLE_MEASURE(0.0174532925),#460);
#460=(
NAMED_UNIT(*)
PLANE_ANGLE_UNIT()
SI_UNIT($,.RADIAN.)
);
#461=(
LENGTH_UNIT()
NAMED_UNIT(*)
SI_UNIT(.MILLI.,.METRE.)
);
ENDSEC;
END-ISO-10303-21;
