ISO-10303-21;
HEADER;
/* Generated by software containing ST-Developer
 * from STEP Tools, Inc. (www.steptools.com) 
 */
/* OPTION: using custom schema-name function */

FILE_DESCRIPTION(
/* description */ (''),
/* implementation_level */ '2;1');

FILE_NAME(
/* name */ '1590648621905.stp',
/* time_stamp */ '2020-05-28T12:20:42+06:00',
/* author */ (''),
/* organization */ ('SMS'),
/* preprocessor_version */ 'ST-DEVELOPER v16.7',
/* originating_system */ 'SIEMENS PLM Software NX 12.0',
/* authorisation */ '');

FILE_SCHEMA (('AUTOMOTIVE_DESIGN { 1 0 10303 214 3 1 1 1 }'));
ENDSEC;

DATA;
#10=CONTEXT_DEPENDENT_SHAPE_REPRESENTATION(#16,#50);
#11=CONTEXT_DEPENDENT_SHAPE_REPRESENTATION(#17,#51);
#12=CONTEXT_DEPENDENT_SHAPE_REPRESENTATION(#18,#52);
#13=NEXT_ASSEMBLY_USAGE_OCCURRENCE('1001',' ',
'NXMOD-TM01_00-000-00-R216F_12A12S_053_PP_BAS',#56,#55,$);
#14=NEXT_ASSEMBLY_USAGE_OCCURRENCE('1002',' ',
'NXMOD-TM01_00-000-00-MI_R216F_1230_R1_BAS',#56,#54,$);
#15=NEXT_ASSEMBLY_USAGE_OCCURRENCE('1003',' ',
'NXMOD-TM01_00-000-00-R216F_12A12S_053_ACN_BAS',#56,#53,$);
#16=(
REPRESENTATION_RELATIONSHIP(' ',' ',#81,#82)
REPRESENTATION_RELATIONSHIP_WITH_TRANSFORMATION(#19)
SHAPE_REPRESENTATION_RELATIONSHIP()
);
#17=(
REPRESENTATION_RELATIONSHIP(' ',' ',#80,#82)
REPRESENTATION_RELATIONSHIP_WITH_TRANSFORMATION(#20)
SHAPE_REPRESENTATION_RELATIONSHIP()
);
#18=(
REPRESENTATION_RELATIONSHIP(' ',' ',#79,#82)
REPRESENTATION_RELATIONSHIP_WITH_TRANSFORMATION(#21)
SHAPE_REPRESENTATION_RELATIONSHIP()
);
#19=ITEM_DEFINED_TRANSFORMATION(' ',' ',#266,#291);
#20=ITEM_DEFINED_TRANSFORMATION(' ',' ',#266,#292);
#21=ITEM_DEFINED_TRANSFORMATION(' ',' ',#266,#293);
#22=ADVANCED_BREP_SHAPE_REPRESENTATION('202449663mod000_00-None',(#102),
#416);
#23=ADVANCED_BREP_SHAPE_REPRESENTATION('202454463mod000_00-None',(#101),
#415);
#24=CONSTRUCTIVE_GEOMETRY_REPRESENTATION_RELATIONSHIP(
'supplemental geometry','',#79,#28);
#25=CONSTRUCTIVE_GEOMETRY_REPRESENTATION_RELATIONSHIP(
'supplemental geometry','',#80,#29);
#26=CONSTRUCTIVE_GEOMETRY_REPRESENTATION_RELATIONSHIP(
'supplemental geometry','',#81,#30);
#27=CONSTRUCTIVE_GEOMETRY_REPRESENTATION_RELATIONSHIP(
'supplemental geometry','',#82,#31);
#28=CONSTRUCTIVE_GEOMETRY_REPRESENTATION('supplemental geometry',(#290),
#417);
#29=CONSTRUCTIVE_GEOMETRY_REPRESENTATION('supplemental geometry',(#284,
#285,#286),#416);
#30=CONSTRUCTIVE_GEOMETRY_REPRESENTATION('supplemental geometry',(#268,
#269,#270),#415);
#31=CONSTRUCTIVE_GEOMETRY_REPRESENTATION('supplemental geometry',(#267),
#414);
#32=SHAPE_REPRESENTATION_RELATIONSHIP('None',
'relationship between 202454461mod000_00-None and 202454461mod000_00-N
one',#79,#38);
#33=SHAPE_REPRESENTATION_RELATIONSHIP('None',
'relationship between 202449663mod000_00-None and 202449663mod000_00-N
one',#80,#22);
#34=SHAPE_REPRESENTATION_RELATIONSHIP('None',
'relationship between 202449663mod000_00-None and 202449663mod000_00-N
one',#80,#39);
#35=SHAPE_REPRESENTATION_RELATIONSHIP('None',
'relationship between 202454463mod000_00-None and 202454463mod000_00-N
one',#81,#23);
#36=SHAPE_REPRESENTATION_RELATIONSHIP('None',
'relationship between 202454463mod000_00-None and 202454463mod000_00-N
one',#81,#40);
#37=SHAPE_REPRESENTATION_RELATIONSHIP('None',
'relationship between 202454462mod000_00-None and 202454462mod000_00-N
one',#82,#41);
#38=GEOMETRICALLY_BOUNDED_WIREFRAME_SHAPE_REPRESENTATION(
'202454461mod000_00-None',(#83),#417);
#39=GEOMETRICALLY_BOUNDED_WIREFRAME_SHAPE_REPRESENTATION(
'202449663mod000_00-None',(#84),#416);
#40=GEOMETRICALLY_BOUNDED_WIREFRAME_SHAPE_REPRESENTATION(
'202454463mod000_00-None',(#85),#415);
#41=GEOMETRICALLY_BOUNDED_WIREFRAME_SHAPE_REPRESENTATION(
'202454462mod000_00-None',(#86),#414);
#42=SHAPE_DEFINITION_REPRESENTATION(#46,#79);
#43=SHAPE_DEFINITION_REPRESENTATION(#47,#80);
#44=SHAPE_DEFINITION_REPRESENTATION(#48,#81);
#45=SHAPE_DEFINITION_REPRESENTATION(#49,#82);
#46=PRODUCT_DEFINITION_SHAPE('','',#53);
#47=PRODUCT_DEFINITION_SHAPE('','',#54);
#48=PRODUCT_DEFINITION_SHAPE('','',#55);
#49=PRODUCT_DEFINITION_SHAPE('','',#56);
#50=PRODUCT_DEFINITION_SHAPE(' ','NAUO PRDDFN',#13);
#51=PRODUCT_DEFINITION_SHAPE(' ','NAUO PRDDFN',#14);
#52=PRODUCT_DEFINITION_SHAPE(' ','NAUO PRDDFN',#15);
#53=PRODUCT_DEFINITION(' ','',#61,#57);
#54=PRODUCT_DEFINITION(' ','',#62,#58);
#55=PRODUCT_DEFINITION(' ','',#63,#59);
#56=PRODUCT_DEFINITION(' ','',#64,#60);
#57=PRODUCT_DEFINITION_CONTEXT('part definition',#78,'design');
#58=PRODUCT_DEFINITION_CONTEXT('part definition',#78,'design');
#59=PRODUCT_DEFINITION_CONTEXT('part definition',#78,'design');
#60=PRODUCT_DEFINITION_CONTEXT('part definition',#78,'design');
#61=PRODUCT_DEFINITION_FORMATION_WITH_SPECIFIED_SOURCE(' ',' ',#69,
 .NOT_KNOWN.);
#62=PRODUCT_DEFINITION_FORMATION_WITH_SPECIFIED_SOURCE(' ',' ',#70,
 .NOT_KNOWN.);
#63=PRODUCT_DEFINITION_FORMATION_WITH_SPECIFIED_SOURCE(' ',' ',#71,
 .NOT_KNOWN.);
#64=PRODUCT_DEFINITION_FORMATION_WITH_SPECIFIED_SOURCE(' ',' ',#72,
 .NOT_KNOWN.);
#65=PRODUCT_RELATED_PRODUCT_CATEGORY('part','',(#69));
#66=PRODUCT_RELATED_PRODUCT_CATEGORY('part','',(#70));
#67=PRODUCT_RELATED_PRODUCT_CATEGORY('part','',(#71));
#68=PRODUCT_RELATED_PRODUCT_CATEGORY('part','',(#72));
#69=PRODUCT('ASSEMBLY_CONSTRUCTION','202454461mod000_00',' ',(#73));
#70=PRODUCT('202449663mod000_00','202449663mod000_00','MASTER_INSERT',(#74));
#71=PRODUCT('202454463mod000_00','202454463mod000_00','NOCUT',(#75));
#72=PRODUCT('202454462mod000_00','202454462mod000_00',' ',(#76));
#73=PRODUCT_CONTEXT(' ',#78,'mechanical');
#74=PRODUCT_CONTEXT(' ',#78,'mechanical');
#75=PRODUCT_CONTEXT(' ',#78,'mechanical');
#76=PRODUCT_CONTEXT(' ',#78,'mechanical');
#77=APPLICATION_PROTOCOL_DEFINITION('international standard',
'automotive_design',2010,#78);
#78=APPLICATION_CONTEXT(
'core data for automotive mechanical design processes');
#79=SHAPE_REPRESENTATION('202454461mod000_00-None',(#266),#417);
#80=SHAPE_REPRESENTATION('202449663mod000_00-None',(#266),#416);
#81=SHAPE_REPRESENTATION('202454463mod000_00-None',(#266),#415);
#82=SHAPE_REPRESENTATION('202454462mod000_00-None',(#266,#291,#292,#293),
#414);
#83=GEOMETRIC_CURVE_SET('None',(#404,#405));
#84=GEOMETRIC_CURVE_SET('None',(#378,#379,#380,#89));
#85=GEOMETRIC_CURVE_SET('None',(#353,#354,#355));
#86=GEOMETRIC_CURVE_SET('None',(#351));
#87=DRAUGHTING_PRE_DEFINED_COLOUR('blue');
#88=DRAUGHTING_PRE_DEFINED_COLOUR('white');
#89=TRIMMED_CURVE('CUTTING EDGE LINE',#90,(PARAMETER_VALUE(0.)),(
PARAMETER_VALUE(1.)),.T.,.PARAMETER.);
#90=(
BOUNDED_CURVE()
B_SPLINE_CURVE(3,(#381,#382,#383,#384,#385,#386,#387,#388,#389,#390,#391,
#392,#393,#394,#395,#396),.UNSPECIFIED.,.T.,.F.)
B_SPLINE_CURVE_WITH_KNOTS((4,3,3,3,3,4),(0.,0.0308431629862163,0.413628150790855,
0.488128824726359,0.646365854826422,1.),.UNSPECIFIED.)
CURVE()
GEOMETRIC_REPRESENTATION_ITEM()
RATIONAL_B_SPLINE_CURVE((0.500660662927186,0.499779779024271,0.499779779024271,
0.500660662927186,0.37387697536949,0.37387697536949,0.500660662927186,0.495532083959873,
0.495532083959873,0.500660662927186,0.500660662927186,0.500660662927186,
0.500660662927186,0.500660662927186,0.500660662927186,0.500660662927186))
REPRESENTATION_ITEM('CUTTING EDGE LINE')
);
#91=SURFACE_STYLE_USAGE(.BOTH.,#93);
#92=SURFACE_STYLE_USAGE(.BOTH.,#94);
#93=SURFACE_SIDE_STYLE('',(#95));
#94=SURFACE_SIDE_STYLE('',(#96));
#95=SURFACE_STYLE_FILL_AREA(#97);
#96=SURFACE_STYLE_FILL_AREA(#98);
#97=FILL_AREA_STYLE('',(#99));
#98=FILL_AREA_STYLE('',(#100));
#99=FILL_AREA_STYLE_COLOUR('',#264);
#100=FILL_AREA_STYLE_COLOUR('',#265);
#101=MANIFOLD_SOLID_BREP('NOCUT',#103);
#102=MANIFOLD_SOLID_BREP('CUT',#104);
#103=CLOSED_SHELL('',(#121,#122,#123,#124,#125,#126,#127));
#104=CLOSED_SHELL('',(#128,#129));
#105=SPHERICAL_SURFACE('',#283,5.0625);
#106=SPHERICAL_SURFACE('',#288,5.99599999999997);
#107=TOROIDAL_SURFACE('',#280,7.5625,2.5);
#108=CONICAL_SURFACE('',#279,5.49750000000003,45.0000000000002);
#109=CYLINDRICAL_SURFACE('',#275,5.0625);
#110=CYLINDRICAL_SURFACE('',#278,6.0625);
#111=FACE_BOUND('',#138,.T.);
#112=FACE_BOUND('',#139,.T.);
#113=FACE_BOUND('',#140,.T.);
#114=FACE_BOUND('',#141,.T.);
#115=FACE_BOUND('',#142,.T.);
#116=FACE_BOUND('',#143,.T.);
#117=FACE_BOUND('',#144,.T.);
#118=FACE_BOUND('',#145,.T.);
#119=FACE_BOUND('',#147,.T.);
#120=FACE_BOUND('',#148,.T.);
#121=ADVANCED_FACE('',(#133),#130,.T.);
#122=ADVANCED_FACE('',(#111,#112),#109,.T.);
#123=ADVANCED_FACE('',(#113,#114),#110,.T.);
#124=ADVANCED_FACE('',(#115,#116),#108,.T.);
#125=ADVANCED_FACE('',(#117,#118),#107,.F.);
#126=ADVANCED_FACE('',(#134),#131,.F.);
#127=ADVANCED_FACE('',(#119,#120),#105,.T.);
#128=ADVANCED_FACE('',(#135),#106,.T.);
#129=ADVANCED_FACE('',(#136),#132,.T.);
#130=PLANE('',#272);
#131=PLANE('',#282);
#132=PLANE('',#289);
#133=FACE_OUTER_BOUND('',#137,.T.);
#134=FACE_OUTER_BOUND('',#146,.T.);
#135=FACE_OUTER_BOUND('',#149,.T.);
#136=FACE_OUTER_BOUND('',#150,.T.);
#137=EDGE_LOOP('',(#151));
#138=EDGE_LOOP('',(#152));
#139=EDGE_LOOP('',(#153));
#140=EDGE_LOOP('',(#154));
#141=EDGE_LOOP('',(#155));
#142=EDGE_LOOP('',(#156));
#143=EDGE_LOOP('',(#157));
#144=EDGE_LOOP('',(#158));
#145=EDGE_LOOP('',(#159));
#146=EDGE_LOOP('',(#160));
#147=EDGE_LOOP('',(#161));
#148=EDGE_LOOP('',(#162));
#149=EDGE_LOOP('',(#163));
#150=EDGE_LOOP('',(#164));
#151=ORIENTED_EDGE('',*,*,#172,.T.);
#152=ORIENTED_EDGE('',*,*,#173,.T.);
#153=ORIENTED_EDGE('',*,*,#174,.T.);
#154=ORIENTED_EDGE('',*,*,#175,.F.);
#155=ORIENTED_EDGE('',*,*,#176,.T.);
#156=ORIENTED_EDGE('',*,*,#175,.T.);
#157=ORIENTED_EDGE('',*,*,#172,.F.);
#158=ORIENTED_EDGE('',*,*,#173,.F.);
#159=ORIENTED_EDGE('',*,*,#176,.F.);
#160=ORIENTED_EDGE('',*,*,#177,.F.);
#161=ORIENTED_EDGE('',*,*,#177,.T.);
#162=ORIENTED_EDGE('',*,*,#174,.F.);
#163=ORIENTED_EDGE('',*,*,#178,.T.);
#164=ORIENTED_EDGE('',*,*,#178,.F.);
#165=VERTEX_POINT('',#360);
#166=VERTEX_POINT('',#363);
#167=VERTEX_POINT('',#365);
#168=VERTEX_POINT('',#368);
#169=VERTEX_POINT('',#370);
#170=VERTEX_POINT('',#375);
#171=VERTEX_POINT('',#401);
#172=EDGE_CURVE('',#165,#165,#179,.T.);
#173=EDGE_CURVE('',#166,#166,#180,.T.);
#174=EDGE_CURVE('',#167,#167,#181,.T.);
#175=EDGE_CURVE('',#168,#168,#182,.T.);
#176=EDGE_CURVE('',#169,#169,#183,.T.);
#177=EDGE_CURVE('',#170,#170,#184,.T.);
#178=EDGE_CURVE('',#171,#171,#185,.T.);
#179=CIRCLE('',#271,5.49750000000003);
#180=CIRCLE('',#273,5.0625);
#181=CIRCLE('',#274,5.0625);
#182=CIRCLE('',#276,6.0625);
#183=CIRCLE('',#277,6.0625);
#184=CIRCLE('',#281,2.31924691440993);
#185=CIRCLE('',#287,4.47079363759369);
#186=CURVE_STYLE('',#195,POSITIVE_LENGTH_MEASURE(0.18),#263);
#187=CURVE_STYLE('',#196,POSITIVE_LENGTH_MEASURE(0.18),#263);
#188=CURVE_STYLE('',#197,POSITIVE_LENGTH_MEASURE(0.18),#263);
#189=CURVE_STYLE('',#198,POSITIVE_LENGTH_MEASURE(0.18),#263);
#190=CURVE_STYLE('',#199,POSITIVE_LENGTH_MEASURE(0.18),#87);
#191=CURVE_STYLE('',#200,POSITIVE_LENGTH_MEASURE(0.18),#263);
#192=CURVE_STYLE('',#201,POSITIVE_LENGTH_MEASURE(0.18),#263);
#193=CURVE_STYLE('',#202,POSITIVE_LENGTH_MEASURE(0.18),#263);
#194=CURVE_STYLE('',#203,POSITIVE_LENGTH_MEASURE(0.18),#263);
#195=DRAUGHTING_PRE_DEFINED_CURVE_FONT('continuous');
#196=DRAUGHTING_PRE_DEFINED_CURVE_FONT('continuous');
#197=DRAUGHTING_PRE_DEFINED_CURVE_FONT('continuous');
#198=DRAUGHTING_PRE_DEFINED_CURVE_FONT('continuous');
#199=DRAUGHTING_PRE_DEFINED_CURVE_FONT('continuous');
#200=DRAUGHTING_PRE_DEFINED_CURVE_FONT('continuous');
#201=DRAUGHTING_PRE_DEFINED_CURVE_FONT('continuous');
#202=DRAUGHTING_PRE_DEFINED_CURVE_FONT('continuous');
#203=DRAUGHTING_PRE_DEFINED_CURVE_FONT('continuous');
#204=PRESENTATION_LAYER_ASSIGNMENT('1','Layer 1',(#351,#267,#353,#354,#355,
#268,#269,#270,#101,#378,#379,#380,#89,#284,#285,#286,#102,#404,#405,#290));
#205=STYLED_ITEM('',(#225),#351);
#206=STYLED_ITEM('',(#226),#267);
#207=STYLED_ITEM('',(#227),#353);
#208=STYLED_ITEM('',(#228),#354);
#209=STYLED_ITEM('',(#229),#355);
#210=STYLED_ITEM('',(#230),#268);
#211=STYLED_ITEM('',(#231),#269);
#212=STYLED_ITEM('',(#232),#270);
#213=STYLED_ITEM('',(#233),#101);
#214=STYLED_ITEM('',(#234),#378);
#215=STYLED_ITEM('',(#235),#379);
#216=STYLED_ITEM('',(#236),#380);
#217=STYLED_ITEM('',(#237),#89);
#218=STYLED_ITEM('',(#238),#284);
#219=STYLED_ITEM('',(#239),#285);
#220=STYLED_ITEM('',(#240),#286);
#221=STYLED_ITEM('',(#241),#102);
#222=STYLED_ITEM('',(#242),#404);
#223=STYLED_ITEM('',(#243),#405);
#224=STYLED_ITEM('',(#244),#290);
#225=PRESENTATION_STYLE_ASSIGNMENT((#245));
#226=PRESENTATION_STYLE_ASSIGNMENT((#186));
#227=PRESENTATION_STYLE_ASSIGNMENT((#246));
#228=PRESENTATION_STYLE_ASSIGNMENT((#247));
#229=PRESENTATION_STYLE_ASSIGNMENT((#248));
#230=PRESENTATION_STYLE_ASSIGNMENT((#187));
#231=PRESENTATION_STYLE_ASSIGNMENT((#188));
#232=PRESENTATION_STYLE_ASSIGNMENT((#189));
#233=PRESENTATION_STYLE_ASSIGNMENT((#91));
#234=PRESENTATION_STYLE_ASSIGNMENT((#249));
#235=PRESENTATION_STYLE_ASSIGNMENT((#250));
#236=PRESENTATION_STYLE_ASSIGNMENT((#251));
#237=PRESENTATION_STYLE_ASSIGNMENT((#190));
#238=PRESENTATION_STYLE_ASSIGNMENT((#191));
#239=PRESENTATION_STYLE_ASSIGNMENT((#192));
#240=PRESENTATION_STYLE_ASSIGNMENT((#193));
#241=PRESENTATION_STYLE_ASSIGNMENT((#92));
#242=PRESENTATION_STYLE_ASSIGNMENT((#252));
#243=PRESENTATION_STYLE_ASSIGNMENT((#253));
#244=PRESENTATION_STYLE_ASSIGNMENT((#194));
#245=POINT_STYLE('',#254,POSITIVE_LENGTH_MEASURE(3.),#263);
#246=POINT_STYLE('',#255,POSITIVE_LENGTH_MEASURE(3.),#263);
#247=POINT_STYLE('',#256,POSITIVE_LENGTH_MEASURE(3.),#263);
#248=POINT_STYLE('',#257,POSITIVE_LENGTH_MEASURE(3.),#263);
#249=POINT_STYLE('',#258,POSITIVE_LENGTH_MEASURE(3.),#263);
#250=POINT_STYLE('',#259,POSITIVE_LENGTH_MEASURE(3.),#263);
#251=POINT_STYLE('',#260,POSITIVE_LENGTH_MEASURE(3.),#263);
#252=POINT_STYLE('',#261,POSITIVE_LENGTH_MEASURE(3.),#88);
#253=POINT_STYLE('',#262,POSITIVE_LENGTH_MEASURE(3.),#263);
#254=PRE_DEFINED_POINT_MARKER_SYMBOL('plus');
#255=PRE_DEFINED_POINT_MARKER_SYMBOL('plus');
#256=PRE_DEFINED_POINT_MARKER_SYMBOL('plus');
#257=PRE_DEFINED_POINT_MARKER_SYMBOL('plus');
#258=PRE_DEFINED_POINT_MARKER_SYMBOL('plus');
#259=PRE_DEFINED_POINT_MARKER_SYMBOL('plus');
#260=PRE_DEFINED_POINT_MARKER_SYMBOL('plus');
#261=PRE_DEFINED_POINT_MARKER_SYMBOL('plus');
#262=PRE_DEFINED_POINT_MARKER_SYMBOL('plus');
#263=COLOUR_RGB('Medium Maroon',0.6,0.4,0.4);
#264=COLOUR_RGB('Medium Gray',0.490196078431373,0.490196078431373,0.490196078431373);
#265=COLOUR_RGB('Light Gray',0.8,0.8,0.8);
#266=AXIS2_PLACEMENT_3D('',#350,#294,#295);
#267=AXIS2_PLACEMENT_3D('',#352,#296,#297);
#268=AXIS2_PLACEMENT_3D('CSW',#356,#298,#299);
#269=AXIS2_PLACEMENT_3D('MCS',#357,#300,#301);
#270=AXIS2_PLACEMENT_3D('PCS',#358,#302,#303);
#271=AXIS2_PLACEMENT_3D('',#359,#304,#305);
#272=AXIS2_PLACEMENT_3D('',#361,#306,#307);
#273=AXIS2_PLACEMENT_3D('',#362,#308,#309);
#274=AXIS2_PLACEMENT_3D('',#364,#310,#311);
#275=AXIS2_PLACEMENT_3D('',#366,#312,#313);
#276=AXIS2_PLACEMENT_3D('',#367,#314,#315);
#277=AXIS2_PLACEMENT_3D('',#369,#316,#317);
#278=AXIS2_PLACEMENT_3D('',#371,#318,#319);
#279=AXIS2_PLACEMENT_3D('',#372,#320,#321);
#280=AXIS2_PLACEMENT_3D('',#373,#322,#323);
#281=AXIS2_PLACEMENT_3D('',#374,#324,#325);
#282=AXIS2_PLACEMENT_3D('',#376,#326,#327);
#283=AXIS2_PLACEMENT_3D('',#377,#328,#329);
#284=AXIS2_PLACEMENT_3D('MCS',#397,#330,#331);
#285=AXIS2_PLACEMENT_3D('PCS',#398,#332,#333);
#286=AXIS2_PLACEMENT_3D('CIP',#399,#334,#335);
#287=AXIS2_PLACEMENT_3D('',#400,#336,#337);
#288=AXIS2_PLACEMENT_3D('',#402,#338,#339);
#289=AXIS2_PLACEMENT_3D('',#403,#340,#341);
#290=AXIS2_PLACEMENT_3D('',#406,#342,#343);
#291=AXIS2_PLACEMENT_3D('',#407,#344,#345);
#292=AXIS2_PLACEMENT_3D('',#408,#346,#347);
#293=AXIS2_PLACEMENT_3D('',#409,#348,#349);
#294=DIRECTION('',(0.,0.,1.));
#295=DIRECTION('',(1.,0.,0.));
#296=DIRECTION('',(0.,0.,1.));
#297=DIRECTION('',(1.,0.,0.));
#298=DIRECTION('',(0.,0.,1.));
#299=DIRECTION('',(1.,0.,0.));
#300=DIRECTION('',(0.,0.,1.));
#301=DIRECTION('',(1.,0.,0.));
#302=DIRECTION('',(0.,0.,1.));
#303=DIRECTION('',(1.,0.,0.));
#304=DIRECTION('',(0.,0.,1.));
#305=DIRECTION('',(1.,0.,0.));
#306=DIRECTION('',(0.,0.,1.));
#307=DIRECTION('',(1.,0.,0.));
#308=DIRECTION('',(0.,0.,-1.));
#309=DIRECTION('',(1.,0.,0.));
#310=DIRECTION('',(0.,0.,1.));
#311=DIRECTION('',(1.,0.,0.));
#312=DIRECTION('',(0.,0.,1.));
#313=DIRECTION('',(1.,0.,0.));
#314=DIRECTION('',(0.,0.,1.));
#315=DIRECTION('',(-1.,0.,0.));
#316=DIRECTION('',(0.,0.,1.));
#317=DIRECTION('',(-1.,0.,0.));
#318=DIRECTION('',(0.,0.,1.));
#319=DIRECTION('',(1.,0.,0.));
#320=DIRECTION('',(0.,0.,-1.));
#321=DIRECTION('',(-1.,0.,0.));
#322=DIRECTION('',(0.,0.,1.));
#323=DIRECTION('',(1.,0.,0.));
#324=DIRECTION('',(0.,0.,1.));
#325=DIRECTION('',(1.,0.,0.));
#326=DIRECTION('',(0.,0.,1.));
#327=DIRECTION('',(1.,0.,0.));
#328=DIRECTION('',(-1.,0.,0.));
#329=DIRECTION('',(0.,0.,0.999999999999999));
#330=DIRECTION('',(0.,0.,1.));
#331=DIRECTION('',(1.,0.,0.));
#332=DIRECTION('',(0.,0.,1.));
#333=DIRECTION('',(1.,0.,0.));
#334=DIRECTION('',(0.,0.,1.));
#335=DIRECTION('',(1.,0.,0.));
#336=DIRECTION('',(0.,0.,-1.));
#337=DIRECTION('',(-1.,0.,0.));
#338=DIRECTION('',(-6.12323399573676E-17,0.,-1.));
#339=DIRECTION('',(-1.,-1.68631290994547E-31,0.));
#340=DIRECTION('',(0.,0.,1.));
#341=DIRECTION('',(1.,0.,0.));
#342=DIRECTION('',(0.,0.,1.));
#343=DIRECTION('',(1.,0.,0.));
#344=DIRECTION('',(0.,0.,1.));
#345=DIRECTION('',(1.,0.,0.));
#346=DIRECTION('',(0.,0.,1.));
#347=DIRECTION('',(1.,0.,0.));
#348=DIRECTION('',(0.,0.,1.));
#349=DIRECTION('',(1.,0.,0.));
#350=CARTESIAN_POINT('',(0.,0.,0.));
#351=CARTESIAN_POINT('',(0.,0.,0.));
#352=CARTESIAN_POINT('',(0.,0.,0.));
#353=CARTESIAN_POINT('PCS',(-9.26252093938928E-14,-1.16343180539518E-14,
0.));
#354=CARTESIAN_POINT('MCS',(0.,0.,-45.));
#355=CARTESIAN_POINT('CSW',(-9.3414481470408E-14,0.,-100.0045));
#356=CARTESIAN_POINT('',(-9.3414481470408E-14,0.,-100.0045));
#357=CARTESIAN_POINT('',(0.,0.,-45.));
#358=CARTESIAN_POINT('',(-9.26252093938928E-14,-1.16343180539518E-14,0.));
#359=CARTESIAN_POINT('',(-1.04259527447845E-13,0.,0.));
#360=CARTESIAN_POINT('',(5.49749999999992,0.,0.));
#361=CARTESIAN_POINT('',(-1.04259527447845E-13,0.,0.));
#362=CARTESIAN_POINT('',(-1.04259527447845E-13,0.,-58.9475616102293));
#363=CARTESIAN_POINT('',(5.0624999999999,0.,-58.9475616102293));
#364=CARTESIAN_POINT('',(-1.04259527447845E-13,0.,-104.));
#365=CARTESIAN_POINT('',(5.0624999999999,0.,-104.));
#366=CARTESIAN_POINT('',(-1.04259527447845E-13,0.,27.2268152444466));
#367=CARTESIAN_POINT('',(-1.04259527447845E-13,0.,-0.564999999999968));
#368=CARTESIAN_POINT('',(-6.0625000000001,0.,-0.564999999999968));
#369=CARTESIAN_POINT('',(-1.04259527447845E-13,0.,-56.9475616102293));
#370=CARTESIAN_POINT('',(-6.0625000000001,0.,-56.9475616102293));
#371=CARTESIAN_POINT('',(-1.04259527447845E-13,0.,27.2268152444466));
#372=CARTESIAN_POINT('',(-1.04259527447845E-13,0.,0.));
#373=CARTESIAN_POINT('',(-1.04259527447845E-13,0.,-58.9475616102293));
#374=CARTESIAN_POINT('',(-1.04259527447845E-13,0.,-108.5));
#375=CARTESIAN_POINT('',(2.31924691440983,0.,-108.5));
#376=CARTESIAN_POINT('',(-1.04259527447845E-13,0.,-108.5));
#377=CARTESIAN_POINT('',(-1.04259527447845E-13,0.,-104.));
#378=CARTESIAN_POINT('',(0.,0.,-9.9955));
#379=CARTESIAN_POINT('',(0.,0.,0.));
#380=CARTESIAN_POINT('',(0.,0.,0.));
#381=CARTESIAN_POINT('',(1.83574555192188E-15,-2.22044604925031E-16,-9.99149999999999));
#382=CARTESIAN_POINT('',(-0.290734553900667,-2.22044604925031E-16,-9.99149999999999));
#383=CARTESIAN_POINT('',(-0.580701811484142,-2.22044604925031E-16,-9.97039146235903));
#384=CARTESIAN_POINT('',(-0.86837123015844,-2.22044604925031E-16,-9.928285804884));
#385=CARTESIAN_POINT('',(-5.02331804431449,-2.22044604925031E-16,-9.32013368294466));
#386=CARTESIAN_POINT('',(-7.12292705743366,-2.22044604925031E-16,-5.68350419619276));
#387=CARTESIAN_POINT('',(-5.57212883731548,-2.22044604925031E-16,-1.78113864277819));
#388=CARTESIAN_POINT('',(-5.31166848736251,-2.22044604925031E-16,-1.12572681388834));
#389=CARTESIAN_POINT('',(-4.94075727962512,-2.22044604925031E-16,-0.525869218035052));
#390=CARTESIAN_POINT('',(-4.47079363759369,-2.22044604925031E-16,6.48303632999614E-12));
#391=CARTESIAN_POINT('',(-2.98052909173299,-2.22044604925031E-16,7.54951656745106E-15));
#392=CARTESIAN_POINT('',(-1.49026454586649,-2.22044604925031E-16,7.54951656745106E-15));
#393=CARTESIAN_POINT('',(0.,-2.22044604925031E-16,7.56823564886461E-15));
#394=CARTESIAN_POINT('',(0.,-2.22044604925031E-16,-3.33049999999999));
#395=CARTESIAN_POINT('',(0.,-2.22044604925031E-16,-6.66099999999999));
#396=CARTESIAN_POINT('',(0.,-2.22044604925031E-16,-9.99149999999999));
#397=CARTESIAN_POINT('',(0.,0.,0.));
#398=CARTESIAN_POINT('',(0.,0.,0.));
#399=CARTESIAN_POINT('',(0.,0.,-9.9955));
#400=CARTESIAN_POINT('',(0.,0.,6.48303632999614E-12));
#401=CARTESIAN_POINT('',(-4.47079363759369,0.,6.48303632999614E-12));
#402=CARTESIAN_POINT('',(1.8936547311979E-15,-2.22044604925018E-16,-3.99550000000003));
#403=CARTESIAN_POINT('',(-4.47079363759369,-2.22044604925031E-16,3.2453022828225E-12));
#404=CARTESIAN_POINT('CRP',(-5.996,0.,-109.996));
#405=CARTESIAN_POINT('',(0.,0.,0.));
#406=CARTESIAN_POINT('',(0.,0.,0.));
#407=CARTESIAN_POINT('',(0.,0.,0.));
#408=CARTESIAN_POINT('',(-7.89272076515148E-16,1.4210854715202E-14,-100.0045));
#409=CARTESIAN_POINT('',(0.,0.,0.));
#410=MECHANICAL_DESIGN_GEOMETRIC_PRESENTATION_REPRESENTATION('',(#205,#206),
#414);
#411=MECHANICAL_DESIGN_GEOMETRIC_PRESENTATION_REPRESENTATION('',(#207,#208,
#209,#210,#211,#212,#213),#415);
#412=MECHANICAL_DESIGN_GEOMETRIC_PRESENTATION_REPRESENTATION('',(#214,#215,
#216,#217,#218,#219,#220,#221),#416);
#413=MECHANICAL_DESIGN_GEOMETRIC_PRESENTATION_REPRESENTATION('',(#222,#223,
#224),#417);
#414=(
GEOMETRIC_REPRESENTATION_CONTEXT(3)
GLOBAL_UNCERTAINTY_ASSIGNED_CONTEXT((#418))
GLOBAL_UNIT_ASSIGNED_CONTEXT((#427,#423,#422))
REPRESENTATION_CONTEXT('1590648621905','TOP_LEVEL_ASSEMBLY_PART')
);
#415=(
GEOMETRIC_REPRESENTATION_CONTEXT(3)
GLOBAL_UNCERTAINTY_ASSIGNED_CONTEXT((#419))
GLOBAL_UNIT_ASSIGNED_CONTEXT((#427,#423,#422))
REPRESENTATION_CONTEXT('202454463mod000_00','COMPONENT_PART')
);
#416=(
GEOMETRIC_REPRESENTATION_CONTEXT(3)
GLOBAL_UNCERTAINTY_ASSIGNED_CONTEXT((#420))
GLOBAL_UNIT_ASSIGNED_CONTEXT((#427,#423,#422))
REPRESENTATION_CONTEXT('202449663mod000_00','COMPONENT_PART')
);
#417=(
GEOMETRIC_REPRESENTATION_CONTEXT(3)
GLOBAL_UNCERTAINTY_ASSIGNED_CONTEXT((#421))
GLOBAL_UNIT_ASSIGNED_CONTEXT((#427,#423,#422))
REPRESENTATION_CONTEXT('202454461mod000_00','COMPONENT_PART')
);
#418=UNCERTAINTY_MEASURE_WITH_UNIT(LENGTH_MEASURE(2.E-5),#427,
'DISTANCE_ACCURACY_VALUE','Maximum Tolerance applied to model');
#419=UNCERTAINTY_MEASURE_WITH_UNIT(LENGTH_MEASURE(2.E-5),#427,
'DISTANCE_ACCURACY_VALUE','Maximum Tolerance applied to model');
#420=UNCERTAINTY_MEASURE_WITH_UNIT(LENGTH_MEASURE(2.E-5),#427,
'DISTANCE_ACCURACY_VALUE','Maximum Tolerance applied to model');
#421=UNCERTAINTY_MEASURE_WITH_UNIT(LENGTH_MEASURE(2.E-5),#427,
'DISTANCE_ACCURACY_VALUE','Maximum Tolerance applied to model');
#422=(
NAMED_UNIT(*)
SI_UNIT($,.STERADIAN.)
SOLID_ANGLE_UNIT()
);
#423=(
CONVERSION_BASED_UNIT('DEGREE',#425)
NAMED_UNIT(#424)
PLANE_ANGLE_UNIT()
);
#424=DIMENSIONAL_EXPONENTS(0.,0.,0.,0.,0.,0.,0.);
#425=PLANE_ANGLE_MEASURE_WITH_UNIT(PLANE_ANGLE_MEASURE(0.0174532925),#426);
#426=(
NAMED_UNIT(*)
PLANE_ANGLE_UNIT()
SI_UNIT($,.RADIAN.)
);
#427=(
LENGTH_UNIT()
NAMED_UNIT(*)
SI_UNIT(.MILLI.,.METRE.)
);
ENDSEC;
END-ISO-10303-21;
