ISO-10303-21;
HEADER;
/* Generated by software containing ST-Developer
 * from STEP Tools, Inc. (www.steptools.com) 
 */
/* OPTION: using custom schema-name function */

FILE_DESCRIPTION(
/* description */ (''),
/* implementation_level */ '2;1');

FILE_NAME(
/* name */ '1590407777017.stp',
/* time_stamp */ '2020-05-25T17:26:45+06:00',
/* author */ (''),
/* organization */ ('SMS'),
/* preprocessor_version */ 'ST-DEVELOPER v16.7',
/* originating_system */ 'SIEMENS PLM Software NX 12.0',
/* authorisation */ '');

FILE_SCHEMA (('AUTOMOTIVE_DESIGN { 1 0 10303 214 3 1 1 1 }'));
ENDSEC;

DATA;
#10=CONTEXT_DEPENDENT_SHAPE_REPRESENTATION(#16,#50);
#11=CONTEXT_DEPENDENT_SHAPE_REPRESENTATION(#17,#51);
#12=CONTEXT_DEPENDENT_SHAPE_REPRESENTATION(#18,#52);
#13=NEXT_ASSEMBLY_USAGE_OCCURRENCE('1001',' ',
'NXMOD-TM02_00-000-00-R216F_10A12C_053_PP_BAS',#56,#55,$);
#14=NEXT_ASSEMBLY_USAGE_OCCURRENCE('1002',' ',
'NXMOD-TM01_00-000-00-MI_R216F_1026_R1_BAS',#56,#54,$);
#15=NEXT_ASSEMBLY_USAGE_OCCURRENCE('1003',' ',
'NXMOD-TM01_00-000-00-R216F_10A12C_053_ACN_BAS',#56,#53,$);
#16=(
REPRESENTATION_RELATIONSHIP(' ',' ',#81,#82)
REPRESENTATION_RELATIONSHIP_WITH_TRANSFORMATION(#19)
SHAPE_REPRESENTATION_RELATIONSHIP()
);
#17=(
REPRESENTATION_RELATIONSHIP(' ',' ',#80,#82)
REPRESENTATION_RELATIONSHIP_WITH_TRANSFORMATION(#20)
SHAPE_REPRESENTATION_RELATIONSHIP()
);
#18=(
REPRESENTATION_RELATIONSHIP(' ',' ',#79,#82)
REPRESENTATION_RELATIONSHIP_WITH_TRANSFORMATION(#21)
SHAPE_REPRESENTATION_RELATIONSHIP()
);
#19=ITEM_DEFINED_TRANSFORMATION(' ',' ',#288,#317);
#20=ITEM_DEFINED_TRANSFORMATION(' ',' ',#288,#318);
#21=ITEM_DEFINED_TRANSFORMATION(' ',' ',#288,#319);
#22=ADVANCED_BREP_SHAPE_REPRESENTATION('202506381mod000_00-None',(#102),
#460);
#23=ADVANCED_BREP_SHAPE_REPRESENTATION('202453096mod000_00-None',(#101),
#459);
#24=CONSTRUCTIVE_GEOMETRY_REPRESENTATION_RELATIONSHIP(
'supplemental geometry','',#79,#28);
#25=CONSTRUCTIVE_GEOMETRY_REPRESENTATION_RELATIONSHIP(
'supplemental geometry','',#80,#29);
#26=CONSTRUCTIVE_GEOMETRY_REPRESENTATION_RELATIONSHIP(
'supplemental geometry','',#81,#30);
#27=CONSTRUCTIVE_GEOMETRY_REPRESENTATION_RELATIONSHIP(
'supplemental geometry','',#82,#31);
#28=CONSTRUCTIVE_GEOMETRY_REPRESENTATION('supplemental geometry',(#316),
#461);
#29=CONSTRUCTIVE_GEOMETRY_REPRESENTATION('supplemental geometry',(#310,
#311,#312),#460);
#30=CONSTRUCTIVE_GEOMETRY_REPRESENTATION('supplemental geometry',(#290,
#291,#292),#459);
#31=CONSTRUCTIVE_GEOMETRY_REPRESENTATION('supplemental geometry',(#289),
#458);
#32=SHAPE_REPRESENTATION_RELATIONSHIP('None',
'relationship between 202453095mod000_00-None and 202453095mod000_00-N
one',#79,#38);
#33=SHAPE_REPRESENTATION_RELATIONSHIP('None',
'relationship between 202506381mod000_00-None and 202506381mod000_00-N
one',#80,#22);
#34=SHAPE_REPRESENTATION_RELATIONSHIP('None',
'relationship between 202506381mod000_00-None and 202506381mod000_00-N
one',#80,#39);
#35=SHAPE_REPRESENTATION_RELATIONSHIP('None',
'relationship between 202453096mod000_00-None and 202453096mod000_00-N
one',#81,#23);
#36=SHAPE_REPRESENTATION_RELATIONSHIP('None',
'relationship between 202453096mod000_00-None and 202453096mod000_00-N
one',#81,#40);
#37=SHAPE_REPRESENTATION_RELATIONSHIP('None',
'relationship between 202453094mod000_00-None and 202453094mod000_00-N
one',#82,#41);
#38=GEOMETRICALLY_BOUNDED_WIREFRAME_SHAPE_REPRESENTATION(
'202453095mod000_00-None',(#83),#461);
#39=GEOMETRICALLY_BOUNDED_WIREFRAME_SHAPE_REPRESENTATION(
'202506381mod000_00-None',(#84),#460);
#40=GEOMETRICALLY_BOUNDED_WIREFRAME_SHAPE_REPRESENTATION(
'202453096mod000_00-None',(#85),#459);
#41=GEOMETRICALLY_BOUNDED_WIREFRAME_SHAPE_REPRESENTATION(
'202453094mod000_00-None',(#86),#458);
#42=SHAPE_DEFINITION_REPRESENTATION(#46,#79);
#43=SHAPE_DEFINITION_REPRESENTATION(#47,#80);
#44=SHAPE_DEFINITION_REPRESENTATION(#48,#81);
#45=SHAPE_DEFINITION_REPRESENTATION(#49,#82);
#46=PRODUCT_DEFINITION_SHAPE('','',#53);
#47=PRODUCT_DEFINITION_SHAPE('','',#54);
#48=PRODUCT_DEFINITION_SHAPE('','',#55);
#49=PRODUCT_DEFINITION_SHAPE('','',#56);
#50=PRODUCT_DEFINITION_SHAPE(' ','NAUO PRDDFN',#13);
#51=PRODUCT_DEFINITION_SHAPE(' ','NAUO PRDDFN',#14);
#52=PRODUCT_DEFINITION_SHAPE(' ','NAUO PRDDFN',#15);
#53=PRODUCT_DEFINITION(' ','',#61,#57);
#54=PRODUCT_DEFINITION(' ','',#62,#58);
#55=PRODUCT_DEFINITION(' ','',#63,#59);
#56=PRODUCT_DEFINITION(' ','',#64,#60);
#57=PRODUCT_DEFINITION_CONTEXT('part definition',#78,'design');
#58=PRODUCT_DEFINITION_CONTEXT('part definition',#78,'design');
#59=PRODUCT_DEFINITION_CONTEXT('part definition',#78,'design');
#60=PRODUCT_DEFINITION_CONTEXT('part definition',#78,'design');
#61=PRODUCT_DEFINITION_FORMATION_WITH_SPECIFIED_SOURCE(' ',' ',#69,
 .NOT_KNOWN.);
#62=PRODUCT_DEFINITION_FORMATION_WITH_SPECIFIED_SOURCE(' ',' ',#70,
 .NOT_KNOWN.);
#63=PRODUCT_DEFINITION_FORMATION_WITH_SPECIFIED_SOURCE(' ',' ',#71,
 .NOT_KNOWN.);
#64=PRODUCT_DEFINITION_FORMATION_WITH_SPECIFIED_SOURCE(' ',' ',#72,
 .NOT_KNOWN.);
#65=PRODUCT_RELATED_PRODUCT_CATEGORY('part','',(#69));
#66=PRODUCT_RELATED_PRODUCT_CATEGORY('part','',(#70));
#67=PRODUCT_RELATED_PRODUCT_CATEGORY('part','',(#71));
#68=PRODUCT_RELATED_PRODUCT_CATEGORY('part','',(#72));
#69=PRODUCT('ASSEMBLY_CONSTRUCTION','202453095mod000_00',' ',(#73));
#70=PRODUCT('202506381mod000_00','202506381mod000_00','MASTER_INSERT',(#74));
#71=PRODUCT('202453096mod000_00','202453096mod000_00','NOCUT',(#75));
#72=PRODUCT('202453094mod000_00','202453094mod000_00',' ',(#76));
#73=PRODUCT_CONTEXT(' ',#78,'mechanical');
#74=PRODUCT_CONTEXT(' ',#78,'mechanical');
#75=PRODUCT_CONTEXT(' ',#78,'mechanical');
#76=PRODUCT_CONTEXT(' ',#78,'mechanical');
#77=APPLICATION_PROTOCOL_DEFINITION('international standard',
'automotive_design',2010,#78);
#78=APPLICATION_CONTEXT(
'core data for automotive mechanical design processes');
#79=SHAPE_REPRESENTATION('202453095mod000_00-None',(#288),#461);
#80=SHAPE_REPRESENTATION('202506381mod000_00-None',(#288),#460);
#81=SHAPE_REPRESENTATION('202453096mod000_00-None',(#288),#459);
#82=SHAPE_REPRESENTATION('202453094mod000_00-None',(#288,#317,#318,#319),
#458);
#83=GEOMETRIC_CURVE_SET('None',(#448,#449));
#84=GEOMETRIC_CURVE_SET('None',(#418,#419,#420,#89));
#85=GEOMETRIC_CURVE_SET('None',(#387,#388,#389));
#86=GEOMETRIC_CURVE_SET('None',(#385));
#87=DRAUGHTING_PRE_DEFINED_COLOUR('blue');
#88=DRAUGHTING_PRE_DEFINED_COLOUR('white');
#89=TRIMMED_CURVE('CUTTING EDGE LINE',#90,(PARAMETER_VALUE(0.)),(
PARAMETER_VALUE(1.)),.T.,.PARAMETER.);
#90=(
BOUNDED_CURVE()
B_SPLINE_CURVE(4,(#421,#422,#423,#424,#425,#426,#427,#428,#429,#430,#431,
#432,#433,#434,#435,#436,#437,#438,#439,#440),.UNSPECIFIED.,.T.,.F.)
B_SPLINE_CURVE_WITH_KNOTS((5,4,4,3,4,5),(0.,0.150129739173131,0.184658891795158,
0.413793442477226,0.642927993159295,1.),.UNSPECIFIED.)
CURVE()
GEOMETRIC_REPRESENTATION_ITEM()
RATIONAL_B_SPLINE_CURVE((1.,1.,1.,1.,1.,0.998312791820137,0.997750389093516,
0.998312791820137,1.,1.,0.985977149606523,1.,1.,0.985977149606523,1.,1.,
1.,1.,1.,1.))
REPRESENTATION_ITEM('CUTTING EDGE LINE')
);
#91=SURFACE_STYLE_USAGE(.BOTH.,#93);
#92=SURFACE_STYLE_USAGE(.BOTH.,#94);
#93=SURFACE_SIDE_STYLE('',(#95));
#94=SURFACE_SIDE_STYLE('',(#96));
#95=SURFACE_STYLE_FILL_AREA(#97);
#96=SURFACE_STYLE_FILL_AREA(#98);
#97=FILL_AREA_STYLE('',(#99));
#98=FILL_AREA_STYLE('',(#100));
#99=FILL_AREA_STYLE_COLOUR('',#286);
#100=FILL_AREA_STYLE_COLOUR('',#287);
#101=MANIFOLD_SOLID_BREP('NOCUT',#103);
#102=MANIFOLD_SOLID_BREP('CUT',#104);
#103=CLOSED_SHELL('',(#118,#119,#120,#121,#122,#123,#124,#125,#126));
#104=CLOSED_SHELL('',(#127,#128));
#105=SPHERICAL_SURFACE('',#308,4.0625);
#106=SPHERICAL_SURFACE('',#314,4.996);
#107=CONICAL_SURFACE('',#303,4.90779946162075,30.);
#108=CONICAL_SURFACE('',#306,5.61628734411317,3.00000000000001);
#109=PLANE('',#302);
#110=PLANE('',#309);
#111=PLANE('',#315);
#112=FACE_OUTER_BOUND('',#151,.T.);
#113=FACE_OUTER_BOUND('',#160,.T.);
#114=FACE_OUTER_BOUND('',#161,.T.);
#115=FACE_OUTER_BOUND('',#162,.T.);
#116=TOROIDAL_SURFACE('',#298,6.86899942350314,1.);
#117=TOROIDAL_SURFACE('',#305,6.56525191082804,1.);
#118=ADVANCED_FACE('',(#131,#132),#129,.T.);
#119=ADVANCED_FACE('',(#133,#134),#116,.F.);
#120=ADVANCED_FACE('',(#135,#136),#130,.T.);
#121=ADVANCED_FACE('',(#112),#109,.T.);
#122=ADVANCED_FACE('',(#137,#138),#107,.T.);
#123=ADVANCED_FACE('',(#139,#140),#117,.F.);
#124=ADVANCED_FACE('',(#141,#142),#108,.T.);
#125=ADVANCED_FACE('',(#143,#144),#105,.T.);
#126=ADVANCED_FACE('',(#113),#110,.T.);
#127=ADVANCED_FACE('',(#114),#106,.T.);
#128=ADVANCED_FACE('',(#115),#111,.T.);
#129=CYLINDRICAL_SURFACE('',#295,3.975);
#130=CYLINDRICAL_SURFACE('',#300,5.99875);
#131=FACE_BOUND('',#145,.T.);
#132=FACE_BOUND('',#146,.T.);
#133=FACE_BOUND('',#147,.T.);
#134=FACE_BOUND('',#148,.T.);
#135=FACE_BOUND('',#149,.T.);
#136=FACE_BOUND('',#150,.T.);
#137=FACE_BOUND('',#152,.T.);
#138=FACE_BOUND('',#153,.T.);
#139=FACE_BOUND('',#154,.T.);
#140=FACE_BOUND('',#155,.T.);
#141=FACE_BOUND('',#156,.T.);
#142=FACE_BOUND('',#157,.T.);
#143=FACE_BOUND('',#158,.T.);
#144=FACE_BOUND('',#159,.T.);
#145=EDGE_LOOP('',(#163));
#146=EDGE_LOOP('',(#164));
#147=EDGE_LOOP('',(#165));
#148=EDGE_LOOP('',(#166));
#149=EDGE_LOOP('',(#167));
#150=EDGE_LOOP('',(#168));
#151=EDGE_LOOP('',(#169));
#152=EDGE_LOOP('',(#170));
#153=EDGE_LOOP('',(#171));
#154=EDGE_LOOP('',(#172));
#155=EDGE_LOOP('',(#173));
#156=EDGE_LOOP('',(#174));
#157=EDGE_LOOP('',(#175));
#158=EDGE_LOOP('',(#176));
#159=EDGE_LOOP('',(#177));
#160=EDGE_LOOP('',(#178));
#161=EDGE_LOOP('',(#179));
#162=EDGE_LOOP('',(#180));
#163=ORIENTED_EDGE('',*,*,#190,.F.);
#164=ORIENTED_EDGE('',*,*,#191,.F.);
#165=ORIENTED_EDGE('',*,*,#192,.T.);
#166=ORIENTED_EDGE('',*,*,#193,.F.);
#167=ORIENTED_EDGE('',*,*,#194,.F.);
#168=ORIENTED_EDGE('',*,*,#193,.T.);
#169=ORIENTED_EDGE('',*,*,#195,.T.);
#170=ORIENTED_EDGE('',*,*,#195,.F.);
#171=ORIENTED_EDGE('',*,*,#194,.T.);
#172=ORIENTED_EDGE('',*,*,#196,.F.);
#173=ORIENTED_EDGE('',*,*,#192,.F.);
#174=ORIENTED_EDGE('',*,*,#196,.T.);
#175=ORIENTED_EDGE('',*,*,#191,.T.);
#176=ORIENTED_EDGE('',*,*,#197,.T.);
#177=ORIENTED_EDGE('',*,*,#190,.T.);
#178=ORIENTED_EDGE('',*,*,#197,.F.);
#179=ORIENTED_EDGE('',*,*,#198,.T.);
#180=ORIENTED_EDGE('',*,*,#198,.F.);
#181=VERTEX_POINT('',#394);
#182=VERTEX_POINT('',#396);
#183=VERTEX_POINT('',#399);
#184=VERTEX_POINT('',#401);
#185=VERTEX_POINT('',#404);
#186=VERTEX_POINT('',#407);
#187=VERTEX_POINT('',#411);
#188=VERTEX_POINT('',#415);
#189=VERTEX_POINT('',#445);
#190=EDGE_CURVE('',#181,#181,#199,.T.);
#191=EDGE_CURVE('',#182,#182,#200,.T.);
#192=EDGE_CURVE('',#183,#183,#201,.T.);
#193=EDGE_CURVE('',#184,#184,#202,.T.);
#194=EDGE_CURVE('',#185,#185,#203,.T.);
#195=EDGE_CURVE('',#186,#186,#204,.T.);
#196=EDGE_CURVE('',#187,#187,#205,.T.);
#197=EDGE_CURVE('',#188,#188,#206,.T.);
#198=EDGE_CURVE('',#189,#189,#207,.T.);
#199=CIRCLE('',#293,3.975);
#200=CIRCLE('',#294,3.975);
#201=CIRCLE('',#296,5.94092693984609);
#202=CIRCLE('',#297,5.99875);
#203=CIRCLE('',#299,5.99875);
#204=CIRCLE('',#301,4.90779946162075);
#205=CIRCLE('',#304,5.56662237607347);
#206=CIRCLE('',#307,2.50277970464841);
#207=CIRCLE('',#313,3.57001274507526);
#208=CURVE_STYLE('',#217,POSITIVE_LENGTH_MEASURE(0.18),#285);
#209=CURVE_STYLE('',#218,POSITIVE_LENGTH_MEASURE(0.18),#285);
#210=CURVE_STYLE('',#219,POSITIVE_LENGTH_MEASURE(0.18),#285);
#211=CURVE_STYLE('',#220,POSITIVE_LENGTH_MEASURE(0.18),#285);
#212=CURVE_STYLE('',#221,POSITIVE_LENGTH_MEASURE(0.18),#87);
#213=CURVE_STYLE('',#222,POSITIVE_LENGTH_MEASURE(0.18),#285);
#214=CURVE_STYLE('',#223,POSITIVE_LENGTH_MEASURE(0.18),#285);
#215=CURVE_STYLE('',#224,POSITIVE_LENGTH_MEASURE(0.18),#285);
#216=CURVE_STYLE('',#225,POSITIVE_LENGTH_MEASURE(0.18),#285);
#217=DRAUGHTING_PRE_DEFINED_CURVE_FONT('continuous');
#218=DRAUGHTING_PRE_DEFINED_CURVE_FONT('continuous');
#219=DRAUGHTING_PRE_DEFINED_CURVE_FONT('continuous');
#220=DRAUGHTING_PRE_DEFINED_CURVE_FONT('continuous');
#221=DRAUGHTING_PRE_DEFINED_CURVE_FONT('continuous');
#222=DRAUGHTING_PRE_DEFINED_CURVE_FONT('continuous');
#223=DRAUGHTING_PRE_DEFINED_CURVE_FONT('continuous');
#224=DRAUGHTING_PRE_DEFINED_CURVE_FONT('continuous');
#225=DRAUGHTING_PRE_DEFINED_CURVE_FONT('continuous');
#226=PRESENTATION_LAYER_ASSIGNMENT('1','Layer 1',(#385,#289,#387,#388,#389,
#290,#291,#292,#101,#418,#419,#420,#89,#310,#311,#312,#102,#448,#449,#316));
#227=STYLED_ITEM('',(#247),#385);
#228=STYLED_ITEM('',(#248),#289);
#229=STYLED_ITEM('',(#249),#387);
#230=STYLED_ITEM('',(#250),#388);
#231=STYLED_ITEM('',(#251),#389);
#232=STYLED_ITEM('',(#252),#290);
#233=STYLED_ITEM('',(#253),#291);
#234=STYLED_ITEM('',(#254),#292);
#235=STYLED_ITEM('',(#255),#101);
#236=STYLED_ITEM('',(#256),#418);
#237=STYLED_ITEM('',(#257),#419);
#238=STYLED_ITEM('',(#258),#420);
#239=STYLED_ITEM('',(#259),#89);
#240=STYLED_ITEM('',(#260),#310);
#241=STYLED_ITEM('',(#261),#311);
#242=STYLED_ITEM('',(#262),#312);
#243=STYLED_ITEM('',(#263),#102);
#244=STYLED_ITEM('',(#264),#448);
#245=STYLED_ITEM('',(#265),#449);
#246=STYLED_ITEM('',(#266),#316);
#247=PRESENTATION_STYLE_ASSIGNMENT((#267));
#248=PRESENTATION_STYLE_ASSIGNMENT((#208));
#249=PRESENTATION_STYLE_ASSIGNMENT((#268));
#250=PRESENTATION_STYLE_ASSIGNMENT((#269));
#251=PRESENTATION_STYLE_ASSIGNMENT((#270));
#252=PRESENTATION_STYLE_ASSIGNMENT((#209));
#253=PRESENTATION_STYLE_ASSIGNMENT((#210));
#254=PRESENTATION_STYLE_ASSIGNMENT((#211));
#255=PRESENTATION_STYLE_ASSIGNMENT((#91));
#256=PRESENTATION_STYLE_ASSIGNMENT((#271));
#257=PRESENTATION_STYLE_ASSIGNMENT((#272));
#258=PRESENTATION_STYLE_ASSIGNMENT((#273));
#259=PRESENTATION_STYLE_ASSIGNMENT((#212));
#260=PRESENTATION_STYLE_ASSIGNMENT((#213));
#261=PRESENTATION_STYLE_ASSIGNMENT((#214));
#262=PRESENTATION_STYLE_ASSIGNMENT((#215));
#263=PRESENTATION_STYLE_ASSIGNMENT((#92));
#264=PRESENTATION_STYLE_ASSIGNMENT((#274));
#265=PRESENTATION_STYLE_ASSIGNMENT((#275));
#266=PRESENTATION_STYLE_ASSIGNMENT((#216));
#267=POINT_STYLE('',#276,POSITIVE_LENGTH_MEASURE(3.),#285);
#268=POINT_STYLE('',#277,POSITIVE_LENGTH_MEASURE(3.),#285);
#269=POINT_STYLE('',#278,POSITIVE_LENGTH_MEASURE(3.),#285);
#270=POINT_STYLE('',#279,POSITIVE_LENGTH_MEASURE(3.),#285);
#271=POINT_STYLE('',#280,POSITIVE_LENGTH_MEASURE(3.),#285);
#272=POINT_STYLE('',#281,POSITIVE_LENGTH_MEASURE(3.),#285);
#273=POINT_STYLE('',#282,POSITIVE_LENGTH_MEASURE(3.),#285);
#274=POINT_STYLE('',#283,POSITIVE_LENGTH_MEASURE(3.),#88);
#275=POINT_STYLE('',#284,POSITIVE_LENGTH_MEASURE(3.),#285);
#276=PRE_DEFINED_POINT_MARKER_SYMBOL('plus');
#277=PRE_DEFINED_POINT_MARKER_SYMBOL('plus');
#278=PRE_DEFINED_POINT_MARKER_SYMBOL('plus');
#279=PRE_DEFINED_POINT_MARKER_SYMBOL('plus');
#280=PRE_DEFINED_POINT_MARKER_SYMBOL('plus');
#281=PRE_DEFINED_POINT_MARKER_SYMBOL('plus');
#282=PRE_DEFINED_POINT_MARKER_SYMBOL('plus');
#283=PRE_DEFINED_POINT_MARKER_SYMBOL('plus');
#284=PRE_DEFINED_POINT_MARKER_SYMBOL('plus');
#285=COLOUR_RGB('Medium Maroon',0.6,0.4,0.4);
#286=COLOUR_RGB('Medium Gray',0.490196078431373,0.490196078431373,0.490196078431373);
#287=COLOUR_RGB('Light Gray',0.8,0.8,0.8);
#288=AXIS2_PLACEMENT_3D('',#384,#320,#321);
#289=AXIS2_PLACEMENT_3D('',#386,#322,#323);
#290=AXIS2_PLACEMENT_3D('PCS',#390,#324,#325);
#291=AXIS2_PLACEMENT_3D('MCS',#391,#326,#327);
#292=AXIS2_PLACEMENT_3D('CSW',#392,#328,#329);
#293=AXIS2_PLACEMENT_3D('',#393,#330,#331);
#294=AXIS2_PLACEMENT_3D('',#395,#332,#333);
#295=AXIS2_PLACEMENT_3D('',#397,#334,#335);
#296=AXIS2_PLACEMENT_3D('',#398,#336,#337);
#297=AXIS2_PLACEMENT_3D('',#400,#338,#339);
#298=AXIS2_PLACEMENT_3D('',#402,#340,#341);
#299=AXIS2_PLACEMENT_3D('',#403,#342,#343);
#300=AXIS2_PLACEMENT_3D('',#405,#344,#345);
#301=AXIS2_PLACEMENT_3D('',#406,#346,#347);
#302=AXIS2_PLACEMENT_3D('',#408,#348,#349);
#303=AXIS2_PLACEMENT_3D('',#409,#350,#351);
#304=AXIS2_PLACEMENT_3D('',#410,#352,#353);
#305=AXIS2_PLACEMENT_3D('',#412,#354,#355);
#306=AXIS2_PLACEMENT_3D('',#413,#356,#357);
#307=AXIS2_PLACEMENT_3D('',#414,#358,#359);
#308=AXIS2_PLACEMENT_3D('',#416,#360,#361);
#309=AXIS2_PLACEMENT_3D('',#417,#362,#363);
#310=AXIS2_PLACEMENT_3D('PCS',#441,#364,#365);
#311=AXIS2_PLACEMENT_3D('CIP',#442,#366,#367);
#312=AXIS2_PLACEMENT_3D('MCS',#443,#368,#369);
#313=AXIS2_PLACEMENT_3D('',#444,#370,#371);
#314=AXIS2_PLACEMENT_3D('',#446,#372,#373);
#315=AXIS2_PLACEMENT_3D('',#447,#374,#375);
#316=AXIS2_PLACEMENT_3D('',#450,#376,#377);
#317=AXIS2_PLACEMENT_3D('',#451,#378,#379);
#318=AXIS2_PLACEMENT_3D('',#452,#380,#381);
#319=AXIS2_PLACEMENT_3D('',#453,#382,#383);
#320=DIRECTION('',(0.,0.,1.));
#321=DIRECTION('',(1.,0.,0.));
#322=DIRECTION('',(0.,0.,1.));
#323=DIRECTION('',(1.,0.,0.));
#324=DIRECTION('',(0.,0.,1.));
#325=DIRECTION('',(1.,0.,0.));
#326=DIRECTION('',(0.,0.,1.));
#327=DIRECTION('',(1.,0.,0.));
#328=DIRECTION('',(0.,0.,1.));
#329=DIRECTION('',(1.,0.,0.));
#330=DIRECTION('',(0.,0.,-1.));
#331=DIRECTION('',(0.,1.,0.));
#332=DIRECTION('',(0.,0.,1.));
#333=DIRECTION('',(0.,-1.,0.));
#334=DIRECTION('',(0.,0.,-1.));
#335=DIRECTION('',(0.,-1.,0.));
#336=DIRECTION('',(0.,0.,1.));
#337=DIRECTION('',(0.,1.,0.));
#338=DIRECTION('',(0.,0.,1.));
#339=DIRECTION('',(0.,-1.,0.));
#340=DIRECTION('',(0.,0.,1.));
#341=DIRECTION('',(0.,-1.,0.));
#342=DIRECTION('',(0.,0.,1.));
#343=DIRECTION('',(0.,-1.,0.));
#344=DIRECTION('',(0.,0.,-1.));
#345=DIRECTION('',(0.,-1.,0.));
#346=DIRECTION('',(0.,0.,1.));
#347=DIRECTION('',(0.,-1.,0.));
#348=DIRECTION('',(0.,0.,1.));
#349=DIRECTION('',(0.,-1.,0.));
#350=DIRECTION('',(0.,0.,-1.));
#351=DIRECTION('',(0.,1.,0.));
#352=DIRECTION('',(0.,0.,-1.));
#353=DIRECTION('',(0.,-1.,0.));
#354=DIRECTION('',(0.,0.,1.));
#355=DIRECTION('',(0.,1.,0.));
#356=DIRECTION('',(0.,0.,1.));
#357=DIRECTION('',(0.,1.,-8.37105362494869E-16));
#358=DIRECTION('',(0.,0.,1.));
#359=DIRECTION('',(0.,-1.,0.));
#360=DIRECTION('',(-6.12323399573677E-17,0.,-0.999999999999999));
#361=DIRECTION('',(-1.,0.,0.));
#362=DIRECTION('',(0.,0.,-1.));
#363=DIRECTION('',(0.,-1.,0.));
#364=DIRECTION('',(0.,0.,1.));
#365=DIRECTION('',(1.,0.,0.));
#366=DIRECTION('',(0.,0.,1.));
#367=DIRECTION('',(1.,0.,0.));
#368=DIRECTION('',(0.,0.,1.));
#369=DIRECTION('',(1.,0.,0.));
#370=DIRECTION('',(0.,0.,-1.));
#371=DIRECTION('',(-1.,0.,0.));
#372=DIRECTION('',(-6.12323399573677E-17,0.,-1.));
#373=DIRECTION('',(-1.,0.,0.));
#374=DIRECTION('',(0.,0.,1.));
#375=DIRECTION('',(1.,0.,0.));
#376=DIRECTION('',(0.,0.,1.));
#377=DIRECTION('',(1.,0.,0.));
#378=DIRECTION('',(0.,0.,1.));
#379=DIRECTION('',(1.,0.,0.));
#380=DIRECTION('',(0.,0.,1.));
#381=DIRECTION('',(1.,0.,0.));
#382=DIRECTION('',(0.,0.,1.));
#383=DIRECTION('',(1.,0.,0.));
#384=CARTESIAN_POINT('',(0.,0.,0.));
#385=CARTESIAN_POINT('',(0.,0.,0.));
#386=CARTESIAN_POINT('',(0.,0.,0.));
#387=CARTESIAN_POINT('MCS',(0.,0.,-45.));
#388=CARTESIAN_POINT('CSW',(-1.25154459614277E-28,-1.0635936575909E-13,
-101.505261314031));
#389=CARTESIAN_POINT('PCS',(-1.25154459614277E-28,-1.06836729249926E-13,
0.));
#390=CARTESIAN_POINT('',(-1.25154459614277E-28,-1.06836729249926E-13,0.));
#391=CARTESIAN_POINT('',(0.,0.,-45.));
#392=CARTESIAN_POINT('',(-1.25154459614277E-28,-1.0635936575909E-13,-101.505261314031));
#393=CARTESIAN_POINT('',(-1.25154459614277E-28,-1.06836729249926E-13,-105.838879969917));
#394=CARTESIAN_POINT('',(-1.25154459614277E-28,3.97499999999989,-105.838879969917));
#395=CARTESIAN_POINT('',(-1.25154459614277E-28,-1.06836729249926E-13,-88.1476281568616));
#396=CARTESIAN_POINT('',(-1.25154459614277E-28,-3.97500000000011,-88.1476281568616));
#397=CARTESIAN_POINT('',(-1.25154459614277E-28,-1.06836729249926E-13,-88.2));
#398=CARTESIAN_POINT('',(-1.25154459614277E-28,-1.06836729249926E-13,-57.0488352730644));
#399=CARTESIAN_POINT('',(-1.25154459614277E-28,5.94092693984599,-57.0488352730644));
#400=CARTESIAN_POINT('',(-1.25154459614277E-28,-1.06836729249926E-13,-56.9286235283655));
#401=CARTESIAN_POINT('',(-1.25154459614277E-28,-5.99875000000011,-56.9286235283655));
#402=CARTESIAN_POINT('',(-1.25154459614277E-28,-1.06836729249926E-13,-57.4212348770903));
#403=CARTESIAN_POINT('',(-1.25154459614277E-28,-1.06836729249926E-13,-1.88958176101749));
#404=CARTESIAN_POINT('',(-1.25154459614277E-28,-5.99875000000011,-1.88958176101749));
#405=CARTESIAN_POINT('',(-1.25154459614277E-28,-1.06836729249926E-13,-88.2));
#406=CARTESIAN_POINT('',(-1.25154459614277E-28,-1.06836729249926E-13,0.));
#407=CARTESIAN_POINT('',(-1.25154459614277E-28,-4.90779946162085,0.));
#408=CARTESIAN_POINT('',(-1.25154459614277E-28,-1.06836729249926E-13,0.));
#409=CARTESIAN_POINT('',(-1.25154459614277E-28,-1.06836729249926E-13,0.));
#410=CARTESIAN_POINT('',(-1.25154459614277E-28,-1.06836729249926E-13,-57.777664043757));
#411=CARTESIAN_POINT('',(-1.25154459614277E-28,-5.56662237607358,-57.777664043757));
#412=CARTESIAN_POINT('',(-1.25154459614277E-28,-1.06836729249926E-13,-57.83));
#413=CARTESIAN_POINT('',(-1.25154459614277E-28,-1.06836729249926E-13,-56.83));
#414=CARTESIAN_POINT('',(-1.25154459614277E-28,-1.06836729249926E-13,-108.200261314031));
#415=CARTESIAN_POINT('',(-1.25154459614277E-28,-2.50277970464852,-108.200261314031));
#416=CARTESIAN_POINT('',(-8.8817841970025E-16,-1.06836729249926E-13,-105.000261314031));
#417=CARTESIAN_POINT('',(-1.25154459614277E-28,-1.06836729249926E-13,-108.200261314031));
#418=CARTESIAN_POINT('',(0.,0.,0.));
#419=CARTESIAN_POINT('',(2.76463466041476E-14,0.,-8.495));
#420=CARTESIAN_POINT('',(0.,0.,0.));
#421=CARTESIAN_POINT('',(4.44089209850063E-16,-4.44089209850063E-16,0.));
#422=CARTESIAN_POINT('',(-0.892503186268816,-4.44089209850063E-16,0.));
#423=CARTESIAN_POINT('',(-1.78500637253763,-4.44089209850063E-16,0.));
#424=CARTESIAN_POINT('',(-2.67750955880645,-4.44089209850063E-16,0.));
#425=CARTESIAN_POINT('',(-3.57001274507526,-4.44089209850063E-16,4.44089209850063E-16));
#426=CARTESIAN_POINT('',(-3.71369336668825,-4.44089209850063E-16,-0.146764420709215));
#427=CARTESIAN_POINT('',(-3.84917689122106,-4.44089209850063E-16,-0.301230768018443));
#428=CARTESIAN_POINT('',(-3.97599151461111,-4.44089209850063E-16,-0.462889943957597));
#429=CARTESIAN_POINT('',(-4.0937239377727,-4.44089209850063E-16,-0.631184307378255));
#430=CARTESIAN_POINT('',(-4.83642692723683,-4.44089209850063E-16,-1.69285214250747));
#431=CARTESIAN_POINT('',(-5.30075530450616,-4.44089209850063E-16,-3.14929879313675));
#432=CARTESIAN_POINT('',(-5.02952665187115,-4.44089209850063E-16,-4.65371652303951));
#433=CARTESIAN_POINT('',(-3.83248657315212,-4.44089209850063E-16,-6.95199421307814));
#434=CARTESIAN_POINT('',(-2.75524037586774,-4.44089209850063E-16,-8.03660396708754));
#435=CARTESIAN_POINT('',(-1.29566443288656,-4.44089209850063E-16,-8.49099999999999));
#436=CARTESIAN_POINT('',(-1.50034605096482E-15,-4.44089209850063E-16,-8.491));
#437=CARTESIAN_POINT('',(1.0842021724855E-16,-4.44089209850063E-16,-6.36825));
#438=CARTESIAN_POINT('',(1.0842021724855E-16,-4.44089209850063E-16,-4.2455));
#439=CARTESIAN_POINT('',(1.0842021724855E-16,-4.44089209850063E-16,-2.12275));
#440=CARTESIAN_POINT('',(1.0842021724855E-16,-4.44089209850063E-16,0.));
#441=CARTESIAN_POINT('',(0.,0.,0.));
#442=CARTESIAN_POINT('',(2.76463466041476E-14,0.,-8.495));
#443=CARTESIAN_POINT('',(0.,0.,0.));
#444=CARTESIAN_POINT('',(0.,0.,4.44089209850063E-16));
#445=CARTESIAN_POINT('',(-3.57001274507526,0.,4.44089209850063E-16));
#446=CARTESIAN_POINT('',(2.92705178359615E-14,-4.44089209850063E-16,-3.495));
#447=CARTESIAN_POINT('',(-3.57001274507526,-4.44089209850063E-16,2.22044604925031E-16));
#448=CARTESIAN_POINT('CRP',(-4.995,0.,-110.));
#449=CARTESIAN_POINT('',(0.,0.,0.));
#450=CARTESIAN_POINT('',(0.,0.,0.));
#451=CARTESIAN_POINT('',(0.,0.,0.));
#452=CARTESIAN_POINT('',(0.,1.4210854715202E-14,-101.505261314031));
#453=CARTESIAN_POINT('',(0.,0.,0.));
#454=MECHANICAL_DESIGN_GEOMETRIC_PRESENTATION_REPRESENTATION('',(#227,#228),
#458);
#455=MECHANICAL_DESIGN_GEOMETRIC_PRESENTATION_REPRESENTATION('',(#229,#230,
#231,#232,#233,#234,#235),#459);
#456=MECHANICAL_DESIGN_GEOMETRIC_PRESENTATION_REPRESENTATION('',(#236,#237,
#238,#239,#240,#241,#242,#243),#460);
#457=MECHANICAL_DESIGN_GEOMETRIC_PRESENTATION_REPRESENTATION('',(#244,#245,
#246),#461);
#458=(
GEOMETRIC_REPRESENTATION_CONTEXT(3)
GLOBAL_UNCERTAINTY_ASSIGNED_CONTEXT((#462))
GLOBAL_UNIT_ASSIGNED_CONTEXT((#471,#467,#466))
REPRESENTATION_CONTEXT('1590407777017','TOP_LEVEL_ASSEMBLY_PART')
);
#459=(
GEOMETRIC_REPRESENTATION_CONTEXT(3)
GLOBAL_UNCERTAINTY_ASSIGNED_CONTEXT((#463))
GLOBAL_UNIT_ASSIGNED_CONTEXT((#471,#467,#466))
REPRESENTATION_CONTEXT('202453096mod000_00','COMPONENT_PART')
);
#460=(
GEOMETRIC_REPRESENTATION_CONTEXT(3)
GLOBAL_UNCERTAINTY_ASSIGNED_CONTEXT((#464))
GLOBAL_UNIT_ASSIGNED_CONTEXT((#471,#467,#466))
REPRESENTATION_CONTEXT('202506381mod000_00','COMPONENT_PART')
);
#461=(
GEOMETRIC_REPRESENTATION_CONTEXT(3)
GLOBAL_UNCERTAINTY_ASSIGNED_CONTEXT((#465))
GLOBAL_UNIT_ASSIGNED_CONTEXT((#471,#467,#466))
REPRESENTATION_CONTEXT('202453095mod000_00','COMPONENT_PART')
);
#462=UNCERTAINTY_MEASURE_WITH_UNIT(LENGTH_MEASURE(2.E-5),#471,
'DISTANCE_ACCURACY_VALUE','Maximum Tolerance applied to model');
#463=UNCERTAINTY_MEASURE_WITH_UNIT(LENGTH_MEASURE(2.E-5),#471,
'DISTANCE_ACCURACY_VALUE','Maximum Tolerance applied to model');
#464=UNCERTAINTY_MEASURE_WITH_UNIT(LENGTH_MEASURE(2.E-5),#471,
'DISTANCE_ACCURACY_VALUE','Maximum Tolerance applied to model');
#465=UNCERTAINTY_MEASURE_WITH_UNIT(LENGTH_MEASURE(2.E-5),#471,
'DISTANCE_ACCURACY_VALUE','Maximum Tolerance applied to model');
#466=(
NAMED_UNIT(*)
SI_UNIT($,.STERADIAN.)
SOLID_ANGLE_UNIT()
);
#467=(
CONVERSION_BASED_UNIT('DEGREE',#469)
NAMED_UNIT(#468)
PLANE_ANGLE_UNIT()
);
#468=DIMENSIONAL_EXPONENTS(0.,0.,0.,0.,0.,0.,0.);
#469=PLANE_ANGLE_MEASURE_WITH_UNIT(PLANE_ANGLE_MEASURE(0.0174532925),#470);
#470=(
NAMED_UNIT(*)
PLANE_ANGLE_UNIT()
SI_UNIT($,.RADIAN.)
);
#471=(
LENGTH_UNIT()
NAMED_UNIT(*)
SI_UNIT(.MILLI.,.METRE.)
);
ENDSEC;
END-ISO-10303-21;
