ISO-10303-21;
HEADER;
/* Generated by software containing ST-Developer
 * from STEP Tools, Inc. (www.steptools.com) 
 */
/* OPTION: using custom schema-name function */

FILE_DESCRIPTION(
/* description */ (''),
/* implementation_level */ '2;1');

FILE_NAME(
/* name */ '1590407719986.stp',
/* time_stamp */ '2020-05-25T17:25:49+06:00',
/* author */ (''),
/* organization */ ('SMS'),
/* preprocessor_version */ 'ST-DEVELOPER v16.7',
/* originating_system */ 'SIEMENS PLM Software NX 12.0',
/* authorisation */ '');

FILE_SCHEMA (('AUTOMOTIVE_DESIGN { 1 0 10303 214 3 1 1 1 }'));
ENDSEC;

DATA;
#10=CONTEXT_DEPENDENT_SHAPE_REPRESENTATION(#16,#50);
#11=CONTEXT_DEPENDENT_SHAPE_REPRESENTATION(#17,#51);
#12=CONTEXT_DEPENDENT_SHAPE_REPRESENTATION(#18,#52);
#13=NEXT_ASSEMBLY_USAGE_OCCURRENCE('1001',' ',
'NXMOD-TM01_00-000-00-R216F_25A32S_135_PP_BAS',#56,#55,$);
#14=NEXT_ASSEMBLY_USAGE_OCCURRENCE('1002',' ',
'NXMOD-TM01_00-000-00-MI_R216F_2560_R1_BAS',#56,#54,$);
#15=NEXT_ASSEMBLY_USAGE_OCCURRENCE('1003',' ',
'NXMOD-TM01_00-000-00-R216F_25A32S_135_ACN_BAS',#56,#53,$);
#16=(
REPRESENTATION_RELATIONSHIP(' ',' ',#81,#82)
REPRESENTATION_RELATIONSHIP_WITH_TRANSFORMATION(#19)
SHAPE_REPRESENTATION_RELATIONSHIP()
);
#17=(
REPRESENTATION_RELATIONSHIP(' ',' ',#80,#82)
REPRESENTATION_RELATIONSHIP_WITH_TRANSFORMATION(#20)
SHAPE_REPRESENTATION_RELATIONSHIP()
);
#18=(
REPRESENTATION_RELATIONSHIP(' ',' ',#79,#82)
REPRESENTATION_RELATIONSHIP_WITH_TRANSFORMATION(#21)
SHAPE_REPRESENTATION_RELATIONSHIP()
);
#19=ITEM_DEFINED_TRANSFORMATION(' ',' ',#322,#357);
#20=ITEM_DEFINED_TRANSFORMATION(' ',' ',#322,#358);
#21=ITEM_DEFINED_TRANSFORMATION(' ',' ',#322,#359);
#22=ADVANCED_BREP_SHAPE_REPRESENTATION('202505983mod000_00-None',(#102),
#511);
#23=ADVANCED_BREP_SHAPE_REPRESENTATION('202452971mod000_00-None',(#101),
#510);
#24=CONSTRUCTIVE_GEOMETRY_REPRESENTATION_RELATIONSHIP(
'supplemental geometry','',#79,#28);
#25=CONSTRUCTIVE_GEOMETRY_REPRESENTATION_RELATIONSHIP(
'supplemental geometry','',#80,#29);
#26=CONSTRUCTIVE_GEOMETRY_REPRESENTATION_RELATIONSHIP(
'supplemental geometry','',#81,#30);
#27=CONSTRUCTIVE_GEOMETRY_REPRESENTATION_RELATIONSHIP(
'supplemental geometry','',#82,#31);
#28=CONSTRUCTIVE_GEOMETRY_REPRESENTATION('supplemental geometry',(#356),
#512);
#29=CONSTRUCTIVE_GEOMETRY_REPRESENTATION('supplemental geometry',(#350,
#351,#352),#511);
#30=CONSTRUCTIVE_GEOMETRY_REPRESENTATION('supplemental geometry',(#324,
#325,#326),#510);
#31=CONSTRUCTIVE_GEOMETRY_REPRESENTATION('supplemental geometry',(#323),
#509);
#32=SHAPE_REPRESENTATION_RELATIONSHIP('None',
'relationship between 202452972mod000_00-None and 202452972mod000_00-N
one',#79,#38);
#33=SHAPE_REPRESENTATION_RELATIONSHIP('None',
'relationship between 202505983mod000_00-None and 202505983mod000_00-N
one',#80,#22);
#34=SHAPE_REPRESENTATION_RELATIONSHIP('None',
'relationship between 202505983mod000_00-None and 202505983mod000_00-N
one',#80,#39);
#35=SHAPE_REPRESENTATION_RELATIONSHIP('None',
'relationship between 202452971mod000_00-None and 202452971mod000_00-N
one',#81,#23);
#36=SHAPE_REPRESENTATION_RELATIONSHIP('None',
'relationship between 202452971mod000_00-None and 202452971mod000_00-N
one',#81,#40);
#37=SHAPE_REPRESENTATION_RELATIONSHIP('None',
'relationship between 202452970mod000_00-None and 202452970mod000_00-N
one',#82,#41);
#38=GEOMETRICALLY_BOUNDED_WIREFRAME_SHAPE_REPRESENTATION(
'202452972mod000_00-None',(#83),#512);
#39=GEOMETRICALLY_BOUNDED_WIREFRAME_SHAPE_REPRESENTATION(
'202505983mod000_00-None',(#84),#511);
#40=GEOMETRICALLY_BOUNDED_WIREFRAME_SHAPE_REPRESENTATION(
'202452971mod000_00-None',(#85),#510);
#41=GEOMETRICALLY_BOUNDED_WIREFRAME_SHAPE_REPRESENTATION(
'202452970mod000_00-None',(#86),#509);
#42=SHAPE_DEFINITION_REPRESENTATION(#46,#79);
#43=SHAPE_DEFINITION_REPRESENTATION(#47,#80);
#44=SHAPE_DEFINITION_REPRESENTATION(#48,#81);
#45=SHAPE_DEFINITION_REPRESENTATION(#49,#82);
#46=PRODUCT_DEFINITION_SHAPE('','',#53);
#47=PRODUCT_DEFINITION_SHAPE('','',#54);
#48=PRODUCT_DEFINITION_SHAPE('','',#55);
#49=PRODUCT_DEFINITION_SHAPE('','',#56);
#50=PRODUCT_DEFINITION_SHAPE(' ','NAUO PRDDFN',#13);
#51=PRODUCT_DEFINITION_SHAPE(' ','NAUO PRDDFN',#14);
#52=PRODUCT_DEFINITION_SHAPE(' ','NAUO PRDDFN',#15);
#53=PRODUCT_DEFINITION(' ','',#61,#57);
#54=PRODUCT_DEFINITION(' ','',#62,#58);
#55=PRODUCT_DEFINITION(' ','',#63,#59);
#56=PRODUCT_DEFINITION(' ','',#64,#60);
#57=PRODUCT_DEFINITION_CONTEXT('part definition',#78,'design');
#58=PRODUCT_DEFINITION_CONTEXT('part definition',#78,'design');
#59=PRODUCT_DEFINITION_CONTEXT('part definition',#78,'design');
#60=PRODUCT_DEFINITION_CONTEXT('part definition',#78,'design');
#61=PRODUCT_DEFINITION_FORMATION_WITH_SPECIFIED_SOURCE(' ',' ',#69,
 .NOT_KNOWN.);
#62=PRODUCT_DEFINITION_FORMATION_WITH_SPECIFIED_SOURCE(' ',' ',#70,
 .NOT_KNOWN.);
#63=PRODUCT_DEFINITION_FORMATION_WITH_SPECIFIED_SOURCE(' ',' ',#71,
 .NOT_KNOWN.);
#64=PRODUCT_DEFINITION_FORMATION_WITH_SPECIFIED_SOURCE(' ',' ',#72,
 .NOT_KNOWN.);
#65=PRODUCT_RELATED_PRODUCT_CATEGORY('part','',(#69));
#66=PRODUCT_RELATED_PRODUCT_CATEGORY('part','',(#70));
#67=PRODUCT_RELATED_PRODUCT_CATEGORY('part','',(#71));
#68=PRODUCT_RELATED_PRODUCT_CATEGORY('part','',(#72));
#69=PRODUCT('ASSEMBLY_CONSTRUCTION','202452972mod000_00',' ',(#73));
#70=PRODUCT('202505983mod000_00','202505983mod000_00','MASTER_INSERT',(#74));
#71=PRODUCT('202452971mod000_00','202452971mod000_00','NOCUT',(#75));
#72=PRODUCT('202452970mod000_00','202452970mod000_00',' ',(#76));
#73=PRODUCT_CONTEXT(' ',#78,'mechanical');
#74=PRODUCT_CONTEXT(' ',#78,'mechanical');
#75=PRODUCT_CONTEXT(' ',#78,'mechanical');
#76=PRODUCT_CONTEXT(' ',#78,'mechanical');
#77=APPLICATION_PROTOCOL_DEFINITION('international standard',
'automotive_design',2010,#78);
#78=APPLICATION_CONTEXT(
'core data for automotive mechanical design processes');
#79=SHAPE_REPRESENTATION('202452972mod000_00-None',(#322),#512);
#80=SHAPE_REPRESENTATION('202505983mod000_00-None',(#322),#511);
#81=SHAPE_REPRESENTATION('202452971mod000_00-None',(#322),#510);
#82=SHAPE_REPRESENTATION('202452970mod000_00-None',(#322,#357,#358,#359),
#509);
#83=GEOMETRIC_CURVE_SET('None',(#499,#500));
#84=GEOMETRIC_CURVE_SET('None',(#479,#480,#481,#89));
#85=GEOMETRIC_CURVE_SET('None',(#439,#440,#441));
#86=GEOMETRIC_CURVE_SET('None',(#437));
#87=DRAUGHTING_PRE_DEFINED_COLOUR('blue');
#88=DRAUGHTING_PRE_DEFINED_COLOUR('white');
#89=TRIMMED_CURVE('CUTTING EDGE LINE',#90,(PARAMETER_VALUE(0.)),(
PARAMETER_VALUE(1.)),.T.,.PARAMETER.);
#90=(
BOUNDED_CURVE()
B_SPLINE_CURVE(3,(#482,#483,#484,#485,#486,#487,#488,#489,#490,#491),
 .UNSPECIFIED.,.T.,.F.)
B_SPLINE_CURVE_WITH_KNOTS((4,3,3,4),(0.,0.334160566862557,0.532287040305357,
1.),.UNSPECIFIED.)
CURVE()
GEOMETRIC_REPRESENTATION_ITEM()
RATIONAL_B_SPLINE_CURVE((1.,1.,1.,1.,1.,1.,1.,0.673335446421255,0.673335446421255,
1.))
REPRESENTATION_ITEM('CUTTING EDGE LINE')
);
#91=SURFACE_STYLE_USAGE(.BOTH.,#93);
#92=SURFACE_STYLE_USAGE(.BOTH.,#94);
#93=SURFACE_SIDE_STYLE('',(#95));
#94=SURFACE_SIDE_STYLE('',(#96));
#95=SURFACE_STYLE_FILL_AREA(#97);
#96=SURFACE_STYLE_FILL_AREA(#98);
#97=FILL_AREA_STYLE('',(#99));
#98=FILL_AREA_STYLE('',(#100));
#99=FILL_AREA_STYLE_COLOUR('',#319);
#100=FILL_AREA_STYLE_COLOUR('',#321);
#101=MANIFOLD_SOLID_BREP('NOCUT',#103);
#102=MANIFOLD_SOLID_BREP('CUT',#104);
#103=CLOSED_SHELL('',(#120,#121,#122,#123,#124,#125,#126,#127,#128,#129,
#130,#131));
#104=CLOSED_SHELL('',(#132,#133));
#105=SPHERICAL_SURFACE('',#349,10.5625);
#106=SPHERICAL_SURFACE('',#354,12.496);
#107=TOROIDAL_SURFACE('',#344,15.5625,5.);
#108=TOROIDAL_SURFACE('',#345,15.7801816503182,2.);
#109=CONICAL_SURFACE('',#337,10.5625,2.03546624356267);
#110=CONICAL_SURFACE('',#343,13.9975,44.9999999999998);
#111=PLANE('',#331);
#112=PLANE('',#340);
#113=PLANE('',#346);
#114=PLANE('',#348);
#115=PLANE('',#355);
#116=FACE_OUTER_BOUND('',#159,.T.);
#117=FACE_OUTER_BOUND('',#176,.T.);
#118=FACE_OUTER_BOUND('',#179,.T.);
#119=FACE_OUTER_BOUND('',#180,.T.);
#120=ADVANCED_FACE('',(#137,#138),#134,.T.);
#121=ADVANCED_FACE('',(#116),#111,.T.);
#122=ADVANCED_FACE('',(#139,#140),#135,.T.);
#123=ADVANCED_FACE('',(#141,#142),#109,.T.);
#124=ADVANCED_FACE('',(#143,#144),#112,.F.);
#125=ADVANCED_FACE('',(#145,#146),#136,.T.);
#126=ADVANCED_FACE('',(#147,#148),#110,.T.);
#127=ADVANCED_FACE('',(#149,#150),#107,.F.);
#128=ADVANCED_FACE('',(#151,#152),#108,.F.);
#129=ADVANCED_FACE('',(#153,#154),#113,.F.);
#130=ADVANCED_FACE('',(#117),#114,.F.);
#131=ADVANCED_FACE('',(#155,#156),#105,.T.);
#132=ADVANCED_FACE('',(#118),#106,.T.);
#133=ADVANCED_FACE('',(#119),#115,.T.);
#134=CYLINDRICAL_SURFACE('',#329,10.4975);
#135=CYLINDRICAL_SURFACE('',#334,10.5625);
#136=CYLINDRICAL_SURFACE('',#342,15.996);
#137=FACE_BOUND('',#157,.T.);
#138=FACE_BOUND('',#158,.T.);
#139=FACE_BOUND('',#160,.T.);
#140=FACE_BOUND('',#161,.T.);
#141=FACE_BOUND('',#162,.T.);
#142=FACE_BOUND('',#163,.T.);
#143=FACE_BOUND('',#164,.T.);
#144=FACE_BOUND('',#165,.T.);
#145=FACE_BOUND('',#166,.T.);
#146=FACE_BOUND('',#167,.T.);
#147=FACE_BOUND('',#168,.T.);
#148=FACE_BOUND('',#169,.T.);
#149=FACE_BOUND('',#170,.T.);
#150=FACE_BOUND('',#171,.T.);
#151=FACE_BOUND('',#172,.T.);
#152=FACE_BOUND('',#173,.T.);
#153=FACE_BOUND('',#174,.T.);
#154=FACE_BOUND('',#175,.T.);
#155=FACE_BOUND('',#177,.T.);
#156=FACE_BOUND('',#178,.T.);
#157=EDGE_LOOP('',(#181));
#158=EDGE_LOOP('',(#182));
#159=EDGE_LOOP('',(#183));
#160=EDGE_LOOP('',(#184));
#161=EDGE_LOOP('',(#185));
#162=EDGE_LOOP('',(#186));
#163=EDGE_LOOP('',(#187));
#164=EDGE_LOOP('',(#188));
#165=EDGE_LOOP('',(#189));
#166=EDGE_LOOP('',(#190));
#167=EDGE_LOOP('',(#191));
#168=EDGE_LOOP('',(#192));
#169=EDGE_LOOP('',(#193));
#170=EDGE_LOOP('',(#194));
#171=EDGE_LOOP('',(#195));
#172=EDGE_LOOP('',(#196));
#173=EDGE_LOOP('',(#197));
#174=EDGE_LOOP('',(#198));
#175=EDGE_LOOP('',(#199));
#176=EDGE_LOOP('',(#200));
#177=EDGE_LOOP('',(#201));
#178=EDGE_LOOP('',(#202));
#179=EDGE_LOOP('',(#203));
#180=EDGE_LOOP('',(#204));
#181=ORIENTED_EDGE('',*,*,#217,.F.);
#182=ORIENTED_EDGE('',*,*,#218,.F.);
#183=ORIENTED_EDGE('',*,*,#219,.T.);
#184=ORIENTED_EDGE('',*,*,#220,.T.);
#185=ORIENTED_EDGE('',*,*,#221,.T.);
#186=ORIENTED_EDGE('',*,*,#222,.T.);
#187=ORIENTED_EDGE('',*,*,#223,.T.);
#188=ORIENTED_EDGE('',*,*,#224,.T.);
#189=ORIENTED_EDGE('',*,*,#225,.F.);
#190=ORIENTED_EDGE('',*,*,#226,.F.);
#191=ORIENTED_EDGE('',*,*,#225,.T.);
#192=ORIENTED_EDGE('',*,*,#226,.T.);
#193=ORIENTED_EDGE('',*,*,#219,.F.);
#194=ORIENTED_EDGE('',*,*,#221,.F.);
#195=ORIENTED_EDGE('',*,*,#223,.F.);
#196=ORIENTED_EDGE('',*,*,#222,.F.);
#197=ORIENTED_EDGE('',*,*,#224,.F.);
#198=ORIENTED_EDGE('',*,*,#218,.T.);
#199=ORIENTED_EDGE('',*,*,#220,.F.);
#200=ORIENTED_EDGE('',*,*,#227,.F.);
#201=ORIENTED_EDGE('',*,*,#217,.T.);
#202=ORIENTED_EDGE('',*,*,#227,.T.);
#203=ORIENTED_EDGE('',*,*,#228,.T.);
#204=ORIENTED_EDGE('',*,*,#228,.F.);
#205=VERTEX_POINT('',#446);
#206=VERTEX_POINT('',#448);
#207=VERTEX_POINT('',#451);
#208=VERTEX_POINT('',#454);
#209=VERTEX_POINT('',#456);
#210=VERTEX_POINT('',#459);
#211=VERTEX_POINT('',#461);
#212=VERTEX_POINT('',#464);
#213=VERTEX_POINT('',#466);
#214=VERTEX_POINT('',#469);
#215=VERTEX_POINT('',#476);
#216=VERTEX_POINT('',#496);
#217=EDGE_CURVE('',#205,#205,#229,.T.);
#218=EDGE_CURVE('',#206,#206,#230,.T.);
#219=EDGE_CURVE('',#207,#207,#231,.T.);
#220=EDGE_CURVE('',#208,#208,#232,.T.);
#221=EDGE_CURVE('',#209,#209,#233,.T.);
#222=EDGE_CURVE('',#210,#210,#234,.T.);
#223=EDGE_CURVE('',#211,#211,#235,.T.);
#224=EDGE_CURVE('',#212,#212,#236,.T.);
#225=EDGE_CURVE('',#213,#213,#237,.T.);
#226=EDGE_CURVE('',#214,#214,#238,.T.);
#227=EDGE_CURVE('',#215,#215,#239,.T.);
#228=EDGE_CURVE('',#216,#216,#240,.T.);
#229=CIRCLE('',#327,10.4975);
#230=CIRCLE('',#328,10.4975);
#231=CIRCLE('',#330,13.9975);
#232=CIRCLE('',#332,10.5625);
#233=CIRCLE('',#333,10.5625);
#234=CIRCLE('',#335,13.7814435849752);
#235=CIRCLE('',#336,10.5656548366425);
#236=CIRCLE('',#338,15.7801816503182);
#237=CIRCLE('',#339,15.996);
#238=CIRCLE('',#341,15.996);
#239=CIRCLE('',#347,5.52868937904817);
#240=CIRCLE('',#353,10.9637582858252);
#241=CURVE_STYLE('',#250,POSITIVE_LENGTH_MEASURE(0.18),#318);
#242=CURVE_STYLE('',#251,POSITIVE_LENGTH_MEASURE(0.18),#318);
#243=CURVE_STYLE('',#252,POSITIVE_LENGTH_MEASURE(0.18),#318);
#244=CURVE_STYLE('',#253,POSITIVE_LENGTH_MEASURE(0.18),#318);
#245=CURVE_STYLE('',#254,POSITIVE_LENGTH_MEASURE(0.18),#87);
#246=CURVE_STYLE('',#255,POSITIVE_LENGTH_MEASURE(0.18),#320);
#247=CURVE_STYLE('',#256,POSITIVE_LENGTH_MEASURE(0.18),#318);
#248=CURVE_STYLE('',#257,POSITIVE_LENGTH_MEASURE(0.18),#318);
#249=CURVE_STYLE('',#258,POSITIVE_LENGTH_MEASURE(0.18),#318);
#250=DRAUGHTING_PRE_DEFINED_CURVE_FONT('continuous');
#251=DRAUGHTING_PRE_DEFINED_CURVE_FONT('continuous');
#252=DRAUGHTING_PRE_DEFINED_CURVE_FONT('continuous');
#253=DRAUGHTING_PRE_DEFINED_CURVE_FONT('continuous');
#254=DRAUGHTING_PRE_DEFINED_CURVE_FONT('continuous');
#255=DRAUGHTING_PRE_DEFINED_CURVE_FONT('continuous');
#256=DRAUGHTING_PRE_DEFINED_CURVE_FONT('continuous');
#257=DRAUGHTING_PRE_DEFINED_CURVE_FONT('continuous');
#258=DRAUGHTING_PRE_DEFINED_CURVE_FONT('continuous');
#259=PRESENTATION_LAYER_ASSIGNMENT('1','Layer 1',(#437,#323,#439,#440,#441,
#324,#325,#326,#101,#479,#480,#481,#89,#350,#351,#352,#102,#499,#500,#356));
#260=STYLED_ITEM('',(#280),#437);
#261=STYLED_ITEM('',(#281),#323);
#262=STYLED_ITEM('',(#282),#439);
#263=STYLED_ITEM('',(#283),#440);
#264=STYLED_ITEM('',(#284),#441);
#265=STYLED_ITEM('',(#285),#324);
#266=STYLED_ITEM('',(#286),#325);
#267=STYLED_ITEM('',(#287),#326);
#268=STYLED_ITEM('',(#288),#101);
#269=STYLED_ITEM('',(#289),#479);
#270=STYLED_ITEM('',(#290),#480);
#271=STYLED_ITEM('',(#291),#481);
#272=STYLED_ITEM('',(#292),#89);
#273=STYLED_ITEM('',(#293),#350);
#274=STYLED_ITEM('',(#294),#351);
#275=STYLED_ITEM('',(#295),#352);
#276=STYLED_ITEM('',(#296),#102);
#277=STYLED_ITEM('',(#297),#499);
#278=STYLED_ITEM('',(#298),#500);
#279=STYLED_ITEM('',(#299),#356);
#280=PRESENTATION_STYLE_ASSIGNMENT((#300));
#281=PRESENTATION_STYLE_ASSIGNMENT((#241));
#282=PRESENTATION_STYLE_ASSIGNMENT((#301));
#283=PRESENTATION_STYLE_ASSIGNMENT((#302));
#284=PRESENTATION_STYLE_ASSIGNMENT((#303));
#285=PRESENTATION_STYLE_ASSIGNMENT((#242));
#286=PRESENTATION_STYLE_ASSIGNMENT((#243));
#287=PRESENTATION_STYLE_ASSIGNMENT((#244));
#288=PRESENTATION_STYLE_ASSIGNMENT((#91));
#289=PRESENTATION_STYLE_ASSIGNMENT((#304));
#290=PRESENTATION_STYLE_ASSIGNMENT((#305));
#291=PRESENTATION_STYLE_ASSIGNMENT((#306));
#292=PRESENTATION_STYLE_ASSIGNMENT((#245));
#293=PRESENTATION_STYLE_ASSIGNMENT((#246));
#294=PRESENTATION_STYLE_ASSIGNMENT((#247));
#295=PRESENTATION_STYLE_ASSIGNMENT((#248));
#296=PRESENTATION_STYLE_ASSIGNMENT((#92));
#297=PRESENTATION_STYLE_ASSIGNMENT((#307));
#298=PRESENTATION_STYLE_ASSIGNMENT((#308));
#299=PRESENTATION_STYLE_ASSIGNMENT((#249));
#300=POINT_STYLE('',#309,POSITIVE_LENGTH_MEASURE(3.),#318);
#301=POINT_STYLE('',#310,POSITIVE_LENGTH_MEASURE(3.),#318);
#302=POINT_STYLE('',#311,POSITIVE_LENGTH_MEASURE(3.),#318);
#303=POINT_STYLE('',#312,POSITIVE_LENGTH_MEASURE(3.),#318);
#304=POINT_STYLE('',#313,POSITIVE_LENGTH_MEASURE(3.),#318);
#305=POINT_STYLE('',#314,POSITIVE_LENGTH_MEASURE(3.),#318);
#306=POINT_STYLE('',#315,POSITIVE_LENGTH_MEASURE(3.),#320);
#307=POINT_STYLE('',#316,POSITIVE_LENGTH_MEASURE(3.),#88);
#308=POINT_STYLE('',#317,POSITIVE_LENGTH_MEASURE(3.),#318);
#309=PRE_DEFINED_POINT_MARKER_SYMBOL('plus');
#310=PRE_DEFINED_POINT_MARKER_SYMBOL('plus');
#311=PRE_DEFINED_POINT_MARKER_SYMBOL('plus');
#312=PRE_DEFINED_POINT_MARKER_SYMBOL('plus');
#313=PRE_DEFINED_POINT_MARKER_SYMBOL('plus');
#314=PRE_DEFINED_POINT_MARKER_SYMBOL('plus');
#315=PRE_DEFINED_POINT_MARKER_SYMBOL('plus');
#316=PRE_DEFINED_POINT_MARKER_SYMBOL('plus');
#317=PRE_DEFINED_POINT_MARKER_SYMBOL('plus');
#318=COLOUR_RGB('Medium Maroon',0.6,0.4,0.4);
#319=COLOUR_RGB('Medium Gray',0.490196078431373,0.490196078431373,0.490196078431373);
#320=COLOUR_RGB('Strong Stone',0.576470588235294,0.54508278019379,0.392156862745098);
#321=COLOUR_RGB('Light Gray',0.8,0.8,0.8);
#322=AXIS2_PLACEMENT_3D('',#436,#360,#361);
#323=AXIS2_PLACEMENT_3D('',#438,#362,#363);
#324=AXIS2_PLACEMENT_3D('PCS',#442,#364,#365);
#325=AXIS2_PLACEMENT_3D('MCS',#443,#366,#367);
#326=AXIS2_PLACEMENT_3D('CSW',#444,#368,#369);
#327=AXIS2_PLACEMENT_3D('',#445,#370,#371);
#328=AXIS2_PLACEMENT_3D('',#447,#372,#373);
#329=AXIS2_PLACEMENT_3D('',#449,#374,#375);
#330=AXIS2_PLACEMENT_3D('',#450,#376,#377);
#331=AXIS2_PLACEMENT_3D('',#452,#378,#379);
#332=AXIS2_PLACEMENT_3D('',#453,#380,#381);
#333=AXIS2_PLACEMENT_3D('',#455,#382,#383);
#334=AXIS2_PLACEMENT_3D('',#457,#384,#385);
#335=AXIS2_PLACEMENT_3D('',#458,#386,#387);
#336=AXIS2_PLACEMENT_3D('',#460,#388,#389);
#337=AXIS2_PLACEMENT_3D('',#462,#390,#391);
#338=AXIS2_PLACEMENT_3D('',#463,#392,#393);
#339=AXIS2_PLACEMENT_3D('',#465,#394,#395);
#340=AXIS2_PLACEMENT_3D('',#467,#396,#397);
#341=AXIS2_PLACEMENT_3D('',#468,#398,#399);
#342=AXIS2_PLACEMENT_3D('',#470,#400,#401);
#343=AXIS2_PLACEMENT_3D('',#471,#402,#403);
#344=AXIS2_PLACEMENT_3D('',#472,#404,#405);
#345=AXIS2_PLACEMENT_3D('',#473,#406,#407);
#346=AXIS2_PLACEMENT_3D('',#474,#408,#409);
#347=AXIS2_PLACEMENT_3D('',#475,#410,#411);
#348=AXIS2_PLACEMENT_3D('',#477,#412,#413);
#349=AXIS2_PLACEMENT_3D('',#478,#414,#415);
#350=AXIS2_PLACEMENT_3D('MCS',#492,#416,#417);
#351=AXIS2_PLACEMENT_3D('PCS',#493,#418,#419);
#352=AXIS2_PLACEMENT_3D('CIP',#494,#420,#421);
#353=AXIS2_PLACEMENT_3D('',#495,#422,#423);
#354=AXIS2_PLACEMENT_3D('',#497,#424,#425);
#355=AXIS2_PLACEMENT_3D('',#498,#426,#427);
#356=AXIS2_PLACEMENT_3D('',#501,#428,#429);
#357=AXIS2_PLACEMENT_3D('',#502,#430,#431);
#358=AXIS2_PLACEMENT_3D('',#503,#432,#433);
#359=AXIS2_PLACEMENT_3D('',#504,#434,#435);
#360=DIRECTION('',(0.,0.,1.));
#361=DIRECTION('',(1.,0.,0.));
#362=DIRECTION('',(0.,0.,1.));
#363=DIRECTION('',(1.,0.,0.));
#364=DIRECTION('',(0.,0.,1.));
#365=DIRECTION('',(1.,0.,0.));
#366=DIRECTION('',(0.,0.,1.));
#367=DIRECTION('',(1.,0.,0.));
#368=DIRECTION('',(0.,0.,1.));
#369=DIRECTION('',(1.,0.,0.));
#370=DIRECTION('',(0.,0.,-1.));
#371=DIRECTION('',(1.05430982812427E-14,1.,0.));
#372=DIRECTION('',(0.,0.,1.));
#373=DIRECTION('',(1.05430982812427E-14,1.,0.));
#374=DIRECTION('',(0.,0.,-1.));
#375=DIRECTION('',(-1.05430982812427E-14,-1.,0.));
#376=DIRECTION('',(0.,0.,1.));
#377=DIRECTION('',(1.05430982812427E-14,1.,0.));
#378=DIRECTION('',(0.,0.,1.));
#379=DIRECTION('',(1.05430982812427E-14,1.,0.));
#380=DIRECTION('',(0.,0.,1.));
#381=DIRECTION('',(1.05430982812427E-14,1.,0.));
#382=DIRECTION('',(0.,0.,-1.));
#383=DIRECTION('',(1.05430982812427E-14,1.,0.));
#384=DIRECTION('',(0.,0.,1.));
#385=DIRECTION('',(1.05430982812427E-14,1.,0.));
#386=DIRECTION('',(0.,0.,-1.));
#387=DIRECTION('',(1.05430982812427E-14,1.,0.));
#388=DIRECTION('',(0.,0.,1.));
#389=DIRECTION('',(1.05430982812427E-14,1.,0.));
#390=DIRECTION('',(0.,0.,1.));
#391=DIRECTION('',(1.05430982812427E-14,1.,-1.20406703289872E-15));
#392=DIRECTION('',(0.,0.,1.));
#393=DIRECTION('',(1.05430982812427E-14,1.,0.));
#394=DIRECTION('',(0.,0.,1.));
#395=DIRECTION('',(1.05430982812427E-14,1.,0.));
#396=DIRECTION('',(0.,0.,1.));
#397=DIRECTION('',(1.0543649286987E-14,1.,0.));
#398=DIRECTION('',(0.,0.,1.));
#399=DIRECTION('',(-1.05430982812427E-14,-1.,0.));
#400=DIRECTION('',(0.,0.,1.));
#401=DIRECTION('',(1.05430982812427E-14,1.,0.));
#402=DIRECTION('',(0.,0.,-1.));
#403=DIRECTION('',(-1.05430982812427E-14,-1.,2.73724300263354E-17));
#404=DIRECTION('',(0.,0.,1.));
#405=DIRECTION('',(1.05430982812427E-14,1.,0.));
#406=DIRECTION('',(0.,0.,1.));
#407=DIRECTION('',(1.05430982812427E-14,1.,0.));
#408=DIRECTION('',(0.,0.,1.));
#409=DIRECTION('',(1.0543649286987E-14,1.,0.));
#410=DIRECTION('',(0.,0.,1.));
#411=DIRECTION('',(1.05430982812427E-14,1.,0.));
#412=DIRECTION('',(0.,0.,1.));
#413=DIRECTION('',(1.05430982812427E-14,1.,0.));
#414=DIRECTION('',(-1.05430982812427E-14,-1.,0.));
#415=DIRECTION('',(0.,0.,1.));
#416=DIRECTION('',(0.,0.,1.));
#417=DIRECTION('',(1.,0.,0.));
#418=DIRECTION('',(0.,0.,1.));
#419=DIRECTION('',(1.,0.,0.));
#420=DIRECTION('',(0.,0.,1.));
#421=DIRECTION('',(1.,0.,0.));
#422=DIRECTION('',(0.,0.,-1.));
#423=DIRECTION('',(-1.,0.,0.));
#424=DIRECTION('',(6.12323399573676E-17,0.,-1.));
#425=DIRECTION('',(1.,0.,0.));
#426=DIRECTION('',(0.,0.,1.));
#427=DIRECTION('',(1.,0.,0.));
#428=DIRECTION('',(0.,0.,1.));
#429=DIRECTION('',(1.,0.,0.));
#430=DIRECTION('',(0.,0.,1.));
#431=DIRECTION('',(1.,0.,0.));
#432=DIRECTION('',(0.,0.,1.));
#433=DIRECTION('',(1.,0.,0.));
#434=DIRECTION('',(0.,0.,1.));
#435=DIRECTION('',(1.,0.,0.));
#436=CARTESIAN_POINT('',(0.,0.,0.));
#437=CARTESIAN_POINT('',(0.,0.,0.));
#438=CARTESIAN_POINT('',(0.,0.,0.));
#439=CARTESIAN_POINT('CSW',(3.25768429880564E-14,-2.09166017839379E-13,
-196.5045));
#440=CARTESIAN_POINT('MCS',(0.,0.,-60.));
#441=CARTESIAN_POINT('PCS',(-2.16138458215445E-27,-2.05004688801942E-13,
0.));
#442=CARTESIAN_POINT('',(-2.16138458215445E-27,-2.05004688801942E-13,0.));
#443=CARTESIAN_POINT('',(0.,0.,-60.));
#444=CARTESIAN_POINT('',(3.25768429880564E-14,-2.09166017839379E-13,-196.5045));
#445=CARTESIAN_POINT('',(-2.16138458215445E-27,-2.05004688801942E-13,-203.67));
#446=CARTESIAN_POINT('',(1.10676174207343E-13,10.4974999999998,-203.67));
#447=CARTESIAN_POINT('',(-2.16138458215445E-27,-2.05004688801942E-13,-173.5));
#448=CARTESIAN_POINT('',(1.10676174207343E-13,10.4974999999998,-173.5));
#449=CARTESIAN_POINT('',(-2.16138458215445E-27,-2.05004688801942E-13,-190.947678340341));
#450=CARTESIAN_POINT('',(-2.16138458215445E-27,-2.05004688801942E-13,-2.77555756156289E-14));
#451=CARTESIAN_POINT('',(1.47577018191693E-13,13.9974999999998,-2.77555756156289E-14));
#452=CARTESIAN_POINT('',(-2.16138458215445E-27,-2.05004688801942E-13,-2.77555756156289E-14));
#453=CARTESIAN_POINT('',(-2.16138458215445E-27,-2.05004688801942E-13,-173.5));
#454=CARTESIAN_POINT('',(1.11361475595624E-13,10.5624999999998,-173.5));
#455=CARTESIAN_POINT('',(-2.16138458215445E-27,-2.05004688801942E-13,-172.588823311355));
#456=CARTESIAN_POINT('',(1.11361475595624E-13,10.5624999999998,-172.588823311355));
#457=CARTESIAN_POINT('',(-2.16138458215445E-27,-2.05004688801942E-13,-58.7731847555535));
#458=CARTESIAN_POINT('',(-2.16138458215445E-27,-2.05004688801942E-13,-81.9289637687588));
#459=CARTESIAN_POINT('',(1.45299114173793E-13,13.781443584975,-81.9289637687588));
#460=CARTESIAN_POINT('',(-2.16138458215445E-27,-2.05004688801942E-13,-172.411232733252));
#461=CARTESIAN_POINT('',(1.11394737348407E-13,10.5656548366423,-172.411232733252));
#462=CARTESIAN_POINT('',(-2.16138458215445E-27,-2.05004688801942E-13,-172.5));
#463=CARTESIAN_POINT('',(-2.16138458215445E-27,-2.05004688801942E-13,-80.));
#464=CARTESIAN_POINT('',(1.66372006035165E-13,15.780181650318,-80.));
#465=CARTESIAN_POINT('',(-2.16138458215445E-27,-2.05004688801942E-13,-80.));
#466=CARTESIAN_POINT('',(1.68647400106756E-13,15.9959999999998,-80.));
#467=CARTESIAN_POINT('',(-13.85,-5.89827776067301E-14,-80.));
#468=CARTESIAN_POINT('',(-2.16138458215445E-27,-2.05004688801942E-13,-1.99850000000004));
#469=CARTESIAN_POINT('',(-1.68647400106761E-13,-15.9960000000002,-1.99850000000004));
#470=CARTESIAN_POINT('',(-2.16138458215445E-27,-2.05004688801942E-13,-58.7731847555535));
#471=CARTESIAN_POINT('',(-2.16138458215445E-27,-2.05004688801942E-13,-2.77555756156289E-14));
#472=CARTESIAN_POINT('',(-2.16138458215445E-27,-2.05004688801942E-13,-172.588823311355));
#473=CARTESIAN_POINT('',(-2.16138458215445E-27,-2.05004688801942E-13,-82.));
#474=CARTESIAN_POINT('',(-10.4975,-9.43285145945963E-14,-173.5));
#475=CARTESIAN_POINT('',(-2.16138458215445E-27,-2.05004688801942E-13,-211.5));
#476=CARTESIAN_POINT('',(5.82895154897654E-14,5.52868937904796,-211.5));
#477=CARTESIAN_POINT('',(-2.16138458215445E-27,-2.05004688801942E-13,-211.5));
#478=CARTESIAN_POINT('',(-2.16138458215445E-27,-2.05004688801942E-13,-202.5));
#479=CARTESIAN_POINT('CIP',(0.,0.,-18.4955));
#480=CARTESIAN_POINT('PCS',(0.,0.,0.));
#481=CARTESIAN_POINT('MCS',(0.,0.,0.));
#482=CARTESIAN_POINT('',(0.,0.,-18.4915000003416));
#483=CARTESIAN_POINT('',(0.,0.,-12.3276666668944));
#484=CARTESIAN_POINT('',(0.,0.,-6.1638333334472));
#485=CARTESIAN_POINT('',(0.,2.22044604925031E-16,-1.77635683940025E-15));
#486=CARTESIAN_POINT('',(-3.65458609527506,4.44089209850063E-16,-3.5527136788005E-15));
#487=CARTESIAN_POINT('',(-7.30917219055011,4.44089209850063E-16,-3.5527136788005E-15));
#488=CARTESIAN_POINT('',(-10.9637582858252,4.44089209850063E-16,-1.77635683940025E-15));
#489=CARTESIAN_POINT('',(-16.0698455818737,4.44089209850063E-16,-9.33732080730528));
#490=CARTESIAN_POINT('',(-10.6422595031977,4.44089209850063E-16,-18.4915000000001));
#491=CARTESIAN_POINT('',(1.18259656257764E-13,4.44089209850063E-16,-18.4915));
#492=CARTESIAN_POINT('',(0.,0.,0.));
#493=CARTESIAN_POINT('',(0.,0.,0.));
#494=CARTESIAN_POINT('',(0.,0.,-18.4955));
#495=CARTESIAN_POINT('',(0.,0.,-1.77635683940025E-15));
#496=CARTESIAN_POINT('',(-10.9637582858252,0.,-1.77635683940025E-15));
#497=CARTESIAN_POINT('',(4.69901282203287E-15,4.44089209850063E-16,-5.9955));
#498=CARTESIAN_POINT('',(-10.9637582858252,4.44089209850063E-16,-1.77635683940025E-15));
#499=CARTESIAN_POINT('CRP',(-12.495,0.,-215.));
#500=CARTESIAN_POINT('',(0.,0.,0.));
#501=CARTESIAN_POINT('',(0.,0.,0.));
#502=CARTESIAN_POINT('',(0.,0.,0.));
#503=CARTESIAN_POINT('',(3.25768429880586E-14,0.,-196.5045));
#504=CARTESIAN_POINT('',(0.,0.,0.));
#505=MECHANICAL_DESIGN_GEOMETRIC_PRESENTATION_REPRESENTATION('',(#260,#261),
#509);
#506=MECHANICAL_DESIGN_GEOMETRIC_PRESENTATION_REPRESENTATION('',(#262,#263,
#264,#265,#266,#267,#268),#510);
#507=MECHANICAL_DESIGN_GEOMETRIC_PRESENTATION_REPRESENTATION('',(#269,#270,
#271,#272,#273,#274,#275,#276),#511);
#508=MECHANICAL_DESIGN_GEOMETRIC_PRESENTATION_REPRESENTATION('',(#277,#278,
#279),#512);
#509=(
GEOMETRIC_REPRESENTATION_CONTEXT(3)
GLOBAL_UNCERTAINTY_ASSIGNED_CONTEXT((#513))
GLOBAL_UNIT_ASSIGNED_CONTEXT((#522,#518,#517))
REPRESENTATION_CONTEXT('1590407719986','TOP_LEVEL_ASSEMBLY_PART')
);
#510=(
GEOMETRIC_REPRESENTATION_CONTEXT(3)
GLOBAL_UNCERTAINTY_ASSIGNED_CONTEXT((#514))
GLOBAL_UNIT_ASSIGNED_CONTEXT((#522,#518,#517))
REPRESENTATION_CONTEXT('202452971mod000_00','COMPONENT_PART')
);
#511=(
GEOMETRIC_REPRESENTATION_CONTEXT(3)
GLOBAL_UNCERTAINTY_ASSIGNED_CONTEXT((#515))
GLOBAL_UNIT_ASSIGNED_CONTEXT((#522,#518,#517))
REPRESENTATION_CONTEXT('202505983mod000_00','COMPONENT_PART')
);
#512=(
GEOMETRIC_REPRESENTATION_CONTEXT(3)
GLOBAL_UNCERTAINTY_ASSIGNED_CONTEXT((#516))
GLOBAL_UNIT_ASSIGNED_CONTEXT((#522,#518,#517))
REPRESENTATION_CONTEXT('202452972mod000_00','COMPONENT_PART')
);
#513=UNCERTAINTY_MEASURE_WITH_UNIT(LENGTH_MEASURE(2.E-5),#522,
'DISTANCE_ACCURACY_VALUE','Maximum Tolerance applied to model');
#514=UNCERTAINTY_MEASURE_WITH_UNIT(LENGTH_MEASURE(2.E-5),#522,
'DISTANCE_ACCURACY_VALUE','Maximum Tolerance applied to model');
#515=UNCERTAINTY_MEASURE_WITH_UNIT(LENGTH_MEASURE(2.E-5),#522,
'DISTANCE_ACCURACY_VALUE','Maximum Tolerance applied to model');
#516=UNCERTAINTY_MEASURE_WITH_UNIT(LENGTH_MEASURE(2.E-5),#522,
'DISTANCE_ACCURACY_VALUE','Maximum Tolerance applied to model');
#517=(
NAMED_UNIT(*)
SI_UNIT($,.STERADIAN.)
SOLID_ANGLE_UNIT()
);
#518=(
CONVERSION_BASED_UNIT('DEGREE',#520)
NAMED_UNIT(#519)
PLANE_ANGLE_UNIT()
);
#519=DIMENSIONAL_EXPONENTS(0.,0.,0.,0.,0.,0.,0.);
#520=PLANE_ANGLE_MEASURE_WITH_UNIT(PLANE_ANGLE_MEASURE(0.0174532925),#521);
#521=(
NAMED_UNIT(*)
PLANE_ANGLE_UNIT()
SI_UNIT($,.RADIAN.)
);
#522=(
LENGTH_UNIT()
NAMED_UNIT(*)
SI_UNIT(.MILLI.,.METRE.)
);
ENDSEC;
END-ISO-10303-21;
