ISO-10303-21;
HEADER;
/* Generated by software containing ST-Developer
 * from STEP Tools, Inc. (www.steptools.com) 
 */
/* OPTION: using custom schema-name function */

FILE_DESCRIPTION(
/* description */ (''),
/* implementation_level */ '2;1');

FILE_NAME(
/* name */ '1590149728914.stp',
/* time_stamp */ '2020-05-22T17:45:54+05:00',
/* author */ (''),
/* organization */ ('SMS'),
/* preprocessor_version */ 'ST-DEVELOPER v16.7',
/* originating_system */ 'SIEMENS PLM Software NX 12.0',
/* authorisation */ '');

FILE_SCHEMA (('AUTOMOTIVE_DESIGN { 1 0 10303 214 3 1 1 1 }'));
ENDSEC;

DATA;
#10=CONTEXT_DEPENDENT_SHAPE_REPRESENTATION(#16,#50);
#11=CONTEXT_DEPENDENT_SHAPE_REPRESENTATION(#17,#51);
#12=CONTEXT_DEPENDENT_SHAPE_REPRESENTATION(#18,#52);
#13=NEXT_ASSEMBLY_USAGE_OCCURRENCE('1001',' ',
'NXMOD-TM02_00-000-00-R216F_25A25S_090_PP_BAS',#56,#55,$);
#14=NEXT_ASSEMBLY_USAGE_OCCURRENCE('1002',' ',
'NXMOD-TM01_00-000-00-MI_R216F_2560_R1_BAS',#56,#54,$);
#15=NEXT_ASSEMBLY_USAGE_OCCURRENCE('1003',' ',
'NXMOD-TM02_00-000-00-R216F_25A25S_090_ACN_BAS',#56,#53,$);
#16=(
REPRESENTATION_RELATIONSHIP(' ',' ',#81,#82)
REPRESENTATION_RELATIONSHIP_WITH_TRANSFORMATION(#19)
SHAPE_REPRESENTATION_RELATIONSHIP()
);
#17=(
REPRESENTATION_RELATIONSHIP(' ',' ',#80,#82)
REPRESENTATION_RELATIONSHIP_WITH_TRANSFORMATION(#20)
SHAPE_REPRESENTATION_RELATIONSHIP()
);
#18=(
REPRESENTATION_RELATIONSHIP(' ',' ',#79,#82)
REPRESENTATION_RELATIONSHIP_WITH_TRANSFORMATION(#21)
SHAPE_REPRESENTATION_RELATIONSHIP()
);
#19=ITEM_DEFINED_TRANSFORMATION(' ',' ',#289,#318);
#20=ITEM_DEFINED_TRANSFORMATION(' ',' ',#289,#319);
#21=ITEM_DEFINED_TRANSFORMATION(' ',' ',#289,#320);
#22=ADVANCED_BREP_SHAPE_REPRESENTATION('202505983mod000_00-None',(#102),
#451);
#23=ADVANCED_BREP_SHAPE_REPRESENTATION('202452644mod000_00-None',(#101),
#450);
#24=CONSTRUCTIVE_GEOMETRY_REPRESENTATION_RELATIONSHIP(
'supplemental geometry','',#79,#28);
#25=CONSTRUCTIVE_GEOMETRY_REPRESENTATION_RELATIONSHIP(
'supplemental geometry','',#80,#29);
#26=CONSTRUCTIVE_GEOMETRY_REPRESENTATION_RELATIONSHIP(
'supplemental geometry','',#81,#30);
#27=CONSTRUCTIVE_GEOMETRY_REPRESENTATION_RELATIONSHIP(
'supplemental geometry','',#82,#31);
#28=CONSTRUCTIVE_GEOMETRY_REPRESENTATION('supplemental geometry',(#317),
#452);
#29=CONSTRUCTIVE_GEOMETRY_REPRESENTATION('supplemental geometry',(#311,
#312,#313),#451);
#30=CONSTRUCTIVE_GEOMETRY_REPRESENTATION('supplemental geometry',(#291,
#292,#293),#450);
#31=CONSTRUCTIVE_GEOMETRY_REPRESENTATION('supplemental geometry',(#290),
#449);
#32=SHAPE_REPRESENTATION_RELATIONSHIP('None',
'relationship between 202452646mod000_00-None and 202452646mod000_00-N
one',#79,#38);
#33=SHAPE_REPRESENTATION_RELATIONSHIP('None',
'relationship between 202505983mod000_00-None and 202505983mod000_00-N
one',#80,#22);
#34=SHAPE_REPRESENTATION_RELATIONSHIP('None',
'relationship between 202505983mod000_00-None and 202505983mod000_00-N
one',#80,#39);
#35=SHAPE_REPRESENTATION_RELATIONSHIP('None',
'relationship between 202452644mod000_00-None and 202452644mod000_00-N
one',#81,#23);
#36=SHAPE_REPRESENTATION_RELATIONSHIP('None',
'relationship between 202452644mod000_00-None and 202452644mod000_00-N
one',#81,#40);
#37=SHAPE_REPRESENTATION_RELATIONSHIP('None',
'relationship between 202452645mod000_00-None and 202452645mod000_00-N
one',#82,#41);
#38=GEOMETRICALLY_BOUNDED_WIREFRAME_SHAPE_REPRESENTATION(
'202452646mod000_00-None',(#83),#452);
#39=GEOMETRICALLY_BOUNDED_WIREFRAME_SHAPE_REPRESENTATION(
'202505983mod000_00-None',(#84),#451);
#40=GEOMETRICALLY_BOUNDED_WIREFRAME_SHAPE_REPRESENTATION(
'202452644mod000_00-None',(#85),#450);
#41=GEOMETRICALLY_BOUNDED_WIREFRAME_SHAPE_REPRESENTATION(
'202452645mod000_00-None',(#86),#449);
#42=SHAPE_DEFINITION_REPRESENTATION(#46,#79);
#43=SHAPE_DEFINITION_REPRESENTATION(#47,#80);
#44=SHAPE_DEFINITION_REPRESENTATION(#48,#81);
#45=SHAPE_DEFINITION_REPRESENTATION(#49,#82);
#46=PRODUCT_DEFINITION_SHAPE('','',#53);
#47=PRODUCT_DEFINITION_SHAPE('','',#54);
#48=PRODUCT_DEFINITION_SHAPE('','',#55);
#49=PRODUCT_DEFINITION_SHAPE('','',#56);
#50=PRODUCT_DEFINITION_SHAPE(' ','NAUO PRDDFN',#13);
#51=PRODUCT_DEFINITION_SHAPE(' ','NAUO PRDDFN',#14);
#52=PRODUCT_DEFINITION_SHAPE(' ','NAUO PRDDFN',#15);
#53=PRODUCT_DEFINITION(' ','',#61,#57);
#54=PRODUCT_DEFINITION(' ','',#62,#58);
#55=PRODUCT_DEFINITION(' ','',#63,#59);
#56=PRODUCT_DEFINITION(' ','',#64,#60);
#57=PRODUCT_DEFINITION_CONTEXT('part definition',#78,'design');
#58=PRODUCT_DEFINITION_CONTEXT('part definition',#78,'design');
#59=PRODUCT_DEFINITION_CONTEXT('part definition',#78,'design');
#60=PRODUCT_DEFINITION_CONTEXT('part definition',#78,'design');
#61=PRODUCT_DEFINITION_FORMATION_WITH_SPECIFIED_SOURCE(' ',' ',#69,
 .NOT_KNOWN.);
#62=PRODUCT_DEFINITION_FORMATION_WITH_SPECIFIED_SOURCE(' ',' ',#70,
 .NOT_KNOWN.);
#63=PRODUCT_DEFINITION_FORMATION_WITH_SPECIFIED_SOURCE(' ',' ',#71,
 .NOT_KNOWN.);
#64=PRODUCT_DEFINITION_FORMATION_WITH_SPECIFIED_SOURCE(' ',' ',#72,
 .NOT_KNOWN.);
#65=PRODUCT_RELATED_PRODUCT_CATEGORY('part','',(#69));
#66=PRODUCT_RELATED_PRODUCT_CATEGORY('part','',(#70));
#67=PRODUCT_RELATED_PRODUCT_CATEGORY('part','',(#71));
#68=PRODUCT_RELATED_PRODUCT_CATEGORY('part','',(#72));
#69=PRODUCT('ASSEMBLY_CONSTRUCTION','202452646mod000_00',' ',(#73));
#70=PRODUCT('202505983mod000_00','202505983mod000_00','MASTER_INSERT',(#74));
#71=PRODUCT('202452644mod000_00','202452644mod000_00','NOCUT',(#75));
#72=PRODUCT('202452645mod000_00','202452645mod000_00',' ',(#76));
#73=PRODUCT_CONTEXT(' ',#78,'mechanical');
#74=PRODUCT_CONTEXT(' ',#78,'mechanical');
#75=PRODUCT_CONTEXT(' ',#78,'mechanical');
#76=PRODUCT_CONTEXT(' ',#78,'mechanical');
#77=APPLICATION_PROTOCOL_DEFINITION('international standard',
'automotive_design',2010,#78);
#78=APPLICATION_CONTEXT(
'core data for automotive mechanical design processes');
#79=SHAPE_REPRESENTATION('202452646mod000_00-None',(#289),#452);
#80=SHAPE_REPRESENTATION('202505983mod000_00-None',(#289),#451);
#81=SHAPE_REPRESENTATION('202452644mod000_00-None',(#289),#450);
#82=SHAPE_REPRESENTATION('202452645mod000_00-None',(#289,#318,#319,#320),
#449);
#83=GEOMETRIC_CURVE_SET('None',(#439,#440));
#84=GEOMETRIC_CURVE_SET('None',(#419,#420,#421,#89));
#85=GEOMETRIC_CURVE_SET('None',(#388,#389,#390));
#86=GEOMETRIC_CURVE_SET('None',(#386));
#87=DRAUGHTING_PRE_DEFINED_COLOUR('blue');
#88=DRAUGHTING_PRE_DEFINED_COLOUR('white');
#89=TRIMMED_CURVE('CUTTING EDGE LINE',#90,(PARAMETER_VALUE(0.)),(
PARAMETER_VALUE(1.)),.T.,.PARAMETER.);
#90=(
BOUNDED_CURVE()
B_SPLINE_CURVE(3,(#422,#423,#424,#425,#426,#427,#428,#429,#430,#431),
 .UNSPECIFIED.,.T.,.F.)
B_SPLINE_CURVE_WITH_KNOTS((4,3,3,4),(0.,0.334160566862557,0.532287040305357,
1.),.UNSPECIFIED.)
CURVE()
GEOMETRIC_REPRESENTATION_ITEM()
RATIONAL_B_SPLINE_CURVE((1.,1.,1.,1.,1.,1.,1.,0.673335446421255,0.673335446421255,
1.))
REPRESENTATION_ITEM('CUTTING EDGE LINE')
);
#91=SURFACE_STYLE_USAGE(.BOTH.,#93);
#92=SURFACE_STYLE_USAGE(.BOTH.,#94);
#93=SURFACE_SIDE_STYLE('',(#95));
#94=SURFACE_SIDE_STYLE('',(#96));
#95=SURFACE_STYLE_FILL_AREA(#97);
#96=SURFACE_STYLE_FILL_AREA(#98);
#97=FILL_AREA_STYLE('',(#99));
#98=FILL_AREA_STYLE('',(#100));
#99=FILL_AREA_STYLE_COLOUR('',#286);
#100=FILL_AREA_STYLE_COLOUR('',#288);
#101=MANIFOLD_SOLID_BREP('NOCUT',#103);
#102=MANIFOLD_SOLID_BREP('CUT',#104);
#103=CLOSED_SHELL('',(#117,#118,#119,#120,#121,#122,#123,#124,#125));
#104=CLOSED_SHELL('',(#126,#127));
#105=SPHERICAL_SURFACE('',#310,10.5625);
#106=SPHERICAL_SURFACE('',#315,12.496);
#107=TOROIDAL_SURFACE('',#306,13.0625,2.5);
#108=CONICAL_SURFACE('',#305,10.9975,44.9999999999999);
#109=PLANE('',#298);
#110=PLANE('',#307);
#111=PLANE('',#309);
#112=PLANE('',#316);
#113=FACE_OUTER_BOUND('',#147,.T.);
#114=FACE_OUTER_BOUND('',#158,.T.);
#115=FACE_OUTER_BOUND('',#161,.T.);
#116=FACE_OUTER_BOUND('',#162,.T.);
#117=ADVANCED_FACE('',(#131,#132),#128,.T.);
#118=ADVANCED_FACE('',(#113),#109,.T.);
#119=ADVANCED_FACE('',(#133,#134),#129,.T.);
#120=ADVANCED_FACE('',(#135,#136),#130,.T.);
#121=ADVANCED_FACE('',(#137,#138),#108,.T.);
#122=ADVANCED_FACE('',(#139,#140),#107,.F.);
#123=ADVANCED_FACE('',(#141,#142),#110,.F.);
#124=ADVANCED_FACE('',(#114),#111,.F.);
#125=ADVANCED_FACE('',(#143,#144),#105,.T.);
#126=ADVANCED_FACE('',(#115),#106,.T.);
#127=ADVANCED_FACE('',(#116),#112,.T.);
#128=CYLINDRICAL_SURFACE('',#296,10.4975);
#129=CYLINDRICAL_SURFACE('',#301,10.5625);
#130=CYLINDRICAL_SURFACE('',#304,12.49675);
#131=FACE_BOUND('',#145,.T.);
#132=FACE_BOUND('',#146,.T.);
#133=FACE_BOUND('',#148,.T.);
#134=FACE_BOUND('',#149,.T.);
#135=FACE_BOUND('',#150,.T.);
#136=FACE_BOUND('',#151,.T.);
#137=FACE_BOUND('',#152,.T.);
#138=FACE_BOUND('',#153,.T.);
#139=FACE_BOUND('',#154,.T.);
#140=FACE_BOUND('',#155,.T.);
#141=FACE_BOUND('',#156,.T.);
#142=FACE_BOUND('',#157,.T.);
#143=FACE_BOUND('',#159,.T.);
#144=FACE_BOUND('',#160,.T.);
#145=EDGE_LOOP('',(#163));
#146=EDGE_LOOP('',(#164));
#147=EDGE_LOOP('',(#165));
#148=EDGE_LOOP('',(#166));
#149=EDGE_LOOP('',(#167));
#150=EDGE_LOOP('',(#168));
#151=EDGE_LOOP('',(#169));
#152=EDGE_LOOP('',(#170));
#153=EDGE_LOOP('',(#171));
#154=EDGE_LOOP('',(#172));
#155=EDGE_LOOP('',(#173));
#156=EDGE_LOOP('',(#174));
#157=EDGE_LOOP('',(#175));
#158=EDGE_LOOP('',(#176));
#159=EDGE_LOOP('',(#177));
#160=EDGE_LOOP('',(#178));
#161=EDGE_LOOP('',(#179));
#162=EDGE_LOOP('',(#180));
#163=ORIENTED_EDGE('',*,*,#190,.F.);
#164=ORIENTED_EDGE('',*,*,#191,.F.);
#165=ORIENTED_EDGE('',*,*,#192,.T.);
#166=ORIENTED_EDGE('',*,*,#193,.T.);
#167=ORIENTED_EDGE('',*,*,#194,.T.);
#168=ORIENTED_EDGE('',*,*,#195,.F.);
#169=ORIENTED_EDGE('',*,*,#196,.T.);
#170=ORIENTED_EDGE('',*,*,#195,.T.);
#171=ORIENTED_EDGE('',*,*,#192,.F.);
#172=ORIENTED_EDGE('',*,*,#194,.F.);
#173=ORIENTED_EDGE('',*,*,#196,.F.);
#174=ORIENTED_EDGE('',*,*,#191,.T.);
#175=ORIENTED_EDGE('',*,*,#193,.F.);
#176=ORIENTED_EDGE('',*,*,#197,.F.);
#177=ORIENTED_EDGE('',*,*,#190,.T.);
#178=ORIENTED_EDGE('',*,*,#197,.T.);
#179=ORIENTED_EDGE('',*,*,#198,.T.);
#180=ORIENTED_EDGE('',*,*,#198,.F.);
#181=VERTEX_POINT('',#395);
#182=VERTEX_POINT('',#397);
#183=VERTEX_POINT('',#400);
#184=VERTEX_POINT('',#403);
#185=VERTEX_POINT('',#405);
#186=VERTEX_POINT('',#408);
#187=VERTEX_POINT('',#410);
#188=VERTEX_POINT('',#416);
#189=VERTEX_POINT('',#436);
#190=EDGE_CURVE('',#181,#181,#199,.T.);
#191=EDGE_CURVE('',#182,#182,#200,.T.);
#192=EDGE_CURVE('',#183,#183,#201,.T.);
#193=EDGE_CURVE('',#184,#184,#202,.T.);
#194=EDGE_CURVE('',#185,#185,#203,.T.);
#195=EDGE_CURVE('',#186,#186,#204,.T.);
#196=EDGE_CURVE('',#187,#187,#205,.T.);
#197=EDGE_CURVE('',#188,#188,#206,.T.);
#198=EDGE_CURVE('',#189,#189,#207,.T.);
#199=CIRCLE('',#294,10.4975);
#200=CIRCLE('',#295,10.4975);
#201=CIRCLE('',#297,10.9975);
#202=CIRCLE('',#299,10.5625);
#203=CIRCLE('',#300,10.5625);
#204=CIRCLE('',#302,12.49675);
#205=CIRCLE('',#303,12.49675);
#206=CIRCLE('',#308,5.52868937904817);
#207=CIRCLE('',#314,10.9637582858252);
#208=CURVE_STYLE('',#217,POSITIVE_LENGTH_MEASURE(0.18),#285);
#209=CURVE_STYLE('',#218,POSITIVE_LENGTH_MEASURE(0.18),#285);
#210=CURVE_STYLE('',#219,POSITIVE_LENGTH_MEASURE(0.18),#285);
#211=CURVE_STYLE('',#220,POSITIVE_LENGTH_MEASURE(0.18),#285);
#212=CURVE_STYLE('',#221,POSITIVE_LENGTH_MEASURE(0.18),#87);
#213=CURVE_STYLE('',#222,POSITIVE_LENGTH_MEASURE(0.18),#285);
#214=CURVE_STYLE('',#223,POSITIVE_LENGTH_MEASURE(0.18),#285);
#215=CURVE_STYLE('',#224,POSITIVE_LENGTH_MEASURE(0.18),#287);
#216=CURVE_STYLE('',#225,POSITIVE_LENGTH_MEASURE(0.18),#285);
#217=DRAUGHTING_PRE_DEFINED_CURVE_FONT('continuous');
#218=DRAUGHTING_PRE_DEFINED_CURVE_FONT('continuous');
#219=DRAUGHTING_PRE_DEFINED_CURVE_FONT('continuous');
#220=DRAUGHTING_PRE_DEFINED_CURVE_FONT('continuous');
#221=DRAUGHTING_PRE_DEFINED_CURVE_FONT('continuous');
#222=DRAUGHTING_PRE_DEFINED_CURVE_FONT('continuous');
#223=DRAUGHTING_PRE_DEFINED_CURVE_FONT('continuous');
#224=DRAUGHTING_PRE_DEFINED_CURVE_FONT('continuous');
#225=DRAUGHTING_PRE_DEFINED_CURVE_FONT('continuous');
#226=PRESENTATION_LAYER_ASSIGNMENT('1','Layer 1',(#386,#290,#388,#389,#390,
#291,#292,#293,#101,#419,#420,#421,#89,#311,#312,#313,#102,#439,#440,#317));
#227=STYLED_ITEM('',(#247),#386);
#228=STYLED_ITEM('',(#248),#290);
#229=STYLED_ITEM('',(#249),#388);
#230=STYLED_ITEM('',(#250),#389);
#231=STYLED_ITEM('',(#251),#390);
#232=STYLED_ITEM('',(#252),#291);
#233=STYLED_ITEM('',(#253),#292);
#234=STYLED_ITEM('',(#254),#293);
#235=STYLED_ITEM('',(#255),#101);
#236=STYLED_ITEM('',(#256),#419);
#237=STYLED_ITEM('',(#257),#420);
#238=STYLED_ITEM('',(#258),#421);
#239=STYLED_ITEM('',(#259),#89);
#240=STYLED_ITEM('',(#260),#311);
#241=STYLED_ITEM('',(#261),#312);
#242=STYLED_ITEM('',(#262),#313);
#243=STYLED_ITEM('',(#263),#102);
#244=STYLED_ITEM('',(#264),#439);
#245=STYLED_ITEM('',(#265),#440);
#246=STYLED_ITEM('',(#266),#317);
#247=PRESENTATION_STYLE_ASSIGNMENT((#267));
#248=PRESENTATION_STYLE_ASSIGNMENT((#208));
#249=PRESENTATION_STYLE_ASSIGNMENT((#268));
#250=PRESENTATION_STYLE_ASSIGNMENT((#269));
#251=PRESENTATION_STYLE_ASSIGNMENT((#270));
#252=PRESENTATION_STYLE_ASSIGNMENT((#209));
#253=PRESENTATION_STYLE_ASSIGNMENT((#210));
#254=PRESENTATION_STYLE_ASSIGNMENT((#211));
#255=PRESENTATION_STYLE_ASSIGNMENT((#91));
#256=PRESENTATION_STYLE_ASSIGNMENT((#271));
#257=PRESENTATION_STYLE_ASSIGNMENT((#272));
#258=PRESENTATION_STYLE_ASSIGNMENT((#273));
#259=PRESENTATION_STYLE_ASSIGNMENT((#212));
#260=PRESENTATION_STYLE_ASSIGNMENT((#213));
#261=PRESENTATION_STYLE_ASSIGNMENT((#214));
#262=PRESENTATION_STYLE_ASSIGNMENT((#215));
#263=PRESENTATION_STYLE_ASSIGNMENT((#92));
#264=PRESENTATION_STYLE_ASSIGNMENT((#274));
#265=PRESENTATION_STYLE_ASSIGNMENT((#275));
#266=PRESENTATION_STYLE_ASSIGNMENT((#216));
#267=POINT_STYLE('',#276,POSITIVE_LENGTH_MEASURE(3.),#285);
#268=POINT_STYLE('',#277,POSITIVE_LENGTH_MEASURE(3.),#285);
#269=POINT_STYLE('',#278,POSITIVE_LENGTH_MEASURE(3.),#285);
#270=POINT_STYLE('',#279,POSITIVE_LENGTH_MEASURE(3.),#285);
#271=POINT_STYLE('',#280,POSITIVE_LENGTH_MEASURE(3.),#287);
#272=POINT_STYLE('',#281,POSITIVE_LENGTH_MEASURE(3.),#285);
#273=POINT_STYLE('',#282,POSITIVE_LENGTH_MEASURE(3.),#285);
#274=POINT_STYLE('',#283,POSITIVE_LENGTH_MEASURE(3.),#88);
#275=POINT_STYLE('',#284,POSITIVE_LENGTH_MEASURE(3.),#285);
#276=PRE_DEFINED_POINT_MARKER_SYMBOL('plus');
#277=PRE_DEFINED_POINT_MARKER_SYMBOL('plus');
#278=PRE_DEFINED_POINT_MARKER_SYMBOL('plus');
#279=PRE_DEFINED_POINT_MARKER_SYMBOL('plus');
#280=PRE_DEFINED_POINT_MARKER_SYMBOL('plus');
#281=PRE_DEFINED_POINT_MARKER_SYMBOL('plus');
#282=PRE_DEFINED_POINT_MARKER_SYMBOL('plus');
#283=PRE_DEFINED_POINT_MARKER_SYMBOL('plus');
#284=PRE_DEFINED_POINT_MARKER_SYMBOL('plus');
#285=COLOUR_RGB('Medium Maroon',0.6,0.4,0.4);
#286=COLOUR_RGB('Medium Gray',0.490196078431373,0.490196078431373,0.490196078431373);
#287=COLOUR_RGB('Strong Stone',0.576470588235294,0.54508278019379,0.392156862745098);
#288=COLOUR_RGB('Light Gray',0.8,0.8,0.8);
#289=AXIS2_PLACEMENT_3D('',#385,#321,#322);
#290=AXIS2_PLACEMENT_3D('',#387,#323,#324);
#291=AXIS2_PLACEMENT_3D('PCS',#391,#325,#326);
#292=AXIS2_PLACEMENT_3D('CSW',#392,#327,#328);
#293=AXIS2_PLACEMENT_3D('MCS',#393,#329,#330);
#294=AXIS2_PLACEMENT_3D('',#394,#331,#332);
#295=AXIS2_PLACEMENT_3D('',#396,#333,#334);
#296=AXIS2_PLACEMENT_3D('',#398,#335,#336);
#297=AXIS2_PLACEMENT_3D('',#399,#337,#338);
#298=AXIS2_PLACEMENT_3D('',#401,#339,#340);
#299=AXIS2_PLACEMENT_3D('',#402,#341,#342);
#300=AXIS2_PLACEMENT_3D('',#404,#343,#344);
#301=AXIS2_PLACEMENT_3D('',#406,#345,#346);
#302=AXIS2_PLACEMENT_3D('',#407,#347,#348);
#303=AXIS2_PLACEMENT_3D('',#409,#349,#350);
#304=AXIS2_PLACEMENT_3D('',#411,#351,#352);
#305=AXIS2_PLACEMENT_3D('',#412,#353,#354);
#306=AXIS2_PLACEMENT_3D('',#413,#355,#356);
#307=AXIS2_PLACEMENT_3D('',#414,#357,#358);
#308=AXIS2_PLACEMENT_3D('',#415,#359,#360);
#309=AXIS2_PLACEMENT_3D('',#417,#361,#362);
#310=AXIS2_PLACEMENT_3D('',#418,#363,#364);
#311=AXIS2_PLACEMENT_3D('PCS',#432,#365,#366);
#312=AXIS2_PLACEMENT_3D('CIP',#433,#367,#368);
#313=AXIS2_PLACEMENT_3D('MCS',#434,#369,#370);
#314=AXIS2_PLACEMENT_3D('',#435,#371,#372);
#315=AXIS2_PLACEMENT_3D('',#437,#373,#374);
#316=AXIS2_PLACEMENT_3D('',#438,#375,#376);
#317=AXIS2_PLACEMENT_3D('',#441,#377,#378);
#318=AXIS2_PLACEMENT_3D('',#442,#379,#380);
#319=AXIS2_PLACEMENT_3D('',#443,#381,#382);
#320=AXIS2_PLACEMENT_3D('',#444,#383,#384);
#321=DIRECTION('',(0.,0.,1.));
#322=DIRECTION('',(1.,0.,0.));
#323=DIRECTION('',(0.,0.,1.));
#324=DIRECTION('',(1.,0.,0.));
#325=DIRECTION('',(0.,0.,1.));
#326=DIRECTION('',(1.,0.,0.));
#327=DIRECTION('',(0.,0.,1.));
#328=DIRECTION('',(1.,0.,0.));
#329=DIRECTION('',(0.,0.,1.));
#330=DIRECTION('',(1.,0.,0.));
#331=DIRECTION('',(0.,0.,-1.));
#332=DIRECTION('',(0.,1.,0.));
#333=DIRECTION('',(0.,0.,1.));
#334=DIRECTION('',(0.,1.,0.));
#335=DIRECTION('',(0.,0.,-1.));
#336=DIRECTION('',(0.,-1.,0.));
#337=DIRECTION('',(0.,0.,1.));
#338=DIRECTION('',(0.,1.,0.));
#339=DIRECTION('',(0.,0.,1.));
#340=DIRECTION('',(0.,1.,0.));
#341=DIRECTION('',(0.,0.,1.));
#342=DIRECTION('',(0.,1.,0.));
#343=DIRECTION('',(0.,0.,-1.));
#344=DIRECTION('',(0.,1.,0.));
#345=DIRECTION('',(0.,0.,1.));
#346=DIRECTION('',(0.,1.,0.));
#347=DIRECTION('',(0.,0.,1.));
#348=DIRECTION('',(0.,-1.,0.));
#349=DIRECTION('',(0.,0.,1.));
#350=DIRECTION('',(0.,-1.,0.));
#351=DIRECTION('',(0.,0.,1.));
#352=DIRECTION('',(0.,1.,0.));
#353=DIRECTION('',(0.,0.,-1.));
#354=DIRECTION('',(0.,-1.,0.));
#355=DIRECTION('',(0.,0.,1.));
#356=DIRECTION('',(0.,1.,0.));
#357=DIRECTION('',(0.,0.,1.));
#358=DIRECTION('',(0.,1.,0.));
#359=DIRECTION('',(0.,0.,1.));
#360=DIRECTION('',(0.,1.,0.));
#361=DIRECTION('',(0.,0.,1.));
#362=DIRECTION('',(0.,1.,0.));
#363=DIRECTION('',(0.,-1.,0.));
#364=DIRECTION('',(0.,0.,1.));
#365=DIRECTION('',(0.,0.,1.));
#366=DIRECTION('',(1.,0.,0.));
#367=DIRECTION('',(0.,0.,1.));
#368=DIRECTION('',(1.,0.,0.));
#369=DIRECTION('',(0.,0.,1.));
#370=DIRECTION('',(1.,0.,0.));
#371=DIRECTION('',(0.,0.,-1.));
#372=DIRECTION('',(-1.,0.,0.));
#373=DIRECTION('',(6.12323399573676E-17,0.,-1.));
#374=DIRECTION('',(1.,0.,0.));
#375=DIRECTION('',(0.,0.,1.));
#376=DIRECTION('',(1.,0.,0.));
#377=DIRECTION('',(0.,0.,1.));
#378=DIRECTION('',(1.,0.,0.));
#379=DIRECTION('',(0.,0.,1.));
#380=DIRECTION('',(1.,0.,0.));
#381=DIRECTION('',(0.,0.,1.));
#382=DIRECTION('',(1.,0.,0.));
#383=DIRECTION('',(0.,0.,1.));
#384=DIRECTION('',(1.,0.,0.));
#385=CARTESIAN_POINT('',(0.,0.,0.));
#386=CARTESIAN_POINT('',(0.,0.,0.));
#387=CARTESIAN_POINT('',(0.,0.,0.));
#388=CARTESIAN_POINT('CSW',(1.48590460700283E-13,-3.99680288865056E-15,
-147.5045));
#389=CARTESIAN_POINT('PCS',(1.47603375937398E-13,-3.45821533144712E-28,
0.));
#390=CARTESIAN_POINT('MCS',(0.,0.,-56.));
#391=CARTESIAN_POINT('',(1.47603375937398E-13,-3.45821533144712E-28,0.));
#392=CARTESIAN_POINT('',(1.48590460700283E-13,-3.99680288865056E-15,-147.5045));
#393=CARTESIAN_POINT('',(0.,0.,-56.));
#394=CARTESIAN_POINT('',(1.47603375937398E-13,-3.45821533144712E-28,-154.67));
#395=CARTESIAN_POINT('',(1.47603375937398E-13,10.4975,-154.67));
#396=CARTESIAN_POINT('',(1.47603375937398E-13,-3.45821533144712E-28,-79.487));
#397=CARTESIAN_POINT('',(1.47603375937398E-13,10.4975,-79.487));
#398=CARTESIAN_POINT('',(1.47603375937398E-13,-3.45821533144712E-28,-141.947678340341));
#399=CARTESIAN_POINT('',(1.47603375937398E-13,-3.45821533144712E-28,0.));
#400=CARTESIAN_POINT('',(1.47603375937398E-13,10.9975,0.));
#401=CARTESIAN_POINT('',(1.47603375937398E-13,-3.45821533144712E-28,0.));
#402=CARTESIAN_POINT('',(1.47603375937398E-13,-3.45821533144712E-28,-79.487));
#403=CARTESIAN_POINT('',(1.47603375937398E-13,10.5625,-79.487));
#404=CARTESIAN_POINT('',(1.47603375937398E-13,-3.45821533144712E-28,-78.4333799786623));
#405=CARTESIAN_POINT('',(1.47603375937398E-13,10.5625,-78.4333799786623));
#406=CARTESIAN_POINT('',(1.47603375937398E-13,-3.45821533144712E-28,-9.77318475555343));
#407=CARTESIAN_POINT('',(1.47603375937398E-13,-3.45821533144712E-28,-1.49925000000001));
#408=CARTESIAN_POINT('',(1.47603375937398E-13,-12.49675,-1.49925000000001));
#409=CARTESIAN_POINT('',(1.47603375937398E-13,-3.45821533144712E-28,-75.9982358479177));
#410=CARTESIAN_POINT('',(1.47603375937398E-13,-12.49675,-75.9982358479177));
#411=CARTESIAN_POINT('',(1.47603375937398E-13,-3.45821533144712E-28,-9.77318475555343));
#412=CARTESIAN_POINT('',(1.47603375937398E-13,-3.45821533144712E-28,0.));
#413=CARTESIAN_POINT('',(1.47603375937398E-13,-3.45821533144712E-28,-78.4333799786623));
#414=CARTESIAN_POINT('',(-10.4974999999999,-3.45821533144712E-28,-79.487));
#415=CARTESIAN_POINT('',(1.47603375937398E-13,-3.45821533144712E-28,-162.5));
#416=CARTESIAN_POINT('',(1.47603375937398E-13,5.52868937904817,-162.5));
#417=CARTESIAN_POINT('',(1.47603375937398E-13,-3.45821533144712E-28,-162.5));
#418=CARTESIAN_POINT('',(1.47603375937398E-13,-3.45821533144712E-28,-153.5));
#419=CARTESIAN_POINT('MCS',(0.,0.,0.));
#420=CARTESIAN_POINT('CIP',(0.,0.,-18.4955));
#421=CARTESIAN_POINT('PCS',(0.,0.,0.));
#422=CARTESIAN_POINT('',(0.,0.,-18.4915000003416));
#423=CARTESIAN_POINT('',(0.,0.,-12.3276666668944));
#424=CARTESIAN_POINT('',(0.,0.,-6.1638333334472));
#425=CARTESIAN_POINT('',(0.,2.22044604925031E-16,-1.77635683940025E-15));
#426=CARTESIAN_POINT('',(-3.65458609527506,4.44089209850063E-16,-3.5527136788005E-15));
#427=CARTESIAN_POINT('',(-7.30917219055011,4.44089209850063E-16,-3.5527136788005E-15));
#428=CARTESIAN_POINT('',(-10.9637582858252,4.44089209850063E-16,-1.77635683940025E-15));
#429=CARTESIAN_POINT('',(-16.0698455818737,4.44089209850063E-16,-9.33732080730528));
#430=CARTESIAN_POINT('',(-10.6422595031977,4.44089209850063E-16,-18.4915000000001));
#431=CARTESIAN_POINT('',(1.18259656257764E-13,4.44089209850063E-16,-18.4915));
#432=CARTESIAN_POINT('',(0.,0.,0.));
#433=CARTESIAN_POINT('',(0.,0.,-18.4955));
#434=CARTESIAN_POINT('',(0.,0.,0.));
#435=CARTESIAN_POINT('',(0.,0.,-1.77635683940025E-15));
#436=CARTESIAN_POINT('',(-10.9637582858252,0.,-1.77635683940025E-15));
#437=CARTESIAN_POINT('',(4.69901282203287E-15,4.44089209850063E-16,-5.9955));
#438=CARTESIAN_POINT('',(-10.9637582858252,4.44089209850063E-16,-1.77635683940025E-15));
#439=CARTESIAN_POINT('CRP',(-12.5,0.,-166.));
#440=CARTESIAN_POINT('',(0.,0.,0.));
#441=CARTESIAN_POINT('',(0.,0.,0.));
#442=CARTESIAN_POINT('',(0.,0.,0.));
#443=CARTESIAN_POINT('',(9.87084762885076E-16,0.,-147.5045));
#444=CARTESIAN_POINT('',(0.,0.,0.));
#445=MECHANICAL_DESIGN_GEOMETRIC_PRESENTATION_REPRESENTATION('',(#227,#228),
#449);
#446=MECHANICAL_DESIGN_GEOMETRIC_PRESENTATION_REPRESENTATION('',(#229,#230,
#231,#232,#233,#234,#235),#450);
#447=MECHANICAL_DESIGN_GEOMETRIC_PRESENTATION_REPRESENTATION('',(#236,#237,
#238,#239,#240,#241,#242,#243),#451);
#448=MECHANICAL_DESIGN_GEOMETRIC_PRESENTATION_REPRESENTATION('',(#244,#245,
#246),#452);
#449=(
GEOMETRIC_REPRESENTATION_CONTEXT(3)
GLOBAL_UNCERTAINTY_ASSIGNED_CONTEXT((#453))
GLOBAL_UNIT_ASSIGNED_CONTEXT((#462,#458,#457))
REPRESENTATION_CONTEXT('1590149728914','TOP_LEVEL_ASSEMBLY_PART')
);
#450=(
GEOMETRIC_REPRESENTATION_CONTEXT(3)
GLOBAL_UNCERTAINTY_ASSIGNED_CONTEXT((#454))
GLOBAL_UNIT_ASSIGNED_CONTEXT((#462,#458,#457))
REPRESENTATION_CONTEXT('202452644mod000_00','COMPONENT_PART')
);
#451=(
GEOMETRIC_REPRESENTATION_CONTEXT(3)
GLOBAL_UNCERTAINTY_ASSIGNED_CONTEXT((#455))
GLOBAL_UNIT_ASSIGNED_CONTEXT((#462,#458,#457))
REPRESENTATION_CONTEXT('202505983mod000_00','COMPONENT_PART')
);
#452=(
GEOMETRIC_REPRESENTATION_CONTEXT(3)
GLOBAL_UNCERTAINTY_ASSIGNED_CONTEXT((#456))
GLOBAL_UNIT_ASSIGNED_CONTEXT((#462,#458,#457))
REPRESENTATION_CONTEXT('202452646mod000_00','COMPONENT_PART')
);
#453=UNCERTAINTY_MEASURE_WITH_UNIT(LENGTH_MEASURE(2.E-5),#462,
'DISTANCE_ACCURACY_VALUE','Maximum Tolerance applied to model');
#454=UNCERTAINTY_MEASURE_WITH_UNIT(LENGTH_MEASURE(2.E-5),#462,
'DISTANCE_ACCURACY_VALUE','Maximum Tolerance applied to model');
#455=UNCERTAINTY_MEASURE_WITH_UNIT(LENGTH_MEASURE(2.E-5),#462,
'DISTANCE_ACCURACY_VALUE','Maximum Tolerance applied to model');
#456=UNCERTAINTY_MEASURE_WITH_UNIT(LENGTH_MEASURE(2.E-5),#462,
'DISTANCE_ACCURACY_VALUE','Maximum Tolerance applied to model');
#457=(
NAMED_UNIT(*)
SI_UNIT($,.STERADIAN.)
SOLID_ANGLE_UNIT()
);
#458=(
CONVERSION_BASED_UNIT('DEGREE',#460)
NAMED_UNIT(#459)
PLANE_ANGLE_UNIT()
);
#459=DIMENSIONAL_EXPONENTS(0.,0.,0.,0.,0.,0.,0.);
#460=PLANE_ANGLE_MEASURE_WITH_UNIT(PLANE_ANGLE_MEASURE(0.0174532925),#461);
#461=(
NAMED_UNIT(*)
PLANE_ANGLE_UNIT()
SI_UNIT($,.RADIAN.)
);
#462=(
LENGTH_UNIT()
NAMED_UNIT(*)
SI_UNIT(.MILLI.,.METRE.)
);
ENDSEC;
END-ISO-10303-21;
