ISO-10303-21;
HEADER;
/* Generated by software containing ST-Developer
 * from STEP Tools, Inc. (www.steptools.com) 
 */
/* OPTION: using custom schema-name function */

FILE_DESCRIPTION(
/* description */ (''),
/* implementation_level */ '2;1');

FILE_NAME(
/* name */ '1590149678184.stp',
/* time_stamp */ '2020-05-22T17:45:02+05:00',
/* author */ (''),
/* organization */ ('SMS'),
/* preprocessor_version */ 'ST-DEVELOPER v16.7',
/* originating_system */ 'SIEMENS PLM Software NX 12.0',
/* authorisation */ '');

FILE_SCHEMA (('AUTOMOTIVE_DESIGN { 1 0 10303 214 3 1 1 1 }'));
ENDSEC;

DATA;
#10=CONTEXT_DEPENDENT_SHAPE_REPRESENTATION(#16,#50);
#11=CONTEXT_DEPENDENT_SHAPE_REPRESENTATION(#17,#51);
#12=CONTEXT_DEPENDENT_SHAPE_REPRESENTATION(#18,#52);
#13=NEXT_ASSEMBLY_USAGE_OCCURRENCE('1001',' ',
'NXMOD-TM01_00-000-00-R216F_08A12S_053_PP_BAS',#56,#55,$);
#14=NEXT_ASSEMBLY_USAGE_OCCURRENCE('1002',' ',
'NXMOD-TM01_00-000-00-MI_R216F_0824_R1_BAS',#56,#54,$);
#15=NEXT_ASSEMBLY_USAGE_OCCURRENCE('1003',' ',
'NXMOD-TM02_00-000-00-R216F_08A12S_053_ACN_BAS',#56,#53,$);
#16=(
REPRESENTATION_RELATIONSHIP(' ',' ',#81,#82)
REPRESENTATION_RELATIONSHIP_WITH_TRANSFORMATION(#19)
SHAPE_REPRESENTATION_RELATIONSHIP()
);
#17=(
REPRESENTATION_RELATIONSHIP(' ',' ',#80,#82)
REPRESENTATION_RELATIONSHIP_WITH_TRANSFORMATION(#20)
SHAPE_REPRESENTATION_RELATIONSHIP()
);
#18=(
REPRESENTATION_RELATIONSHIP(' ',' ',#79,#82)
REPRESENTATION_RELATIONSHIP_WITH_TRANSFORMATION(#21)
SHAPE_REPRESENTATION_RELATIONSHIP()
);
#19=ITEM_DEFINED_TRANSFORMATION(' ',' ',#315,#347);
#20=ITEM_DEFINED_TRANSFORMATION(' ',' ',#315,#348);
#21=ITEM_DEFINED_TRANSFORMATION(' ',' ',#315,#349);
#22=ADVANCED_BREP_SHAPE_REPRESENTATION('202447643mod000_00-None',(#106),
#519);
#23=ADVANCED_BREP_SHAPE_REPRESENTATION('202452465mod000_00-None',(#105),
#518);
#24=CONSTRUCTIVE_GEOMETRY_REPRESENTATION_RELATIONSHIP(
'supplemental geometry','',#79,#28);
#25=CONSTRUCTIVE_GEOMETRY_REPRESENTATION_RELATIONSHIP(
'supplemental geometry','',#80,#29);
#26=CONSTRUCTIVE_GEOMETRY_REPRESENTATION_RELATIONSHIP(
'supplemental geometry','',#81,#30);
#27=CONSTRUCTIVE_GEOMETRY_REPRESENTATION_RELATIONSHIP(
'supplemental geometry','',#82,#31);
#28=CONSTRUCTIVE_GEOMETRY_REPRESENTATION('supplemental geometry',(#346),
#520);
#29=CONSTRUCTIVE_GEOMETRY_REPRESENTATION('supplemental geometry',(#341,
#342,#343),#519);
#30=CONSTRUCTIVE_GEOMETRY_REPRESENTATION('supplemental geometry',(#317,
#318,#319),#518);
#31=CONSTRUCTIVE_GEOMETRY_REPRESENTATION('supplemental geometry',(#316),
#517);
#32=SHAPE_REPRESENTATION_RELATIONSHIP('None',
'relationship between 202452467mod000_00-None and 202452467mod000_00-N
one',#79,#38);
#33=SHAPE_REPRESENTATION_RELATIONSHIP('None',
'relationship between 202447643mod000_00-None and 202447643mod000_00-N
one',#80,#22);
#34=SHAPE_REPRESENTATION_RELATIONSHIP('None',
'relationship between 202447643mod000_00-None and 202447643mod000_00-N
one',#80,#39);
#35=SHAPE_REPRESENTATION_RELATIONSHIP('None',
'relationship between 202452465mod000_00-None and 202452465mod000_00-N
one',#81,#23);
#36=SHAPE_REPRESENTATION_RELATIONSHIP('None',
'relationship between 202452465mod000_00-None and 202452465mod000_00-N
one',#81,#40);
#37=SHAPE_REPRESENTATION_RELATIONSHIP('None',
'relationship between 202452466mod000_00-None and 202452466mod000_00-N
one',#82,#41);
#38=GEOMETRICALLY_BOUNDED_WIREFRAME_SHAPE_REPRESENTATION(
'202452467mod000_00-None',(#83),#520);
#39=GEOMETRICALLY_BOUNDED_WIREFRAME_SHAPE_REPRESENTATION(
'202447643mod000_00-None',(#84),#519);
#40=GEOMETRICALLY_BOUNDED_WIREFRAME_SHAPE_REPRESENTATION(
'202452465mod000_00-None',(#85),#518);
#41=GEOMETRICALLY_BOUNDED_WIREFRAME_SHAPE_REPRESENTATION(
'202452466mod000_00-None',(#86),#517);
#42=SHAPE_DEFINITION_REPRESENTATION(#46,#79);
#43=SHAPE_DEFINITION_REPRESENTATION(#47,#80);
#44=SHAPE_DEFINITION_REPRESENTATION(#48,#81);
#45=SHAPE_DEFINITION_REPRESENTATION(#49,#82);
#46=PRODUCT_DEFINITION_SHAPE('','',#53);
#47=PRODUCT_DEFINITION_SHAPE('','',#54);
#48=PRODUCT_DEFINITION_SHAPE('','',#55);
#49=PRODUCT_DEFINITION_SHAPE('','',#56);
#50=PRODUCT_DEFINITION_SHAPE(' ','NAUO PRDDFN',#13);
#51=PRODUCT_DEFINITION_SHAPE(' ','NAUO PRDDFN',#14);
#52=PRODUCT_DEFINITION_SHAPE(' ','NAUO PRDDFN',#15);
#53=PRODUCT_DEFINITION(' ','',#61,#57);
#54=PRODUCT_DEFINITION(' ','',#62,#58);
#55=PRODUCT_DEFINITION(' ','',#63,#59);
#56=PRODUCT_DEFINITION(' ','',#64,#60);
#57=PRODUCT_DEFINITION_CONTEXT('part definition',#78,'design');
#58=PRODUCT_DEFINITION_CONTEXT('part definition',#78,'design');
#59=PRODUCT_DEFINITION_CONTEXT('part definition',#78,'design');
#60=PRODUCT_DEFINITION_CONTEXT('part definition',#78,'design');
#61=PRODUCT_DEFINITION_FORMATION_WITH_SPECIFIED_SOURCE(' ',' ',#69,
 .NOT_KNOWN.);
#62=PRODUCT_DEFINITION_FORMATION_WITH_SPECIFIED_SOURCE(' ',' ',#70,
 .NOT_KNOWN.);
#63=PRODUCT_DEFINITION_FORMATION_WITH_SPECIFIED_SOURCE(' ',' ',#71,
 .NOT_KNOWN.);
#64=PRODUCT_DEFINITION_FORMATION_WITH_SPECIFIED_SOURCE(' ',' ',#72,
 .NOT_KNOWN.);
#65=PRODUCT_RELATED_PRODUCT_CATEGORY('part','',(#69));
#66=PRODUCT_RELATED_PRODUCT_CATEGORY('part','',(#70));
#67=PRODUCT_RELATED_PRODUCT_CATEGORY('part','',(#71));
#68=PRODUCT_RELATED_PRODUCT_CATEGORY('part','',(#72));
#69=PRODUCT('ASSEMBLY_CONSTRUCTION','202452467mod000_00',' ',(#73));
#70=PRODUCT('202447643mod000_00','202447643mod000_00','MASTER_INSERT',(#74));
#71=PRODUCT('202452465mod000_00','202452465mod000_00','NOCUT',(#75));
#72=PRODUCT('202452466mod000_00','202452466mod000_00',' ',(#76));
#73=PRODUCT_CONTEXT(' ',#78,'mechanical');
#74=PRODUCT_CONTEXT(' ',#78,'mechanical');
#75=PRODUCT_CONTEXT(' ',#78,'mechanical');
#76=PRODUCT_CONTEXT(' ',#78,'mechanical');
#77=APPLICATION_PROTOCOL_DEFINITION('international standard',
'automotive_design',2010,#78);
#78=APPLICATION_CONTEXT(
'core data for automotive mechanical design processes');
#79=SHAPE_REPRESENTATION('202452467mod000_00-None',(#315),#520);
#80=SHAPE_REPRESENTATION('202447643mod000_00-None',(#315),#519);
#81=SHAPE_REPRESENTATION('202452465mod000_00-None',(#315),#518);
#82=SHAPE_REPRESENTATION('202452466mod000_00-None',(#315,#347,#348,#349),
#517);
#83=GEOMETRIC_CURVE_SET('None',(#507,#508));
#84=GEOMETRIC_CURVE_SET('None',(#461,#462,#463,#93));
#85=GEOMETRIC_CURVE_SET('None',(#424,#425,#426));
#86=GEOMETRIC_CURVE_SET('None',(#422));
#87=SURFACE_OF_REVOLUTION('',#89,#88);
#88=AXIS1_PLACEMENT('',#505,#410);
#89=B_SPLINE_CURVE_WITH_KNOTS('',3,(#486,#487,#488,#489,#490,#491,#492,
#493,#494,#495,#496,#497,#498,#499,#500,#501,#502,#503,#504),
 .UNSPECIFIED.,.F.,.F.,(4,1,1,1,1,1,1,1,1,1,1,1,1,1,1,1,4),(0.,0.0624999999999999,
0.125,0.1875,0.25,0.3125,0.375,0.4375,0.5,0.5625,0.625,0.6875,0.75,0.8125,
0.875,0.9375,1.),.UNSPECIFIED.);
#90=VERTEX_LOOP('',#212);
#91=DRAUGHTING_PRE_DEFINED_COLOUR('blue');
#92=DRAUGHTING_PRE_DEFINED_COLOUR('white');
#93=TRIMMED_CURVE('CUTTING EDGE LINE',#94,(PARAMETER_VALUE(0.)),(
PARAMETER_VALUE(1.)),.T.,.PARAMETER.);
#94=(
BOUNDED_CURVE()
B_SPLINE_CURVE(4,(#464,#465,#466,#467,#468,#469,#470,#471,#472,#473,#474,
#475,#476,#477,#478,#479),.UNSPECIFIED.,.T.,.F.)
B_SPLINE_CURVE_WITH_KNOTS((5,3,4,4,5),(0.,0.250341520340424,0.500683040680849,
0.637755267148616,1.),.UNSPECIFIED.)
CURVE()
GEOMETRIC_REPRESENTATION_ITEM()
RATIONAL_B_SPLINE_CURVE((0.548615003879166,0.548615003879166,0.537127075985786,
0.548615003879166,0.548615003879166,0.537127075985786,0.548615003879166,
0.548615003879166,0.548615003879166,0.548615003879166,0.548615003879166,
0.548615003879166,0.548615003879166,0.548615003879166,0.548615003879166,
0.548615003879166))
REPRESENTATION_ITEM('CUTTING EDGE LINE')
);
#95=SURFACE_STYLE_USAGE(.BOTH.,#97);
#96=SURFACE_STYLE_USAGE(.BOTH.,#98);
#97=SURFACE_SIDE_STYLE('',(#99));
#98=SURFACE_SIDE_STYLE('',(#100));
#99=SURFACE_STYLE_FILL_AREA(#101);
#100=SURFACE_STYLE_FILL_AREA(#102);
#101=FILL_AREA_STYLE('',(#103));
#102=FILL_AREA_STYLE('',(#104));
#103=FILL_AREA_STYLE_COLOUR('',#313);
#104=FILL_AREA_STYLE_COLOUR('',#314);
#105=MANIFOLD_SOLID_BREP('NOCUT',#107);
#106=MANIFOLD_SOLID_BREP('CUT',#108);
#107=CLOSED_SHELL('',(#121,#122,#123,#124,#125,#126,#127,#128,#129,#130,
#131));
#108=CLOSED_SHELL('',(#132,#133));
#109=SPHERICAL_SURFACE('',#340,3.3125);
#110=TOROIDAL_SURFACE('',#335,8.3125,5.);
#111=TOROIDAL_SURFACE('',#336,6.84908608436989,2.);
#112=CONICAL_SURFACE('',#330,3.3125,4.93984126143662);
#113=CONICAL_SURFACE('',#334,5.49749999999999,45.0000000000001);
#114=PLANE('',#324);
#115=PLANE('',#337);
#116=PLANE('',#339);
#117=PLANE('',#345);
#118=FACE_OUTER_BOUND('',#159,.T.);
#119=FACE_OUTER_BOUND('',#174,.T.);
#120=FACE_OUTER_BOUND('',#178,.T.);
#121=ADVANCED_FACE('',(#137,#138),#134,.T.);
#122=ADVANCED_FACE('',(#118),#114,.T.);
#123=ADVANCED_FACE('',(#139,#140),#135,.T.);
#124=ADVANCED_FACE('',(#141,#142),#112,.T.);
#125=ADVANCED_FACE('',(#143,#144),#136,.T.);
#126=ADVANCED_FACE('',(#145,#146),#113,.T.);
#127=ADVANCED_FACE('',(#147,#148),#110,.F.);
#128=ADVANCED_FACE('',(#149,#150),#111,.F.);
#129=ADVANCED_FACE('',(#151,#152),#115,.F.);
#130=ADVANCED_FACE('',(#119),#116,.F.);
#131=ADVANCED_FACE('',(#153,#154),#109,.T.);
#132=ADVANCED_FACE('',(#155,#156),#87,.F.);
#133=ADVANCED_FACE('',(#120),#117,.T.);
#134=CYLINDRICAL_SURFACE('',#322,3.2475);
#135=CYLINDRICAL_SURFACE('',#327,3.3125);
#136=CYLINDRICAL_SURFACE('',#333,5.99725);
#137=FACE_BOUND('',#157,.T.);
#138=FACE_BOUND('',#158,.T.);
#139=FACE_BOUND('',#160,.T.);
#140=FACE_BOUND('',#161,.T.);
#141=FACE_BOUND('',#162,.T.);
#142=FACE_BOUND('',#163,.T.);
#143=FACE_BOUND('',#164,.T.);
#144=FACE_BOUND('',#165,.T.);
#145=FACE_BOUND('',#166,.T.);
#146=FACE_BOUND('',#167,.T.);
#147=FACE_BOUND('',#168,.T.);
#148=FACE_BOUND('',#169,.T.);
#149=FACE_BOUND('',#170,.T.);
#150=FACE_BOUND('',#171,.T.);
#151=FACE_BOUND('',#172,.T.);
#152=FACE_BOUND('',#173,.T.);
#153=FACE_BOUND('',#175,.T.);
#154=FACE_BOUND('',#176,.T.);
#155=FACE_BOUND('',#177,.T.);
#156=FACE_BOUND('',#90,.T.);
#157=EDGE_LOOP('',(#179));
#158=EDGE_LOOP('',(#180));
#159=EDGE_LOOP('',(#181));
#160=EDGE_LOOP('',(#182));
#161=EDGE_LOOP('',(#183));
#162=EDGE_LOOP('',(#184));
#163=EDGE_LOOP('',(#185));
#164=EDGE_LOOP('',(#186));
#165=EDGE_LOOP('',(#187));
#166=EDGE_LOOP('',(#188));
#167=EDGE_LOOP('',(#189));
#168=EDGE_LOOP('',(#190));
#169=EDGE_LOOP('',(#191));
#170=EDGE_LOOP('',(#192));
#171=EDGE_LOOP('',(#193));
#172=EDGE_LOOP('',(#194));
#173=EDGE_LOOP('',(#195));
#174=EDGE_LOOP('',(#196));
#175=EDGE_LOOP('',(#197));
#176=EDGE_LOOP('',(#198));
#177=EDGE_LOOP('',(#199));
#178=EDGE_LOOP('',(#200));
#179=ORIENTED_EDGE('',*,*,#213,.F.);
#180=ORIENTED_EDGE('',*,*,#214,.F.);
#181=ORIENTED_EDGE('',*,*,#215,.T.);
#182=ORIENTED_EDGE('',*,*,#216,.T.);
#183=ORIENTED_EDGE('',*,*,#217,.T.);
#184=ORIENTED_EDGE('',*,*,#218,.T.);
#185=ORIENTED_EDGE('',*,*,#219,.T.);
#186=ORIENTED_EDGE('',*,*,#220,.F.);
#187=ORIENTED_EDGE('',*,*,#221,.T.);
#188=ORIENTED_EDGE('',*,*,#220,.T.);
#189=ORIENTED_EDGE('',*,*,#215,.F.);
#190=ORIENTED_EDGE('',*,*,#217,.F.);
#191=ORIENTED_EDGE('',*,*,#219,.F.);
#192=ORIENTED_EDGE('',*,*,#218,.F.);
#193=ORIENTED_EDGE('',*,*,#221,.F.);
#194=ORIENTED_EDGE('',*,*,#213,.T.);
#195=ORIENTED_EDGE('',*,*,#216,.F.);
#196=ORIENTED_EDGE('',*,*,#222,.F.);
#197=ORIENTED_EDGE('',*,*,#214,.T.);
#198=ORIENTED_EDGE('',*,*,#222,.T.);
#199=ORIENTED_EDGE('',*,*,#223,.T.);
#200=ORIENTED_EDGE('',*,*,#223,.F.);
#201=VERTEX_POINT('',#431);
#202=VERTEX_POINT('',#433);
#203=VERTEX_POINT('',#436);
#204=VERTEX_POINT('',#439);
#205=VERTEX_POINT('',#441);
#206=VERTEX_POINT('',#444);
#207=VERTEX_POINT('',#446);
#208=VERTEX_POINT('',#449);
#209=VERTEX_POINT('',#451);
#210=VERTEX_POINT('',#458);
#211=VERTEX_POINT('',#484);
#212=VERTEX_POINT('',#485);
#213=EDGE_CURVE('',#201,#201,#224,.T.);
#214=EDGE_CURVE('',#202,#202,#225,.T.);
#215=EDGE_CURVE('',#203,#203,#226,.T.);
#216=EDGE_CURVE('',#204,#204,#227,.T.);
#217=EDGE_CURVE('',#205,#205,#228,.T.);
#218=EDGE_CURVE('',#206,#206,#229,.T.);
#219=EDGE_CURVE('',#207,#207,#230,.T.);
#220=EDGE_CURVE('',#208,#208,#231,.T.);
#221=EDGE_CURVE('',#209,#209,#232,.T.);
#222=EDGE_CURVE('',#210,#210,#233,.T.);
#223=EDGE_CURVE('',#211,#211,#234,.T.);
#224=CIRCLE('',#320,3.2475);
#225=CIRCLE('',#321,3.2475);
#226=CIRCLE('',#323,5.49749999999999);
#227=CIRCLE('',#325,3.3125);
#228=CIRCLE('',#326,3.3125);
#229=CIRCLE('',#328,4.8565147649652);
#230=CIRCLE('',#329,3.33107170148827);
#231=CIRCLE('',#331,5.99725);
#232=CIRCLE('',#332,5.99725);
#233=CIRCLE('',#338,2.17316733133921);
#234=CIRCLE('',#344,2.64537161850656);
#235=CURVE_STYLE('',#244,POSITIVE_LENGTH_MEASURE(0.18),#312);
#236=CURVE_STYLE('',#245,POSITIVE_LENGTH_MEASURE(0.18),#312);
#237=CURVE_STYLE('',#246,POSITIVE_LENGTH_MEASURE(0.18),#312);
#238=CURVE_STYLE('',#247,POSITIVE_LENGTH_MEASURE(0.18),#312);
#239=CURVE_STYLE('',#248,POSITIVE_LENGTH_MEASURE(0.18),#91);
#240=CURVE_STYLE('',#249,POSITIVE_LENGTH_MEASURE(0.18),#312);
#241=CURVE_STYLE('',#250,POSITIVE_LENGTH_MEASURE(0.18),#312);
#242=CURVE_STYLE('',#251,POSITIVE_LENGTH_MEASURE(0.18),#312);
#243=CURVE_STYLE('',#252,POSITIVE_LENGTH_MEASURE(0.18),#312);
#244=DRAUGHTING_PRE_DEFINED_CURVE_FONT('continuous');
#245=DRAUGHTING_PRE_DEFINED_CURVE_FONT('continuous');
#246=DRAUGHTING_PRE_DEFINED_CURVE_FONT('continuous');
#247=DRAUGHTING_PRE_DEFINED_CURVE_FONT('continuous');
#248=DRAUGHTING_PRE_DEFINED_CURVE_FONT('continuous');
#249=DRAUGHTING_PRE_DEFINED_CURVE_FONT('continuous');
#250=DRAUGHTING_PRE_DEFINED_CURVE_FONT('continuous');
#251=DRAUGHTING_PRE_DEFINED_CURVE_FONT('continuous');
#252=DRAUGHTING_PRE_DEFINED_CURVE_FONT('continuous');
#253=PRESENTATION_LAYER_ASSIGNMENT('1','Layer 1',(#422,#316,#424,#425,#426,
#317,#318,#319,#105,#461,#462,#463,#93,#341,#342,#343,#106,#507,#508,#346));
#254=STYLED_ITEM('',(#274),#422);
#255=STYLED_ITEM('',(#275),#316);
#256=STYLED_ITEM('',(#276),#424);
#257=STYLED_ITEM('',(#277),#425);
#258=STYLED_ITEM('',(#278),#426);
#259=STYLED_ITEM('',(#279),#317);
#260=STYLED_ITEM('',(#280),#318);
#261=STYLED_ITEM('',(#281),#319);
#262=STYLED_ITEM('',(#282),#105);
#263=STYLED_ITEM('',(#283),#461);
#264=STYLED_ITEM('',(#284),#462);
#265=STYLED_ITEM('',(#285),#463);
#266=STYLED_ITEM('',(#286),#93);
#267=STYLED_ITEM('',(#287),#341);
#268=STYLED_ITEM('',(#288),#342);
#269=STYLED_ITEM('',(#289),#343);
#270=STYLED_ITEM('',(#290),#106);
#271=STYLED_ITEM('',(#291),#507);
#272=STYLED_ITEM('',(#292),#508);
#273=STYLED_ITEM('',(#293),#346);
#274=PRESENTATION_STYLE_ASSIGNMENT((#294));
#275=PRESENTATION_STYLE_ASSIGNMENT((#235));
#276=PRESENTATION_STYLE_ASSIGNMENT((#295));
#277=PRESENTATION_STYLE_ASSIGNMENT((#296));
#278=PRESENTATION_STYLE_ASSIGNMENT((#297));
#279=PRESENTATION_STYLE_ASSIGNMENT((#236));
#280=PRESENTATION_STYLE_ASSIGNMENT((#237));
#281=PRESENTATION_STYLE_ASSIGNMENT((#238));
#282=PRESENTATION_STYLE_ASSIGNMENT((#95));
#283=PRESENTATION_STYLE_ASSIGNMENT((#298));
#284=PRESENTATION_STYLE_ASSIGNMENT((#299));
#285=PRESENTATION_STYLE_ASSIGNMENT((#300));
#286=PRESENTATION_STYLE_ASSIGNMENT((#239));
#287=PRESENTATION_STYLE_ASSIGNMENT((#240));
#288=PRESENTATION_STYLE_ASSIGNMENT((#241));
#289=PRESENTATION_STYLE_ASSIGNMENT((#242));
#290=PRESENTATION_STYLE_ASSIGNMENT((#96));
#291=PRESENTATION_STYLE_ASSIGNMENT((#301));
#292=PRESENTATION_STYLE_ASSIGNMENT((#302));
#293=PRESENTATION_STYLE_ASSIGNMENT((#243));
#294=POINT_STYLE('',#303,POSITIVE_LENGTH_MEASURE(3.),#312);
#295=POINT_STYLE('',#304,POSITIVE_LENGTH_MEASURE(3.),#312);
#296=POINT_STYLE('',#305,POSITIVE_LENGTH_MEASURE(3.),#312);
#297=POINT_STYLE('',#306,POSITIVE_LENGTH_MEASURE(3.),#312);
#298=POINT_STYLE('',#307,POSITIVE_LENGTH_MEASURE(3.),#312);
#299=POINT_STYLE('',#308,POSITIVE_LENGTH_MEASURE(3.),#312);
#300=POINT_STYLE('',#309,POSITIVE_LENGTH_MEASURE(3.),#312);
#301=POINT_STYLE('',#310,POSITIVE_LENGTH_MEASURE(3.),#92);
#302=POINT_STYLE('',#311,POSITIVE_LENGTH_MEASURE(3.),#312);
#303=PRE_DEFINED_POINT_MARKER_SYMBOL('plus');
#304=PRE_DEFINED_POINT_MARKER_SYMBOL('plus');
#305=PRE_DEFINED_POINT_MARKER_SYMBOL('plus');
#306=PRE_DEFINED_POINT_MARKER_SYMBOL('plus');
#307=PRE_DEFINED_POINT_MARKER_SYMBOL('plus');
#308=PRE_DEFINED_POINT_MARKER_SYMBOL('plus');
#309=PRE_DEFINED_POINT_MARKER_SYMBOL('plus');
#310=PRE_DEFINED_POINT_MARKER_SYMBOL('plus');
#311=PRE_DEFINED_POINT_MARKER_SYMBOL('plus');
#312=COLOUR_RGB('Medium Maroon',0.6,0.4,0.4);
#313=COLOUR_RGB('Medium Gray',0.490196078431373,0.490196078431373,0.490196078431373);
#314=COLOUR_RGB('Light Gray',0.8,0.8,0.8);
#315=AXIS2_PLACEMENT_3D('',#421,#350,#351);
#316=AXIS2_PLACEMENT_3D('',#423,#352,#353);
#317=AXIS2_PLACEMENT_3D('PCS',#427,#354,#355);
#318=AXIS2_PLACEMENT_3D('MCS',#428,#356,#357);
#319=AXIS2_PLACEMENT_3D('CSW',#429,#358,#359);
#320=AXIS2_PLACEMENT_3D('',#430,#360,#361);
#321=AXIS2_PLACEMENT_3D('',#432,#362,#363);
#322=AXIS2_PLACEMENT_3D('',#434,#364,#365);
#323=AXIS2_PLACEMENT_3D('',#435,#366,#367);
#324=AXIS2_PLACEMENT_3D('',#437,#368,#369);
#325=AXIS2_PLACEMENT_3D('',#438,#370,#371);
#326=AXIS2_PLACEMENT_3D('',#440,#372,#373);
#327=AXIS2_PLACEMENT_3D('',#442,#374,#375);
#328=AXIS2_PLACEMENT_3D('',#443,#376,#377);
#329=AXIS2_PLACEMENT_3D('',#445,#378,#379);
#330=AXIS2_PLACEMENT_3D('',#447,#380,#381);
#331=AXIS2_PLACEMENT_3D('',#448,#382,#383);
#332=AXIS2_PLACEMENT_3D('',#450,#384,#385);
#333=AXIS2_PLACEMENT_3D('',#452,#386,#387);
#334=AXIS2_PLACEMENT_3D('',#453,#388,#389);
#335=AXIS2_PLACEMENT_3D('',#454,#390,#391);
#336=AXIS2_PLACEMENT_3D('',#455,#392,#393);
#337=AXIS2_PLACEMENT_3D('',#456,#394,#395);
#338=AXIS2_PLACEMENT_3D('',#457,#396,#397);
#339=AXIS2_PLACEMENT_3D('',#459,#398,#399);
#340=AXIS2_PLACEMENT_3D('',#460,#400,#401);
#341=AXIS2_PLACEMENT_3D('CIP',#480,#402,#403);
#342=AXIS2_PLACEMENT_3D('MCS',#481,#404,#405);
#343=AXIS2_PLACEMENT_3D('PCS',#482,#406,#407);
#344=AXIS2_PLACEMENT_3D('',#483,#408,#409);
#345=AXIS2_PLACEMENT_3D('',#506,#411,#412);
#346=AXIS2_PLACEMENT_3D('',#509,#413,#414);
#347=AXIS2_PLACEMENT_3D('',#510,#415,#416);
#348=AXIS2_PLACEMENT_3D('',#511,#417,#418);
#349=AXIS2_PLACEMENT_3D('',#512,#419,#420);
#350=DIRECTION('',(0.,0.,1.));
#351=DIRECTION('',(1.,0.,0.));
#352=DIRECTION('',(0.,0.,1.));
#353=DIRECTION('',(1.,0.,0.));
#354=DIRECTION('',(0.,0.,1.));
#355=DIRECTION('',(1.,0.,0.));
#356=DIRECTION('',(0.,0.,1.));
#357=DIRECTION('',(1.,0.,0.));
#358=DIRECTION('',(0.,0.,1.));
#359=DIRECTION('',(1.,0.,0.));
#360=DIRECTION('',(0.,0.,1.));
#361=DIRECTION('',(0.,1.,0.));
#362=DIRECTION('',(0.,0.,-1.));
#363=DIRECTION('',(0.,1.,0.));
#364=DIRECTION('',(0.,0.,-1.));
#365=DIRECTION('',(0.,-1.,0.));
#366=DIRECTION('',(0.,0.,1.));
#367=DIRECTION('',(0.,1.,0.));
#368=DIRECTION('',(0.,0.,1.));
#369=DIRECTION('',(0.,1.,0.));
#370=DIRECTION('',(0.,0.,1.));
#371=DIRECTION('',(0.,1.,0.));
#372=DIRECTION('',(0.,0.,-1.));
#373=DIRECTION('',(0.,1.,0.));
#374=DIRECTION('',(0.,0.,1.));
#375=DIRECTION('',(0.,1.,0.));
#376=DIRECTION('',(0.,0.,-1.));
#377=DIRECTION('',(0.,-1.,0.));
#378=DIRECTION('',(0.,0.,1.));
#379=DIRECTION('',(0.,1.,0.));
#380=DIRECTION('',(0.,0.,1.));
#381=DIRECTION('',(0.,1.,0.));
#382=DIRECTION('',(0.,0.,1.));
#383=DIRECTION('',(0.,-1.,0.));
#384=DIRECTION('',(0.,0.,1.));
#385=DIRECTION('',(0.,-1.,0.));
#386=DIRECTION('',(0.,0.,1.));
#387=DIRECTION('',(0.,1.,0.));
#388=DIRECTION('',(0.,0.,-1.));
#389=DIRECTION('',(0.,-1.,0.));
#390=DIRECTION('',(0.,0.,1.));
#391=DIRECTION('',(0.,1.,0.));
#392=DIRECTION('',(0.,0.,1.));
#393=DIRECTION('',(0.,1.,0.));
#394=DIRECTION('',(0.,0.,1.));
#395=DIRECTION('',(0.,1.,0.));
#396=DIRECTION('',(0.,0.,1.));
#397=DIRECTION('',(0.,1.,0.));
#398=DIRECTION('',(0.,0.,1.));
#399=DIRECTION('',(0.,1.,0.));
#400=DIRECTION('',(0.,-1.,0.));
#401=DIRECTION('',(0.,0.,0.999999999999999));
#402=DIRECTION('',(0.,0.,1.));
#403=DIRECTION('',(1.,0.,0.));
#404=DIRECTION('',(0.,0.,1.));
#405=DIRECTION('',(1.,0.,0.));
#406=DIRECTION('',(0.,0.,1.));
#407=DIRECTION('',(1.,0.,0.));
#408=DIRECTION('',(0.,0.,-1.));
#409=DIRECTION('',(-1.,0.,0.));
#410=DIRECTION('',(0.,0.,-1.));
#411=DIRECTION('',(0.,0.,1.));
#412=DIRECTION('',(1.,0.,0.));
#413=DIRECTION('',(0.,0.,1.));
#414=DIRECTION('',(1.,0.,0.));
#415=DIRECTION('',(0.,0.,1.));
#416=DIRECTION('',(1.,0.,0.));
#417=DIRECTION('',(0.,0.,1.));
#418=DIRECTION('',(1.,0.,0.));
#419=DIRECTION('',(0.,0.,1.));
#420=DIRECTION('',(1.,0.,0.));
#421=CARTESIAN_POINT('',(0.,0.,0.));
#422=CARTESIAN_POINT('',(0.,0.,0.));
#423=CARTESIAN_POINT('',(0.,0.,0.));
#424=CARTESIAN_POINT('CSW',(9.89063431848392E-17,-1.14130926931466E-13,
-103.005));
#425=CARTESIAN_POINT('PCS',(-1.31741536436081E-28,-1.12459714999922E-13,
0.));
#426=CARTESIAN_POINT('MCS',(0.,0.,-45.));
#427=CARTESIAN_POINT('',(-1.31741536436081E-28,-1.12459714999922E-13,0.));
#428=CARTESIAN_POINT('',(0.,0.,-45.));
#429=CARTESIAN_POINT('',(9.89063431848392E-17,-1.14130926931466E-13,-103.005));
#430=CARTESIAN_POINT('',(-1.31741536436081E-28,-1.12459714999922E-13,-77.5));
#431=CARTESIAN_POINT('',(-1.31741536436081E-28,3.24749999999989,-77.5));
#432=CARTESIAN_POINT('',(-1.31741536436081E-28,-1.12459714999922E-13,-106.652993108693));
#433=CARTESIAN_POINT('',(-1.31741536436081E-28,3.24749999999989,-106.652993108693));
#434=CARTESIAN_POINT('',(-1.31741536436081E-28,-1.12459714999922E-13,-94.4476783403409));
#435=CARTESIAN_POINT('',(-1.31741536436081E-28,-1.12459714999922E-13,0.));
#436=CARTESIAN_POINT('',(-1.31741536436081E-28,5.49749999999988,0.));
#437=CARTESIAN_POINT('',(-1.31741536436081E-28,-1.12459714999922E-13,0.));
#438=CARTESIAN_POINT('',(-1.31741536436081E-28,-1.12459714999922E-13,-77.5));
#439=CARTESIAN_POINT('',(-1.31741536436081E-28,3.31249999999989,-77.5));
#440=CARTESIAN_POINT('',(-1.31741536436081E-28,-1.12459714999922E-13,-76.715674850599));
#441=CARTESIAN_POINT('',(-1.31741536436081E-28,3.31249999999989,-76.715674850599));
#442=CARTESIAN_POINT('',(-1.31741536436081E-28,-1.12459714999922E-13,20.2268152444466));
#443=CARTESIAN_POINT('',(-1.31741536436081E-28,-1.12459714999922E-13,-58.6358177922311));
#444=CARTESIAN_POINT('',(-1.31741536436081E-28,-4.85651476496531,-58.6358177922311));
#445=CARTESIAN_POINT('',(-1.31741536436081E-28,-1.12459714999922E-13,-76.2851262391897));
#446=CARTESIAN_POINT('',(-1.31741536436081E-28,3.33107170148815,-76.2851262391897));
#447=CARTESIAN_POINT('',(-1.31741536436081E-28,-1.12459714999922E-13,-76.5));
#448=CARTESIAN_POINT('',(-1.31741536436081E-28,-1.12459714999922E-13,-0.499750000000007));
#449=CARTESIAN_POINT('',(-1.31741536436081E-28,-5.99725000000011,-0.499750000000007));
#450=CARTESIAN_POINT('',(-1.31741536436081E-28,-1.12459714999922E-13,-56.9985137400241));
#451=CARTESIAN_POINT('',(-1.31741536436081E-28,-5.99725000000011,-56.9985137400241));
#452=CARTESIAN_POINT('',(-1.31741536436081E-28,-1.12459714999922E-13,20.2268152444466));
#453=CARTESIAN_POINT('',(-1.31741536436081E-28,-1.12459714999922E-13,0.));
#454=CARTESIAN_POINT('',(-1.31741536436081E-28,-1.12459714999922E-13,-76.715674850599));
#455=CARTESIAN_POINT('',(-1.31741536436081E-28,-1.12459714999922E-13,-58.8080372367948));
#456=CARTESIAN_POINT('',(-3.2475,-1.12459714999922E-13,-77.5));
#457=CARTESIAN_POINT('',(-1.31741536436081E-28,-1.12459714999922E-13,-108.5));
#458=CARTESIAN_POINT('',(-1.31741536436081E-28,2.1731673313391,-108.5));
#459=CARTESIAN_POINT('',(-1.31741536436081E-28,-1.12459714999922E-13,-108.5));
#460=CARTESIAN_POINT('',(-1.31741536436081E-28,-1.12459714999922E-13,-106.));
#461=CARTESIAN_POINT('',(0.,0.,-6.995));
#462=CARTESIAN_POINT('',(0.,0.,0.));
#463=CARTESIAN_POINT('MCS',(0.,0.,0.));
#464=CARTESIAN_POINT('',(-2.44684430469641E-16,0.,-6.991));
#465=CARTESIAN_POINT('',(-1.13560674478209,0.,-6.991));
#466=CARTESIAN_POINT('',(-2.45683357152706,0.,-6.5514990489374));
#467=CARTESIAN_POINT('',(-3.33548185511648,0.,-5.4713237819363));
#468=CARTESIAN_POINT('',(-4.13928048224248,0.,-3.34710192859597));
#469=CARTESIAN_POINT('',(-4.1958153633704,0.,-1.95584162911518));
#470=CARTESIAN_POINT('',(-3.49650830534899,0.,-0.751777240348134));
#471=CARTESIAN_POINT('',(-2.64537161850656,0.,1.33226762955019E-15));
#472=CARTESIAN_POINT('',(-1.98402871387992,0.,1.33226762955019E-15));
#473=CARTESIAN_POINT('',(-1.32268580925328,0.,1.33226762955019E-15));
#474=CARTESIAN_POINT('',(-0.661342904626639,0.,1.33226762955019E-15));
#475=CARTESIAN_POINT('',(0.,0.,6.66133814775094E-16));
#476=CARTESIAN_POINT('',(0.,0.,-1.74775));
#477=CARTESIAN_POINT('',(0.,0.,-3.4955));
#478=CARTESIAN_POINT('',(0.,0.,-5.24325));
#479=CARTESIAN_POINT('',(0.,0.,-6.991));
#480=CARTESIAN_POINT('',(0.,0.,-6.995));
#481=CARTESIAN_POINT('',(0.,0.,0.));
#482=CARTESIAN_POINT('',(0.,0.,0.));
#483=CARTESIAN_POINT('',(0.,0.,1.33226762955019E-15));
#484=CARTESIAN_POINT('',(-2.64537161850656,0.,1.33226762955019E-15));
#485=CARTESIAN_POINT('',(-1.77635683940025E-15,0.,-6.991));
#486=CARTESIAN_POINT('',(-1.77635683940025E-15,0.,-6.991));
#487=CARTESIAN_POINT('',(-0.201306995197375,0.,-6.991));
#488=CARTESIAN_POINT('',(-0.603919217561338,0.,-6.96051815696227));
#489=CARTESIAN_POINT('',(-1.19407077552536,0.,-6.8243927342775));
#490=CARTESIAN_POINT('',(-1.75700072420139,0.,-6.60096743324348));
#491=CARTESIAN_POINT('',(-2.27987599907286,0.,-6.29533621912526));
#492=CARTESIAN_POINT('',(-2.75077621929175,0.,-5.9144661953278));
#493=CARTESIAN_POINT('',(-3.1589664796715,0.,-5.46704055598971));
#494=CARTESIAN_POINT('',(-3.49514078163101,0.,-4.96325902535674));
#495=CARTESIAN_POINT('',(-3.75163570647551,0.,-4.41460672590941));
#496=CARTESIAN_POINT('',(-3.92260340454383,0.,-3.83359120260244));
#497=CARTESIAN_POINT('',(-4.00414678012264,0.,-3.23345815895556));
#498=CARTESIAN_POINT('',(-3.99440635406899,0.,-2.62788890921138));
#499=CARTESIAN_POINT('',(-3.89360470027009,0.,-2.03068875960437));
#500=CARTESIAN_POINT('',(-3.70403930764067,0.,-1.45547231858485));
#501=CARTESIAN_POINT('',(-3.43003223906289,0.,-0.915352777679693));
#502=CARTESIAN_POINT('',(-3.07782963981048,0.,-0.422643612816996));
#503=CARTESIAN_POINT('',(-2.79625111065274,0.,-0.133266219144635));
#504=CARTESIAN_POINT('',(-2.64537161850656,0.,1.33226762955019E-15));
#505=CARTESIAN_POINT('',(0.,0.,0.));
#506=CARTESIAN_POINT('',(-2.64537161850656,0.,2.44249065417534E-15));
#507=CARTESIAN_POINT('CRP',(-3.995,0.,-110.));
#508=CARTESIAN_POINT('',(0.,0.,0.));
#509=CARTESIAN_POINT('',(0.,0.,0.));
#510=CARTESIAN_POINT('',(0.,0.,0.));
#511=CARTESIAN_POINT('',(9.89063431849709E-17,0.,-103.005));
#512=CARTESIAN_POINT('',(0.,0.,0.));
#513=MECHANICAL_DESIGN_GEOMETRIC_PRESENTATION_REPRESENTATION('',(#254,#255),
#517);
#514=MECHANICAL_DESIGN_GEOMETRIC_PRESENTATION_REPRESENTATION('',(#256,#257,
#258,#259,#260,#261,#262),#518);
#515=MECHANICAL_DESIGN_GEOMETRIC_PRESENTATION_REPRESENTATION('',(#263,#264,
#265,#266,#267,#268,#269,#270),#519);
#516=MECHANICAL_DESIGN_GEOMETRIC_PRESENTATION_REPRESENTATION('',(#271,#272,
#273),#520);
#517=(
GEOMETRIC_REPRESENTATION_CONTEXT(3)
GLOBAL_UNCERTAINTY_ASSIGNED_CONTEXT((#521))
GLOBAL_UNIT_ASSIGNED_CONTEXT((#530,#526,#525))
REPRESENTATION_CONTEXT('1590149678184','TOP_LEVEL_ASSEMBLY_PART')
);
#518=(
GEOMETRIC_REPRESENTATION_CONTEXT(3)
GLOBAL_UNCERTAINTY_ASSIGNED_CONTEXT((#522))
GLOBAL_UNIT_ASSIGNED_CONTEXT((#530,#526,#525))
REPRESENTATION_CONTEXT('202452465mod000_00','COMPONENT_PART')
);
#519=(
GEOMETRIC_REPRESENTATION_CONTEXT(3)
GLOBAL_UNCERTAINTY_ASSIGNED_CONTEXT((#523))
GLOBAL_UNIT_ASSIGNED_CONTEXT((#530,#526,#525))
REPRESENTATION_CONTEXT('202447643mod000_00','COMPONENT_PART')
);
#520=(
GEOMETRIC_REPRESENTATION_CONTEXT(3)
GLOBAL_UNCERTAINTY_ASSIGNED_CONTEXT((#524))
GLOBAL_UNIT_ASSIGNED_CONTEXT((#530,#526,#525))
REPRESENTATION_CONTEXT('202452467mod000_00','COMPONENT_PART')
);
#521=UNCERTAINTY_MEASURE_WITH_UNIT(LENGTH_MEASURE(2.E-5),#530,
'DISTANCE_ACCURACY_VALUE','Maximum Tolerance applied to model');
#522=UNCERTAINTY_MEASURE_WITH_UNIT(LENGTH_MEASURE(2.E-5),#530,
'DISTANCE_ACCURACY_VALUE','Maximum Tolerance applied to model');
#523=UNCERTAINTY_MEASURE_WITH_UNIT(LENGTH_MEASURE(0.0508),#530,
'DISTANCE_ACCURACY_VALUE','Maximum Tolerance applied to model');
#524=UNCERTAINTY_MEASURE_WITH_UNIT(LENGTH_MEASURE(2.E-5),#530,
'DISTANCE_ACCURACY_VALUE','Maximum Tolerance applied to model');
#525=(
NAMED_UNIT(*)
SI_UNIT($,.STERADIAN.)
SOLID_ANGLE_UNIT()
);
#526=(
CONVERSION_BASED_UNIT('DEGREE',#528)
NAMED_UNIT(#527)
PLANE_ANGLE_UNIT()
);
#527=DIMENSIONAL_EXPONENTS(0.,0.,0.,0.,0.,0.,0.);
#528=PLANE_ANGLE_MEASURE_WITH_UNIT(PLANE_ANGLE_MEASURE(0.0174532925),#529);
#529=(
NAMED_UNIT(*)
PLANE_ANGLE_UNIT()
SI_UNIT($,.RADIAN.)
);
#530=(
LENGTH_UNIT()
NAMED_UNIT(*)
SI_UNIT(.MILLI.,.METRE.)
);
ENDSEC;
END-ISO-10303-21;
