ISO-10303-21;
HEADER;
/* Generated by software containing ST-Developer
 * from STEP Tools, Inc. (www.steptools.com) 
 */
/* OPTION: using custom schema-name function */

FILE_DESCRIPTION(
/* description */ (''),
/* implementation_level */ '2;1');

FILE_NAME(
/* name */ '1590648574527.stp',
/* time_stamp */ '2020-05-28T12:19:57+06:00',
/* author */ (''),
/* organization */ ('SMS'),
/* preprocessor_version */ 'ST-DEVELOPER v16.7',
/* originating_system */ 'SIEMENS PLM Software NX 12.0',
/* authorisation */ '');

FILE_SCHEMA (('AUTOMOTIVE_DESIGN { 1 0 10303 214 3 1 1 1 }'));
ENDSEC;

DATA;
#10=CONTEXT_DEPENDENT_SHAPE_REPRESENTATION(#16,#50);
#11=CONTEXT_DEPENDENT_SHAPE_REPRESENTATION(#17,#51);
#12=CONTEXT_DEPENDENT_SHAPE_REPRESENTATION(#18,#52);
#13=NEXT_ASSEMBLY_USAGE_OCCURRENCE('1001',' ',
'NXMOD-TM01_00-000-00-R216F_10A12C_075_PP_BAS',#56,#55,$);
#14=NEXT_ASSEMBLY_USAGE_OCCURRENCE('1002',' ',
'NXMOD-TM01_00-000-00-MI_R216F_1026_R1_BAS',#56,#54,$);
#15=NEXT_ASSEMBLY_USAGE_OCCURRENCE('1003',' ',
'NXMOD-TM01_00-000-00-R216F_10A12C_075_ACN_BAS',#56,#53,$);
#16=(
REPRESENTATION_RELATIONSHIP(' ',' ',#81,#82)
REPRESENTATION_RELATIONSHIP_WITH_TRANSFORMATION(#19)
SHAPE_REPRESENTATION_RELATIONSHIP()
);
#17=(
REPRESENTATION_RELATIONSHIP(' ',' ',#80,#82)
REPRESENTATION_RELATIONSHIP_WITH_TRANSFORMATION(#20)
SHAPE_REPRESENTATION_RELATIONSHIP()
);
#18=(
REPRESENTATION_RELATIONSHIP(' ',' ',#79,#82)
REPRESENTATION_RELATIONSHIP_WITH_TRANSFORMATION(#21)
SHAPE_REPRESENTATION_RELATIONSHIP()
);
#19=ITEM_DEFINED_TRANSFORMATION(' ',' ',#332,#369);
#20=ITEM_DEFINED_TRANSFORMATION(' ',' ',#332,#370);
#21=ITEM_DEFINED_TRANSFORMATION(' ',' ',#332,#371);
#22=ADVANCED_BREP_SHAPE_REPRESENTATION('202506381mod000_00-None',(#102),
#540);
#23=ADVANCED_BREP_SHAPE_REPRESENTATION('202452387mod000_00-None',(#101),
#539);
#24=CONSTRUCTIVE_GEOMETRY_REPRESENTATION_RELATIONSHIP(
'supplemental geometry','',#79,#28);
#25=CONSTRUCTIVE_GEOMETRY_REPRESENTATION_RELATIONSHIP(
'supplemental geometry','',#80,#29);
#26=CONSTRUCTIVE_GEOMETRY_REPRESENTATION_RELATIONSHIP(
'supplemental geometry','',#81,#30);
#27=CONSTRUCTIVE_GEOMETRY_REPRESENTATION_RELATIONSHIP(
'supplemental geometry','',#82,#31);
#28=CONSTRUCTIVE_GEOMETRY_REPRESENTATION('supplemental geometry',(#368),
#541);
#29=CONSTRUCTIVE_GEOMETRY_REPRESENTATION('supplemental geometry',(#362,
#363,#364),#540);
#30=CONSTRUCTIVE_GEOMETRY_REPRESENTATION('supplemental geometry',(#334,
#335,#336),#539);
#31=CONSTRUCTIVE_GEOMETRY_REPRESENTATION('supplemental geometry',(#333),
#538);
#32=SHAPE_REPRESENTATION_RELATIONSHIP('None',
'relationship between 202452389mod000_00-None and 202452389mod000_00-N
one',#79,#38);
#33=SHAPE_REPRESENTATION_RELATIONSHIP('None',
'relationship between 202506381mod000_00-None and 202506381mod000_00-N
one',#80,#22);
#34=SHAPE_REPRESENTATION_RELATIONSHIP('None',
'relationship between 202506381mod000_00-None and 202506381mod000_00-N
one',#80,#39);
#35=SHAPE_REPRESENTATION_RELATIONSHIP('None',
'relationship between 202452387mod000_00-None and 202452387mod000_00-N
one',#81,#23);
#36=SHAPE_REPRESENTATION_RELATIONSHIP('None',
'relationship between 202452387mod000_00-None and 202452387mod000_00-N
one',#81,#40);
#37=SHAPE_REPRESENTATION_RELATIONSHIP('None',
'relationship between 202452388mod000_00-None and 202452388mod000_00-N
one',#82,#41);
#38=GEOMETRICALLY_BOUNDED_WIREFRAME_SHAPE_REPRESENTATION(
'202452389mod000_00-None',(#83),#541);
#39=GEOMETRICALLY_BOUNDED_WIREFRAME_SHAPE_REPRESENTATION(
'202506381mod000_00-None',(#84),#540);
#40=GEOMETRICALLY_BOUNDED_WIREFRAME_SHAPE_REPRESENTATION(
'202452387mod000_00-None',(#85),#539);
#41=GEOMETRICALLY_BOUNDED_WIREFRAME_SHAPE_REPRESENTATION(
'202452388mod000_00-None',(#86),#538);
#42=SHAPE_DEFINITION_REPRESENTATION(#46,#79);
#43=SHAPE_DEFINITION_REPRESENTATION(#47,#80);
#44=SHAPE_DEFINITION_REPRESENTATION(#48,#81);
#45=SHAPE_DEFINITION_REPRESENTATION(#49,#82);
#46=PRODUCT_DEFINITION_SHAPE('','',#53);
#47=PRODUCT_DEFINITION_SHAPE('','',#54);
#48=PRODUCT_DEFINITION_SHAPE('','',#55);
#49=PRODUCT_DEFINITION_SHAPE('','',#56);
#50=PRODUCT_DEFINITION_SHAPE(' ','NAUO PRDDFN',#13);
#51=PRODUCT_DEFINITION_SHAPE(' ','NAUO PRDDFN',#14);
#52=PRODUCT_DEFINITION_SHAPE(' ','NAUO PRDDFN',#15);
#53=PRODUCT_DEFINITION(' ','',#61,#57);
#54=PRODUCT_DEFINITION(' ','',#62,#58);
#55=PRODUCT_DEFINITION(' ','',#63,#59);
#56=PRODUCT_DEFINITION(' ','',#64,#60);
#57=PRODUCT_DEFINITION_CONTEXT('part definition',#78,'design');
#58=PRODUCT_DEFINITION_CONTEXT('part definition',#78,'design');
#59=PRODUCT_DEFINITION_CONTEXT('part definition',#78,'design');
#60=PRODUCT_DEFINITION_CONTEXT('part definition',#78,'design');
#61=PRODUCT_DEFINITION_FORMATION_WITH_SPECIFIED_SOURCE(' ',' ',#69,
 .NOT_KNOWN.);
#62=PRODUCT_DEFINITION_FORMATION_WITH_SPECIFIED_SOURCE(' ',' ',#70,
 .NOT_KNOWN.);
#63=PRODUCT_DEFINITION_FORMATION_WITH_SPECIFIED_SOURCE(' ',' ',#71,
 .NOT_KNOWN.);
#64=PRODUCT_DEFINITION_FORMATION_WITH_SPECIFIED_SOURCE(' ',' ',#72,
 .NOT_KNOWN.);
#65=PRODUCT_RELATED_PRODUCT_CATEGORY('part','',(#69));
#66=PRODUCT_RELATED_PRODUCT_CATEGORY('part','',(#70));
#67=PRODUCT_RELATED_PRODUCT_CATEGORY('part','',(#71));
#68=PRODUCT_RELATED_PRODUCT_CATEGORY('part','',(#72));
#69=PRODUCT('ASSEMBLY_CONSTRUCTION','202452389mod000_00',' ',(#73));
#70=PRODUCT('202506381mod000_00','202506381mod000_00','MASTER_INSERT',(#74));
#71=PRODUCT('202452387mod000_00','202452387mod000_00','NOCUT',(#75));
#72=PRODUCT('202452388mod000_00','202452388mod000_00',' ',(#76));
#73=PRODUCT_CONTEXT(' ',#78,'mechanical');
#74=PRODUCT_CONTEXT(' ',#78,'mechanical');
#75=PRODUCT_CONTEXT(' ',#78,'mechanical');
#76=PRODUCT_CONTEXT(' ',#78,'mechanical');
#77=APPLICATION_PROTOCOL_DEFINITION('international standard',
'automotive_design',2010,#78);
#78=APPLICATION_CONTEXT(
'core data for automotive mechanical design processes');
#79=SHAPE_REPRESENTATION('202452389mod000_00-None',(#332),#541);
#80=SHAPE_REPRESENTATION('202506381mod000_00-None',(#332),#540);
#81=SHAPE_REPRESENTATION('202452387mod000_00-None',(#332),#539);
#82=SHAPE_REPRESENTATION('202452388mod000_00-None',(#332,#369,#370,#371),
#538);
#83=GEOMETRIC_CURVE_SET('None',(#528,#529));
#84=GEOMETRIC_CURVE_SET('None',(#498,#499,#500,#89));
#85=GEOMETRIC_CURVE_SET('None',(#455,#456,#457));
#86=GEOMETRIC_CURVE_SET('None',(#453));
#87=DRAUGHTING_PRE_DEFINED_COLOUR('blue');
#88=DRAUGHTING_PRE_DEFINED_COLOUR('white');
#89=TRIMMED_CURVE('CUTTING EDGE LINE',#90,(PARAMETER_VALUE(0.)),(
PARAMETER_VALUE(1.)),.T.,.PARAMETER.);
#90=(
BOUNDED_CURVE()
B_SPLINE_CURVE(4,(#501,#502,#503,#504,#505,#506,#507,#508,#509,#510,#511,
#512,#513,#514,#515,#516,#517,#518,#519,#520),.UNSPECIFIED.,.T.,.F.)
B_SPLINE_CURVE_WITH_KNOTS((5,4,4,3,4,5),(0.,0.150129739173131,0.184658891795158,
0.413793442477226,0.642927993159295,1.),.UNSPECIFIED.)
CURVE()
GEOMETRIC_REPRESENTATION_ITEM()
RATIONAL_B_SPLINE_CURVE((1.,1.,1.,1.,1.,0.998312791820137,0.997750389093516,
0.998312791820137,1.,1.,0.985977149606523,1.,1.,0.985977149606523,1.,1.,
1.,1.,1.,1.))
REPRESENTATION_ITEM('CUTTING EDGE LINE')
);
#91=SURFACE_STYLE_USAGE(.BOTH.,#93);
#92=SURFACE_STYLE_USAGE(.BOTH.,#94);
#93=SURFACE_SIDE_STYLE('',(#95));
#94=SURFACE_SIDE_STYLE('',(#96));
#95=SURFACE_STYLE_FILL_AREA(#97);
#96=SURFACE_STYLE_FILL_AREA(#98);
#97=FILL_AREA_STYLE('',(#99));
#98=FILL_AREA_STYLE('',(#100));
#99=FILL_AREA_STYLE_COLOUR('',#330);
#100=FILL_AREA_STYLE_COLOUR('',#331);
#101=MANIFOLD_SOLID_BREP('NOCUT',#103);
#102=MANIFOLD_SOLID_BREP('CUT',#104);
#103=CLOSED_SHELL('',(#119,#120,#121,#122,#123,#124,#125,#126,#127,#128,
#129,#130,#131));
#104=CLOSED_SHELL('',(#132,#133));
#105=TOROIDAL_SURFACE('',#353,6.88202132917361,1.);
#106=CONICAL_SURFACE('',#349,4.1125,20.);
#107=CONICAL_SURFACE('',#357,4.175,1.84902695680998);
#108=CONICAL_SURFACE('',#360,4.90779946162075,30.);
#109=CYLINDRICAL_SURFACE('',#347,4.262);
#110=CYLINDRICAL_SURFACE('',#350,4.1125);
#111=CYLINDRICAL_SURFACE('',#355,6.0625);
#112=CYLINDRICAL_SURFACE('',#358,4.175);
#113=FACE_OUTER_BOUND('',#167,.T.);
#114=FACE_OUTER_BOUND('',#184,.T.);
#115=FACE_OUTER_BOUND('',#185,.T.);
#116=FACE_OUTER_BOUND('',#186,.T.);
#117=SPHERICAL_SURFACE('',#344,4.0625);
#118=SPHERICAL_SURFACE('',#366,4.996);
#119=ADVANCED_FACE('',(#139,#140),#134,.F.);
#120=ADVANCED_FACE('',(#141,#142),#135,.F.);
#121=ADVANCED_FACE('',(#143,#144),#117,.T.);
#122=ADVANCED_FACE('',(#113),#136,.T.);
#123=ADVANCED_FACE('',(#145,#146),#109,.T.);
#124=ADVANCED_FACE('',(#147,#148),#106,.T.);
#125=ADVANCED_FACE('',(#149,#150),#110,.T.);
#126=ADVANCED_FACE('',(#151,#152),#105,.F.);
#127=ADVANCED_FACE('',(#153,#154),#111,.T.);
#128=ADVANCED_FACE('',(#155,#156),#107,.T.);
#129=ADVANCED_FACE('',(#157,#158),#112,.T.);
#130=ADVANCED_FACE('',(#159,#160),#108,.T.);
#131=ADVANCED_FACE('',(#114),#137,.T.);
#132=ADVANCED_FACE('',(#115),#118,.T.);
#133=ADVANCED_FACE('',(#116),#138,.T.);
#134=PLANE('',#339);
#135=PLANE('',#342);
#136=PLANE('',#345);
#137=PLANE('',#361);
#138=PLANE('',#367);
#139=FACE_BOUND('',#161,.T.);
#140=FACE_BOUND('',#162,.T.);
#141=FACE_BOUND('',#163,.T.);
#142=FACE_BOUND('',#164,.T.);
#143=FACE_BOUND('',#165,.T.);
#144=FACE_BOUND('',#166,.T.);
#145=FACE_BOUND('',#168,.T.);
#146=FACE_BOUND('',#169,.T.);
#147=FACE_BOUND('',#170,.T.);
#148=FACE_BOUND('',#171,.T.);
#149=FACE_BOUND('',#172,.T.);
#150=FACE_BOUND('',#173,.T.);
#151=FACE_BOUND('',#174,.T.);
#152=FACE_BOUND('',#175,.T.);
#153=FACE_BOUND('',#176,.T.);
#154=FACE_BOUND('',#177,.T.);
#155=FACE_BOUND('',#178,.T.);
#156=FACE_BOUND('',#179,.T.);
#157=FACE_BOUND('',#180,.T.);
#158=FACE_BOUND('',#181,.T.);
#159=FACE_BOUND('',#182,.T.);
#160=FACE_BOUND('',#183,.T.);
#161=EDGE_LOOP('',(#187));
#162=EDGE_LOOP('',(#188));
#163=EDGE_LOOP('',(#189));
#164=EDGE_LOOP('',(#190));
#165=EDGE_LOOP('',(#191));
#166=EDGE_LOOP('',(#192));
#167=EDGE_LOOP('',(#193));
#168=EDGE_LOOP('',(#194));
#169=EDGE_LOOP('',(#195));
#170=EDGE_LOOP('',(#196));
#171=EDGE_LOOP('',(#197));
#172=EDGE_LOOP('',(#198));
#173=EDGE_LOOP('',(#199));
#174=EDGE_LOOP('',(#200));
#175=EDGE_LOOP('',(#201));
#176=EDGE_LOOP('',(#202));
#177=EDGE_LOOP('',(#203));
#178=EDGE_LOOP('',(#204));
#179=EDGE_LOOP('',(#205));
#180=EDGE_LOOP('',(#206));
#181=EDGE_LOOP('',(#207));
#182=EDGE_LOOP('',(#208));
#183=EDGE_LOOP('',(#209));
#184=EDGE_LOOP('',(#210));
#185=EDGE_LOOP('',(#211));
#186=EDGE_LOOP('',(#212));
#187=ORIENTED_EDGE('',*,*,#226,.F.);
#188=ORIENTED_EDGE('',*,*,#227,.F.);
#189=ORIENTED_EDGE('',*,*,#228,.T.);
#190=ORIENTED_EDGE('',*,*,#229,.F.);
#191=ORIENTED_EDGE('',*,*,#230,.T.);
#192=ORIENTED_EDGE('',*,*,#228,.F.);
#193=ORIENTED_EDGE('',*,*,#230,.F.);
#194=ORIENTED_EDGE('',*,*,#226,.T.);
#195=ORIENTED_EDGE('',*,*,#231,.T.);
#196=ORIENTED_EDGE('',*,*,#231,.F.);
#197=ORIENTED_EDGE('',*,*,#232,.T.);
#198=ORIENTED_EDGE('',*,*,#232,.F.);
#199=ORIENTED_EDGE('',*,*,#229,.T.);
#200=ORIENTED_EDGE('',*,*,#233,.F.);
#201=ORIENTED_EDGE('',*,*,#234,.F.);
#202=ORIENTED_EDGE('',*,*,#235,.F.);
#203=ORIENTED_EDGE('',*,*,#234,.T.);
#204=ORIENTED_EDGE('',*,*,#233,.T.);
#205=ORIENTED_EDGE('',*,*,#236,.T.);
#206=ORIENTED_EDGE('',*,*,#236,.F.);
#207=ORIENTED_EDGE('',*,*,#227,.T.);
#208=ORIENTED_EDGE('',*,*,#235,.T.);
#209=ORIENTED_EDGE('',*,*,#237,.F.);
#210=ORIENTED_EDGE('',*,*,#237,.T.);
#211=ORIENTED_EDGE('',*,*,#238,.T.);
#212=ORIENTED_EDGE('',*,*,#238,.F.);
#213=VERTEX_POINT('',#462);
#214=VERTEX_POINT('',#464);
#215=VERTEX_POINT('',#467);
#216=VERTEX_POINT('',#469);
#217=VERTEX_POINT('',#472);
#218=VERTEX_POINT('',#476);
#219=VERTEX_POINT('',#479);
#220=VERTEX_POINT('',#483);
#221=VERTEX_POINT('',#485);
#222=VERTEX_POINT('',#488);
#223=VERTEX_POINT('',#491);
#224=VERTEX_POINT('',#495);
#225=VERTEX_POINT('',#525);
#226=EDGE_CURVE('',#213,#213,#239,.T.);
#227=EDGE_CURVE('',#214,#214,#240,.T.);
#228=EDGE_CURVE('',#215,#215,#241,.T.);
#229=EDGE_CURVE('',#216,#216,#242,.T.);
#230=EDGE_CURVE('',#217,#217,#243,.T.);
#231=EDGE_CURVE('',#218,#218,#244,.T.);
#232=EDGE_CURVE('',#219,#219,#245,.T.);
#233=EDGE_CURVE('',#220,#220,#246,.T.);
#234=EDGE_CURVE('',#221,#221,#247,.T.);
#235=EDGE_CURVE('',#222,#222,#248,.T.);
#236=EDGE_CURVE('',#223,#223,#249,.T.);
#237=EDGE_CURVE('',#224,#224,#250,.T.);
#238=EDGE_CURVE('',#225,#225,#251,.T.);
#239=CIRCLE('',#337,4.262);
#240=CIRCLE('',#338,4.175);
#241=CIRCLE('',#340,4.0625);
#242=CIRCLE('',#341,4.1125);
#243=CIRCLE('',#343,2.50277970464841);
#244=CIRCLE('',#346,4.262);
#245=CIRCLE('',#348,4.1125);
#246=CIRCLE('',#351,5.88254201233506);
#247=CIRCLE('',#352,6.0625);
#248=CIRCLE('',#354,6.0625);
#249=CIRCLE('',#356,4.175);
#250=CIRCLE('',#359,4.90779946162075);
#251=CIRCLE('',#365,3.57001274507526);
#252=CURVE_STYLE('',#261,POSITIVE_LENGTH_MEASURE(0.18),#329);
#253=CURVE_STYLE('',#262,POSITIVE_LENGTH_MEASURE(0.18),#329);
#254=CURVE_STYLE('',#263,POSITIVE_LENGTH_MEASURE(0.18),#329);
#255=CURVE_STYLE('',#264,POSITIVE_LENGTH_MEASURE(0.18),#329);
#256=CURVE_STYLE('',#265,POSITIVE_LENGTH_MEASURE(0.18),#87);
#257=CURVE_STYLE('',#266,POSITIVE_LENGTH_MEASURE(0.18),#329);
#258=CURVE_STYLE('',#267,POSITIVE_LENGTH_MEASURE(0.18),#329);
#259=CURVE_STYLE('',#268,POSITIVE_LENGTH_MEASURE(0.18),#329);
#260=CURVE_STYLE('',#269,POSITIVE_LENGTH_MEASURE(0.18),#329);
#261=DRAUGHTING_PRE_DEFINED_CURVE_FONT('continuous');
#262=DRAUGHTING_PRE_DEFINED_CURVE_FONT('continuous');
#263=DRAUGHTING_PRE_DEFINED_CURVE_FONT('continuous');
#264=DRAUGHTING_PRE_DEFINED_CURVE_FONT('continuous');
#265=DRAUGHTING_PRE_DEFINED_CURVE_FONT('continuous');
#266=DRAUGHTING_PRE_DEFINED_CURVE_FONT('continuous');
#267=DRAUGHTING_PRE_DEFINED_CURVE_FONT('continuous');
#268=DRAUGHTING_PRE_DEFINED_CURVE_FONT('continuous');
#269=DRAUGHTING_PRE_DEFINED_CURVE_FONT('continuous');
#270=PRESENTATION_LAYER_ASSIGNMENT('1','Layer 1',(#453,#333,#455,#456,#457,
#334,#335,#336,#101,#498,#499,#500,#89,#362,#363,#364,#102,#528,#529,#368));
#271=STYLED_ITEM('',(#291),#453);
#272=STYLED_ITEM('',(#292),#333);
#273=STYLED_ITEM('',(#293),#455);
#274=STYLED_ITEM('',(#294),#456);
#275=STYLED_ITEM('',(#295),#457);
#276=STYLED_ITEM('',(#296),#334);
#277=STYLED_ITEM('',(#297),#335);
#278=STYLED_ITEM('',(#298),#336);
#279=STYLED_ITEM('',(#299),#101);
#280=STYLED_ITEM('',(#300),#498);
#281=STYLED_ITEM('',(#301),#499);
#282=STYLED_ITEM('',(#302),#500);
#283=STYLED_ITEM('',(#303),#89);
#284=STYLED_ITEM('',(#304),#362);
#285=STYLED_ITEM('',(#305),#363);
#286=STYLED_ITEM('',(#306),#364);
#287=STYLED_ITEM('',(#307),#102);
#288=STYLED_ITEM('',(#308),#528);
#289=STYLED_ITEM('',(#309),#529);
#290=STYLED_ITEM('',(#310),#368);
#291=PRESENTATION_STYLE_ASSIGNMENT((#311));
#292=PRESENTATION_STYLE_ASSIGNMENT((#252));
#293=PRESENTATION_STYLE_ASSIGNMENT((#312));
#294=PRESENTATION_STYLE_ASSIGNMENT((#313));
#295=PRESENTATION_STYLE_ASSIGNMENT((#314));
#296=PRESENTATION_STYLE_ASSIGNMENT((#253));
#297=PRESENTATION_STYLE_ASSIGNMENT((#254));
#298=PRESENTATION_STYLE_ASSIGNMENT((#255));
#299=PRESENTATION_STYLE_ASSIGNMENT((#91));
#300=PRESENTATION_STYLE_ASSIGNMENT((#315));
#301=PRESENTATION_STYLE_ASSIGNMENT((#316));
#302=PRESENTATION_STYLE_ASSIGNMENT((#317));
#303=PRESENTATION_STYLE_ASSIGNMENT((#256));
#304=PRESENTATION_STYLE_ASSIGNMENT((#257));
#305=PRESENTATION_STYLE_ASSIGNMENT((#258));
#306=PRESENTATION_STYLE_ASSIGNMENT((#259));
#307=PRESENTATION_STYLE_ASSIGNMENT((#92));
#308=PRESENTATION_STYLE_ASSIGNMENT((#318));
#309=PRESENTATION_STYLE_ASSIGNMENT((#319));
#310=PRESENTATION_STYLE_ASSIGNMENT((#260));
#311=POINT_STYLE('',#320,POSITIVE_LENGTH_MEASURE(3.),#329);
#312=POINT_STYLE('',#321,POSITIVE_LENGTH_MEASURE(3.),#329);
#313=POINT_STYLE('',#322,POSITIVE_LENGTH_MEASURE(3.),#329);
#314=POINT_STYLE('',#323,POSITIVE_LENGTH_MEASURE(3.),#329);
#315=POINT_STYLE('',#324,POSITIVE_LENGTH_MEASURE(3.),#329);
#316=POINT_STYLE('',#325,POSITIVE_LENGTH_MEASURE(3.),#329);
#317=POINT_STYLE('',#326,POSITIVE_LENGTH_MEASURE(3.),#329);
#318=POINT_STYLE('',#327,POSITIVE_LENGTH_MEASURE(3.),#329);
#319=POINT_STYLE('',#328,POSITIVE_LENGTH_MEASURE(3.),#88);
#320=PRE_DEFINED_POINT_MARKER_SYMBOL('plus');
#321=PRE_DEFINED_POINT_MARKER_SYMBOL('plus');
#322=PRE_DEFINED_POINT_MARKER_SYMBOL('plus');
#323=PRE_DEFINED_POINT_MARKER_SYMBOL('plus');
#324=PRE_DEFINED_POINT_MARKER_SYMBOL('plus');
#325=PRE_DEFINED_POINT_MARKER_SYMBOL('plus');
#326=PRE_DEFINED_POINT_MARKER_SYMBOL('plus');
#327=PRE_DEFINED_POINT_MARKER_SYMBOL('plus');
#328=PRE_DEFINED_POINT_MARKER_SYMBOL('plus');
#329=COLOUR_RGB('Medium Maroon',0.6,0.4,0.4);
#330=COLOUR_RGB('Medium Gray',0.490196078431373,0.490196078431373,0.490196078431373);
#331=COLOUR_RGB('Light Gray',0.8,0.8,0.8);
#332=AXIS2_PLACEMENT_3D('',#452,#372,#373);
#333=AXIS2_PLACEMENT_3D('',#454,#374,#375);
#334=AXIS2_PLACEMENT_3D('CSW',#458,#376,#377);
#335=AXIS2_PLACEMENT_3D('MCS',#459,#378,#379);
#336=AXIS2_PLACEMENT_3D('PCS',#460,#380,#381);
#337=AXIS2_PLACEMENT_3D('',#461,#382,#383);
#338=AXIS2_PLACEMENT_3D('',#463,#384,#385);
#339=AXIS2_PLACEMENT_3D('',#465,#386,#387);
#340=AXIS2_PLACEMENT_3D('',#466,#388,#389);
#341=AXIS2_PLACEMENT_3D('',#468,#390,#391);
#342=AXIS2_PLACEMENT_3D('',#470,#392,#393);
#343=AXIS2_PLACEMENT_3D('',#471,#394,#395);
#344=AXIS2_PLACEMENT_3D('',#473,#396,#397);
#345=AXIS2_PLACEMENT_3D('',#474,#398,#399);
#346=AXIS2_PLACEMENT_3D('',#475,#400,#401);
#347=AXIS2_PLACEMENT_3D('',#477,#402,#403);
#348=AXIS2_PLACEMENT_3D('',#478,#404,#405);
#349=AXIS2_PLACEMENT_3D('',#480,#406,#407);
#350=AXIS2_PLACEMENT_3D('',#481,#408,#409);
#351=AXIS2_PLACEMENT_3D('',#482,#410,#411);
#352=AXIS2_PLACEMENT_3D('',#484,#412,#413);
#353=AXIS2_PLACEMENT_3D('',#486,#414,#415);
#354=AXIS2_PLACEMENT_3D('',#487,#416,#417);
#355=AXIS2_PLACEMENT_3D('',#489,#418,#419);
#356=AXIS2_PLACEMENT_3D('',#490,#420,#421);
#357=AXIS2_PLACEMENT_3D('',#492,#422,#423);
#358=AXIS2_PLACEMENT_3D('',#493,#424,#425);
#359=AXIS2_PLACEMENT_3D('',#494,#426,#427);
#360=AXIS2_PLACEMENT_3D('',#496,#428,#429);
#361=AXIS2_PLACEMENT_3D('',#497,#430,#431);
#362=AXIS2_PLACEMENT_3D('PCS',#521,#432,#433);
#363=AXIS2_PLACEMENT_3D('MCS',#522,#434,#435);
#364=AXIS2_PLACEMENT_3D('CIP',#523,#436,#437);
#365=AXIS2_PLACEMENT_3D('',#524,#438,#439);
#366=AXIS2_PLACEMENT_3D('',#526,#440,#441);
#367=AXIS2_PLACEMENT_3D('',#527,#442,#443);
#368=AXIS2_PLACEMENT_3D('',#530,#444,#445);
#369=AXIS2_PLACEMENT_3D('',#531,#446,#447);
#370=AXIS2_PLACEMENT_3D('',#532,#448,#449);
#371=AXIS2_PLACEMENT_3D('',#533,#450,#451);
#372=DIRECTION('',(0.,0.,1.));
#373=DIRECTION('',(1.,0.,0.));
#374=DIRECTION('',(0.,0.,1.));
#375=DIRECTION('',(1.,0.,0.));
#376=DIRECTION('',(0.,0.,1.));
#377=DIRECTION('',(1.,0.,0.));
#378=DIRECTION('',(0.,0.,1.));
#379=DIRECTION('',(1.,0.,0.));
#380=DIRECTION('',(0.,0.,1.));
#381=DIRECTION('',(1.,0.,0.));
#382=DIRECTION('',(0.,0.,-1.));
#383=DIRECTION('',(-1.,0.,0.));
#384=DIRECTION('',(0.,0.,1.));
#385=DIRECTION('',(-1.,0.,0.));
#386=DIRECTION('',(0.,0.,-1.));
#387=DIRECTION('',(-1.,0.,0.));
#388=DIRECTION('',(0.,0.,1.));
#389=DIRECTION('',(-1.,0.,0.));
#390=DIRECTION('',(0.,0.,1.));
#391=DIRECTION('',(-1.,0.,0.));
#392=DIRECTION('',(0.,0.,1.));
#393=DIRECTION('',(1.,0.,0.));
#394=DIRECTION('',(0.,0.,1.));
#395=DIRECTION('',(-1.,0.,0.));
#396=DIRECTION('',(0.,6.12323399573677E-17,-0.999999999999999));
#397=DIRECTION('',(0.,1.,0.));
#398=DIRECTION('',(0.,0.,-1.));
#399=DIRECTION('',(-1.,0.,0.));
#400=DIRECTION('',(0.,0.,1.));
#401=DIRECTION('',(-1.,0.,0.));
#402=DIRECTION('',(0.,0.,-1.));
#403=DIRECTION('',(-1.,0.,0.));
#404=DIRECTION('',(0.,0.,1.));
#405=DIRECTION('',(-1.,0.,0.));
#406=DIRECTION('',(0.,0.,1.));
#407=DIRECTION('',(1.,0.,-7.54058069878273E-17));
#408=DIRECTION('',(0.,0.,-1.));
#409=DIRECTION('',(-1.,0.,0.));
#410=DIRECTION('',(0.,0.,-1.));
#411=DIRECTION('',(1.,0.,0.));
#412=DIRECTION('',(0.,0.,1.));
#413=DIRECTION('',(-1.,0.,0.));
#414=DIRECTION('',(0.,0.,1.));
#415=DIRECTION('',(-1.,0.,0.));
#416=DIRECTION('',(0.,0.,1.));
#417=DIRECTION('',(-1.,0.,0.));
#418=DIRECTION('',(0.,0.,1.));
#419=DIRECTION('',(-1.,0.,0.));
#420=DIRECTION('',(0.,0.,1.));
#421=DIRECTION('',(-1.,0.,0.));
#422=DIRECTION('',(0.,0.,1.));
#423=DIRECTION('',(-1.,0.,1.14195988077856E-15));
#424=DIRECTION('',(0.,0.,1.));
#425=DIRECTION('',(-1.,0.,0.));
#426=DIRECTION('',(0.,0.,1.));
#427=DIRECTION('',(-1.,0.,0.));
#428=DIRECTION('',(0.,0.,-1.));
#429=DIRECTION('',(1.,0.,0.));
#430=DIRECTION('',(0.,0.,1.));
#431=DIRECTION('',(-1.,0.,0.));
#432=DIRECTION('',(0.,0.,1.));
#433=DIRECTION('',(1.,0.,0.));
#434=DIRECTION('',(0.,0.,1.));
#435=DIRECTION('',(1.,0.,0.));
#436=DIRECTION('',(0.,0.,1.));
#437=DIRECTION('',(1.,0.,0.));
#438=DIRECTION('',(0.,0.,-1.));
#439=DIRECTION('',(-1.,0.,0.));
#440=DIRECTION('',(-6.12323399573677E-17,0.,-1.));
#441=DIRECTION('',(-1.,0.,0.));
#442=DIRECTION('',(0.,0.,1.));
#443=DIRECTION('',(1.,0.,0.));
#444=DIRECTION('',(0.,0.,1.));
#445=DIRECTION('',(1.,0.,0.));
#446=DIRECTION('',(0.,0.,1.));
#447=DIRECTION('',(1.,0.,0.));
#448=DIRECTION('',(0.,0.,1.));
#449=DIRECTION('',(1.,0.,0.));
#450=DIRECTION('',(0.,0.,1.));
#451=DIRECTION('',(1.,0.,0.));
#452=CARTESIAN_POINT('',(0.,0.,0.));
#453=CARTESIAN_POINT('',(0.,0.,0.));
#454=CARTESIAN_POINT('',(0.,0.,0.));
#455=CARTESIAN_POINT('MCS',(0.,0.,-45.));
#456=CARTESIAN_POINT('PCS',(-1.18362048107211E-13,-1.42466991635308E-14,
0.));
#457=CARTESIAN_POINT('CSW',(-1.18362048107211E-13,0.,-123.505261314031));
#458=CARTESIAN_POINT('',(-1.18362048107211E-13,0.,-123.505261314031));
#459=CARTESIAN_POINT('',(0.,0.,-45.));
#460=CARTESIAN_POINT('',(-1.18362048107211E-13,-1.42466991635308E-14,0.));
#461=CARTESIAN_POINT('',(-1.32608747270742E-13,0.,-113.2));
#462=CARTESIAN_POINT('',(-4.26200000000013,0.,-113.2));
#463=CARTESIAN_POINT('',(-1.32608747270742E-13,0.,-113.2));
#464=CARTESIAN_POINT('',(-4.17500000000013,0.,-113.2));
#465=CARTESIAN_POINT('',(-1.32608747270742E-13,4.00222139978605,-113.2));
#466=CARTESIAN_POINT('',(-1.32608747270742E-13,0.,-126.7));
#467=CARTESIAN_POINT('',(-4.06250000000013,0.,-126.7));
#468=CARTESIAN_POINT('',(-1.32608747270742E-13,0.,-126.7));
#469=CARTESIAN_POINT('',(-4.11250000000013,0.,-126.7));
#470=CARTESIAN_POINT('',(-1.32608747270742E-13,4.1125,-126.7));
#471=CARTESIAN_POINT('',(-1.32608747270742E-13,0.,-129.9));
#472=CARTESIAN_POINT('',(-2.50277970464855,0.,-129.9));
#473=CARTESIAN_POINT('',(-1.32608747270742E-13,8.88178419700125E-16,-126.7));
#474=CARTESIAN_POINT('',(-1.32608747270742E-13,0.,-129.9));
#475=CARTESIAN_POINT('',(-1.32608747270742E-13,0.,-113.910625867526));
#476=CARTESIAN_POINT('',(-4.26200000000013,0.,-113.910625867526));
#477=CARTESIAN_POINT('',(-1.32608747270742E-13,0.,-112.9));
#478=CARTESIAN_POINT('',(-1.32608747270742E-13,0.,-114.321373741734));
#479=CARTESIAN_POINT('',(-4.11250000000013,0.,-114.321373741734));
#480=CARTESIAN_POINT('',(-1.32608747270742E-13,0.,-114.321373741734));
#481=CARTESIAN_POINT('',(-1.32608747270742E-13,0.,-112.9));
#482=CARTESIAN_POINT('',(-1.32608747270742E-13,0.,-57.3067826741381));
#483=CARTESIAN_POINT('',(5.88254201233493,0.,-57.3067826741381));
#484=CARTESIAN_POINT('',(-1.32608747270742E-13,0.,-56.766));
#485=CARTESIAN_POINT('',(-6.06250000000013,0.,-56.766));
#486=CARTESIAN_POINT('',(-1.32608747270742E-13,0.,-57.3390486812038));
#487=CARTESIAN_POINT('',(-1.32608747270742E-13,0.,-2.));
#488=CARTESIAN_POINT('',(-6.06250000000013,0.,-2.));
#489=CARTESIAN_POINT('',(-1.32608747270742E-13,0.,3.02681524444656));
#490=CARTESIAN_POINT('',(-1.32608747270742E-13,0.,-110.2));
#491=CARTESIAN_POINT('',(-4.17500000000013,0.,-110.2));
#492=CARTESIAN_POINT('',(-1.32608747270742E-13,0.,-110.2));
#493=CARTESIAN_POINT('',(-1.32608747270742E-13,0.,3.02681524444656));
#494=CARTESIAN_POINT('',(-1.32608747270742E-13,0.,0.));
#495=CARTESIAN_POINT('',(-4.90779946162088,0.,0.));
#496=CARTESIAN_POINT('',(-1.32608747270742E-13,0.,0.));
#497=CARTESIAN_POINT('',(-1.32608747270742E-13,0.,0.));
#498=CARTESIAN_POINT('',(0.,0.,0.));
#499=CARTESIAN_POINT('',(2.76463466041476E-14,0.,-8.495));
#500=CARTESIAN_POINT('',(0.,0.,0.));
#501=CARTESIAN_POINT('',(4.44089209850063E-16,-4.44089209850063E-16,0.));
#502=CARTESIAN_POINT('',(-0.892503186268816,-4.44089209850063E-16,0.));
#503=CARTESIAN_POINT('',(-1.78500637253763,-4.44089209850063E-16,0.));
#504=CARTESIAN_POINT('',(-2.67750955880645,-4.44089209850063E-16,0.));
#505=CARTESIAN_POINT('',(-3.57001274507526,-4.44089209850063E-16,4.44089209850063E-16));
#506=CARTESIAN_POINT('',(-3.71369336668825,-4.44089209850063E-16,-0.146764420709215));
#507=CARTESIAN_POINT('',(-3.84917689122106,-4.44089209850063E-16,-0.301230768018443));
#508=CARTESIAN_POINT('',(-3.97599151461111,-4.44089209850063E-16,-0.462889943957597));
#509=CARTESIAN_POINT('',(-4.0937239377727,-4.44089209850063E-16,-0.631184307378255));
#510=CARTESIAN_POINT('',(-4.83642692723683,-4.44089209850063E-16,-1.69285214250747));
#511=CARTESIAN_POINT('',(-5.30075530450616,-4.44089209850063E-16,-3.14929879313675));
#512=CARTESIAN_POINT('',(-5.02952665187115,-4.44089209850063E-16,-4.65371652303951));
#513=CARTESIAN_POINT('',(-3.83248657315212,-4.44089209850063E-16,-6.95199421307814));
#514=CARTESIAN_POINT('',(-2.75524037586774,-4.44089209850063E-16,-8.03660396708754));
#515=CARTESIAN_POINT('',(-1.29566443288656,-4.44089209850063E-16,-8.49099999999999));
#516=CARTESIAN_POINT('',(-1.50034605096482E-15,-4.44089209850063E-16,-8.491));
#517=CARTESIAN_POINT('',(1.0842021724855E-16,-4.44089209850063E-16,-6.36825));
#518=CARTESIAN_POINT('',(1.0842021724855E-16,-4.44089209850063E-16,-4.2455));
#519=CARTESIAN_POINT('',(1.0842021724855E-16,-4.44089209850063E-16,-2.12275));
#520=CARTESIAN_POINT('',(1.0842021724855E-16,-4.44089209850063E-16,0.));
#521=CARTESIAN_POINT('',(0.,0.,0.));
#522=CARTESIAN_POINT('',(0.,0.,0.));
#523=CARTESIAN_POINT('',(2.76463466041476E-14,0.,-8.495));
#524=CARTESIAN_POINT('',(0.,0.,4.44089209850063E-16));
#525=CARTESIAN_POINT('',(-3.57001274507526,0.,4.44089209850063E-16));
#526=CARTESIAN_POINT('',(2.92705178359615E-14,-4.44089209850063E-16,-3.495));
#527=CARTESIAN_POINT('',(-3.57001274507526,-4.44089209850063E-16,2.22044604925031E-16));
#528=CARTESIAN_POINT('',(0.,0.,0.));
#529=CARTESIAN_POINT('CRP',(-4.996,0.,-131.996));
#530=CARTESIAN_POINT('',(0.,0.,0.));
#531=CARTESIAN_POINT('',(0.,0.,0.));
#532=CARTESIAN_POINT('',(-2.52435489670724E-29,2.8421709430404E-14,-123.505261314031));
#533=CARTESIAN_POINT('',(0.,0.,0.));
#534=MECHANICAL_DESIGN_GEOMETRIC_PRESENTATION_REPRESENTATION('',(#271,#272),
#538);
#535=MECHANICAL_DESIGN_GEOMETRIC_PRESENTATION_REPRESENTATION('',(#273,#274,
#275,#276,#277,#278,#279),#539);
#536=MECHANICAL_DESIGN_GEOMETRIC_PRESENTATION_REPRESENTATION('',(#280,#281,
#282,#283,#284,#285,#286,#287),#540);
#537=MECHANICAL_DESIGN_GEOMETRIC_PRESENTATION_REPRESENTATION('',(#288,#289,
#290),#541);
#538=(
GEOMETRIC_REPRESENTATION_CONTEXT(3)
GLOBAL_UNCERTAINTY_ASSIGNED_CONTEXT((#542))
GLOBAL_UNIT_ASSIGNED_CONTEXT((#551,#547,#546))
REPRESENTATION_CONTEXT('1590648574527','TOP_LEVEL_ASSEMBLY_PART')
);
#539=(
GEOMETRIC_REPRESENTATION_CONTEXT(3)
GLOBAL_UNCERTAINTY_ASSIGNED_CONTEXT((#543))
GLOBAL_UNIT_ASSIGNED_CONTEXT((#551,#547,#546))
REPRESENTATION_CONTEXT('202452387mod000_00','COMPONENT_PART')
);
#540=(
GEOMETRIC_REPRESENTATION_CONTEXT(3)
GLOBAL_UNCERTAINTY_ASSIGNED_CONTEXT((#544))
GLOBAL_UNIT_ASSIGNED_CONTEXT((#551,#547,#546))
REPRESENTATION_CONTEXT('202506381mod000_00','COMPONENT_PART')
);
#541=(
GEOMETRIC_REPRESENTATION_CONTEXT(3)
GLOBAL_UNCERTAINTY_ASSIGNED_CONTEXT((#545))
GLOBAL_UNIT_ASSIGNED_CONTEXT((#551,#547,#546))
REPRESENTATION_CONTEXT('202452389mod000_00','COMPONENT_PART')
);
#542=UNCERTAINTY_MEASURE_WITH_UNIT(LENGTH_MEASURE(2.E-5),#551,
'DISTANCE_ACCURACY_VALUE','Maximum Tolerance applied to model');
#543=UNCERTAINTY_MEASURE_WITH_UNIT(LENGTH_MEASURE(2.E-5),#551,
'DISTANCE_ACCURACY_VALUE','Maximum Tolerance applied to model');
#544=UNCERTAINTY_MEASURE_WITH_UNIT(LENGTH_MEASURE(2.E-5),#551,
'DISTANCE_ACCURACY_VALUE','Maximum Tolerance applied to model');
#545=UNCERTAINTY_MEASURE_WITH_UNIT(LENGTH_MEASURE(2.E-5),#551,
'DISTANCE_ACCURACY_VALUE','Maximum Tolerance applied to model');
#546=(
NAMED_UNIT(*)
SI_UNIT($,.STERADIAN.)
SOLID_ANGLE_UNIT()
);
#547=(
CONVERSION_BASED_UNIT('DEGREE',#549)
NAMED_UNIT(#548)
PLANE_ANGLE_UNIT()
);
#548=DIMENSIONAL_EXPONENTS(0.,0.,0.,0.,0.,0.,0.);
#549=PLANE_ANGLE_MEASURE_WITH_UNIT(PLANE_ANGLE_MEASURE(0.0174532925),#550);
#550=(
NAMED_UNIT(*)
PLANE_ANGLE_UNIT()
SI_UNIT($,.RADIAN.)
);
#551=(
LENGTH_UNIT()
NAMED_UNIT(*)
SI_UNIT(.MILLI.,.METRE.)
);
ENDSEC;
END-ISO-10303-21;
