ISO-10303-21;
HEADER;
/* Generated by software containing ST-Developer
 * from STEP Tools, Inc. (www.steptools.com) 
 */
/* OPTION: using custom schema-name function */

FILE_DESCRIPTION(
/* description */ (''),
/* implementation_level */ '2;1');

FILE_NAME(
/* name */ '1590149574944.stp',
/* time_stamp */ '2020-05-22T17:43:18+05:00',
/* author */ (''),
/* organization */ ('SMS'),
/* preprocessor_version */ 'ST-DEVELOPER v16.7',
/* originating_system */ 'SIEMENS PLM Software NX 12.0',
/* authorisation */ '');

FILE_SCHEMA (('AUTOMOTIVE_DESIGN { 1 0 10303 214 3 1 1 1 }'));
ENDSEC;

DATA;
#10=CONTEXT_DEPENDENT_SHAPE_REPRESENTATION(#16,#50);
#11=CONTEXT_DEPENDENT_SHAPE_REPRESENTATION(#17,#51);
#12=CONTEXT_DEPENDENT_SHAPE_REPRESENTATION(#18,#52);
#13=NEXT_ASSEMBLY_USAGE_OCCURRENCE('1001',' ',
'NXMOD-TM01_00-000-00-R216F_08A12S_035_PP_BAS',#56,#55,$);
#14=NEXT_ASSEMBLY_USAGE_OCCURRENCE('1002',' ',
'NXMOD-TM01_00-000-00-MI_R216F_0824_R1_BAS',#56,#54,$);
#15=NEXT_ASSEMBLY_USAGE_OCCURRENCE('1003',' ',
'NXMOD-TM02_00-000-00-R216F_08A12S_035_ACN_BAS',#56,#53,$);
#16=(
REPRESENTATION_RELATIONSHIP(' ',' ',#81,#82)
REPRESENTATION_RELATIONSHIP_WITH_TRANSFORMATION(#19)
SHAPE_REPRESENTATION_RELATIONSHIP()
);
#17=(
REPRESENTATION_RELATIONSHIP(' ',' ',#80,#82)
REPRESENTATION_RELATIONSHIP_WITH_TRANSFORMATION(#20)
SHAPE_REPRESENTATION_RELATIONSHIP()
);
#18=(
REPRESENTATION_RELATIONSHIP(' ',' ',#79,#82)
REPRESENTATION_RELATIONSHIP_WITH_TRANSFORMATION(#21)
SHAPE_REPRESENTATION_RELATIONSHIP()
);
#19=ITEM_DEFINED_TRANSFORMATION(' ',' ',#271,#295);
#20=ITEM_DEFINED_TRANSFORMATION(' ',' ',#271,#296);
#21=ITEM_DEFINED_TRANSFORMATION(' ',' ',#271,#297);
#22=ADVANCED_BREP_SHAPE_REPRESENTATION('202447643mod000_00-None',(#106),
#439);
#23=ADVANCED_BREP_SHAPE_REPRESENTATION('202450588mod000_00-None',(#105),
#438);
#24=CONSTRUCTIVE_GEOMETRY_REPRESENTATION_RELATIONSHIP(
'supplemental geometry','',#79,#28);
#25=CONSTRUCTIVE_GEOMETRY_REPRESENTATION_RELATIONSHIP(
'supplemental geometry','',#80,#29);
#26=CONSTRUCTIVE_GEOMETRY_REPRESENTATION_RELATIONSHIP(
'supplemental geometry','',#81,#30);
#27=CONSTRUCTIVE_GEOMETRY_REPRESENTATION_RELATIONSHIP(
'supplemental geometry','',#82,#31);
#28=CONSTRUCTIVE_GEOMETRY_REPRESENTATION('supplemental geometry',(#294),
#440);
#29=CONSTRUCTIVE_GEOMETRY_REPRESENTATION('supplemental geometry',(#289,
#290,#291),#439);
#30=CONSTRUCTIVE_GEOMETRY_REPRESENTATION('supplemental geometry',(#273,
#274,#275),#438);
#31=CONSTRUCTIVE_GEOMETRY_REPRESENTATION('supplemental geometry',(#272),
#437);
#32=SHAPE_REPRESENTATION_RELATIONSHIP('None',
'relationship between 202450587mod000_00-None and 202450587mod000_00-N
one',#79,#38);
#33=SHAPE_REPRESENTATION_RELATIONSHIP('None',
'relationship between 202447643mod000_00-None and 202447643mod000_00-N
one',#80,#22);
#34=SHAPE_REPRESENTATION_RELATIONSHIP('None',
'relationship between 202447643mod000_00-None and 202447643mod000_00-N
one',#80,#39);
#35=SHAPE_REPRESENTATION_RELATIONSHIP('None',
'relationship between 202450588mod000_00-None and 202450588mod000_00-N
one',#81,#23);
#36=SHAPE_REPRESENTATION_RELATIONSHIP('None',
'relationship between 202450588mod000_00-None and 202450588mod000_00-N
one',#81,#40);
#37=SHAPE_REPRESENTATION_RELATIONSHIP('None',
'relationship between 202450586mod000_00-None and 202450586mod000_00-N
one',#82,#41);
#38=GEOMETRICALLY_BOUNDED_WIREFRAME_SHAPE_REPRESENTATION(
'202450587mod000_00-None',(#83),#440);
#39=GEOMETRICALLY_BOUNDED_WIREFRAME_SHAPE_REPRESENTATION(
'202447643mod000_00-None',(#84),#439);
#40=GEOMETRICALLY_BOUNDED_WIREFRAME_SHAPE_REPRESENTATION(
'202450588mod000_00-None',(#85),#438);
#41=GEOMETRICALLY_BOUNDED_WIREFRAME_SHAPE_REPRESENTATION(
'202450586mod000_00-None',(#86),#437);
#42=SHAPE_DEFINITION_REPRESENTATION(#46,#79);
#43=SHAPE_DEFINITION_REPRESENTATION(#47,#80);
#44=SHAPE_DEFINITION_REPRESENTATION(#48,#81);
#45=SHAPE_DEFINITION_REPRESENTATION(#49,#82);
#46=PRODUCT_DEFINITION_SHAPE('','',#53);
#47=PRODUCT_DEFINITION_SHAPE('','',#54);
#48=PRODUCT_DEFINITION_SHAPE('','',#55);
#49=PRODUCT_DEFINITION_SHAPE('','',#56);
#50=PRODUCT_DEFINITION_SHAPE(' ','NAUO PRDDFN',#13);
#51=PRODUCT_DEFINITION_SHAPE(' ','NAUO PRDDFN',#14);
#52=PRODUCT_DEFINITION_SHAPE(' ','NAUO PRDDFN',#15);
#53=PRODUCT_DEFINITION(' ','',#61,#57);
#54=PRODUCT_DEFINITION(' ','',#62,#58);
#55=PRODUCT_DEFINITION(' ','',#63,#59);
#56=PRODUCT_DEFINITION(' ','',#64,#60);
#57=PRODUCT_DEFINITION_CONTEXT('part definition',#78,'design');
#58=PRODUCT_DEFINITION_CONTEXT('part definition',#78,'design');
#59=PRODUCT_DEFINITION_CONTEXT('part definition',#78,'design');
#60=PRODUCT_DEFINITION_CONTEXT('part definition',#78,'design');
#61=PRODUCT_DEFINITION_FORMATION_WITH_SPECIFIED_SOURCE(' ',' ',#69,
 .NOT_KNOWN.);
#62=PRODUCT_DEFINITION_FORMATION_WITH_SPECIFIED_SOURCE(' ',' ',#70,
 .NOT_KNOWN.);
#63=PRODUCT_DEFINITION_FORMATION_WITH_SPECIFIED_SOURCE(' ',' ',#71,
 .NOT_KNOWN.);
#64=PRODUCT_DEFINITION_FORMATION_WITH_SPECIFIED_SOURCE(' ',' ',#72,
 .NOT_KNOWN.);
#65=PRODUCT_RELATED_PRODUCT_CATEGORY('part','',(#69));
#66=PRODUCT_RELATED_PRODUCT_CATEGORY('part','',(#70));
#67=PRODUCT_RELATED_PRODUCT_CATEGORY('part','',(#71));
#68=PRODUCT_RELATED_PRODUCT_CATEGORY('part','',(#72));
#69=PRODUCT('ASSEMBLY_CONSTRUCTION','202450587mod000_00',' ',(#73));
#70=PRODUCT('202447643mod000_00','202447643mod000_00','MASTER_INSERT',(#74));
#71=PRODUCT('202450588mod000_00','202450588mod000_00','NOCUT',(#75));
#72=PRODUCT('202450586mod000_00','202450586mod000_00',' ',(#76));
#73=PRODUCT_CONTEXT(' ',#78,'mechanical');
#74=PRODUCT_CONTEXT(' ',#78,'mechanical');
#75=PRODUCT_CONTEXT(' ',#78,'mechanical');
#76=PRODUCT_CONTEXT(' ',#78,'mechanical');
#77=APPLICATION_PROTOCOL_DEFINITION('international standard',
'automotive_design',2010,#78);
#78=APPLICATION_CONTEXT(
'core data for automotive mechanical design processes');
#79=SHAPE_REPRESENTATION('202450587mod000_00-None',(#271),#440);
#80=SHAPE_REPRESENTATION('202447643mod000_00-None',(#271),#439);
#81=SHAPE_REPRESENTATION('202450588mod000_00-None',(#271),#438);
#82=SHAPE_REPRESENTATION('202450586mod000_00-None',(#271,#295,#296,#297),
#437);
#83=GEOMETRIC_CURVE_SET('None',(#427,#428));
#84=GEOMETRIC_CURVE_SET('None',(#381,#382,#383,#93));
#85=GEOMETRIC_CURVE_SET('None',(#356,#357,#358));
#86=GEOMETRIC_CURVE_SET('None',(#354));
#87=SURFACE_OF_REVOLUTION('',#89,#88);
#88=AXIS1_PLACEMENT('',#425,#342);
#89=B_SPLINE_CURVE_WITH_KNOTS('',3,(#406,#407,#408,#409,#410,#411,#412,
#413,#414,#415,#416,#417,#418,#419,#420,#421,#422,#423,#424),
 .UNSPECIFIED.,.F.,.F.,(4,1,1,1,1,1,1,1,1,1,1,1,1,1,1,1,4),(0.,0.0624999999999999,
0.125,0.1875,0.25,0.3125,0.375,0.4375,0.5,0.5625,0.625,0.6875,0.75,0.8125,
0.875,0.9375,1.),.UNSPECIFIED.);
#90=VERTEX_LOOP('',#176);
#91=DRAUGHTING_PRE_DEFINED_COLOUR('blue');
#92=DRAUGHTING_PRE_DEFINED_COLOUR('white');
#93=TRIMMED_CURVE('CUTTING EDGE LINE',#94,(PARAMETER_VALUE(0.)),(
PARAMETER_VALUE(1.)),.T.,.PARAMETER.);
#94=(
BOUNDED_CURVE()
B_SPLINE_CURVE(4,(#384,#385,#386,#387,#388,#389,#390,#391,#392,#393,#394,
#395,#396,#397,#398,#399),.UNSPECIFIED.,.T.,.F.)
B_SPLINE_CURVE_WITH_KNOTS((5,3,4,4,5),(0.,0.250341520340424,0.500683040680849,
0.637755267148616,1.),.UNSPECIFIED.)
CURVE()
GEOMETRIC_REPRESENTATION_ITEM()
RATIONAL_B_SPLINE_CURVE((0.548615003879166,0.548615003879166,0.537127075985786,
0.548615003879166,0.548615003879166,0.537127075985786,0.548615003879166,
0.548615003879166,0.548615003879166,0.548615003879166,0.548615003879166,
0.548615003879166,0.548615003879166,0.548615003879166,0.548615003879166,
0.548615003879166))
REPRESENTATION_ITEM('CUTTING EDGE LINE')
);
#95=SURFACE_STYLE_USAGE(.BOTH.,#97);
#96=SURFACE_STYLE_USAGE(.BOTH.,#98);
#97=SURFACE_SIDE_STYLE('',(#99));
#98=SURFACE_SIDE_STYLE('',(#100));
#99=SURFACE_STYLE_FILL_AREA(#101);
#100=SURFACE_STYLE_FILL_AREA(#102);
#101=FILL_AREA_STYLE('',(#103));
#102=FILL_AREA_STYLE('',(#104));
#103=FILL_AREA_STYLE_COLOUR('',#269);
#104=FILL_AREA_STYLE_COLOUR('',#270);
#105=MANIFOLD_SOLID_BREP('NOCUT',#107);
#106=MANIFOLD_SOLID_BREP('CUT',#108);
#107=CLOSED_SHELL('',(#118,#119,#120,#121,#122,#123,#124));
#108=CLOSED_SHELL('',(#125,#126));
#109=CONICAL_SURFACE('',#287,5.4975,45.0000000000002);
#110=SPHERICAL_SURFACE('',#283,3.3125);
#111=PLANE('',#282);
#112=PLANE('',#285);
#113=PLANE('',#293);
#114=FACE_OUTER_BOUND('',#145,.T.);
#115=FACE_OUTER_BOUND('',#148,.T.);
#116=FACE_OUTER_BOUND('',#154,.T.);
#117=TOROIDAL_SURFACE('',#280,8.3125,5.);
#118=ADVANCED_FACE('',(#129,#130),#127,.T.);
#119=ADVANCED_FACE('',(#131,#132),#117,.F.);
#120=ADVANCED_FACE('',(#114),#111,.F.);
#121=ADVANCED_FACE('',(#133,#134),#110,.T.);
#122=ADVANCED_FACE('',(#115),#112,.T.);
#123=ADVANCED_FACE('',(#135,#136),#109,.T.);
#124=ADVANCED_FACE('',(#137,#138),#128,.T.);
#125=ADVANCED_FACE('',(#139,#140),#87,.F.);
#126=ADVANCED_FACE('',(#116),#113,.T.);
#127=CYLINDRICAL_SURFACE('',#278,3.3125);
#128=CYLINDRICAL_SURFACE('',#288,6.0625);
#129=FACE_BOUND('',#141,.T.);
#130=FACE_BOUND('',#142,.T.);
#131=FACE_BOUND('',#143,.T.);
#132=FACE_BOUND('',#144,.T.);
#133=FACE_BOUND('',#146,.T.);
#134=FACE_BOUND('',#147,.T.);
#135=FACE_BOUND('',#149,.T.);
#136=FACE_BOUND('',#150,.T.);
#137=FACE_BOUND('',#151,.T.);
#138=FACE_BOUND('',#152,.T.);
#139=FACE_BOUND('',#153,.T.);
#140=FACE_BOUND('',#90,.T.);
#141=EDGE_LOOP('',(#155));
#142=EDGE_LOOP('',(#156));
#143=EDGE_LOOP('',(#157));
#144=EDGE_LOOP('',(#158));
#145=EDGE_LOOP('',(#159));
#146=EDGE_LOOP('',(#160));
#147=EDGE_LOOP('',(#161));
#148=EDGE_LOOP('',(#162));
#149=EDGE_LOOP('',(#163));
#150=EDGE_LOOP('',(#164));
#151=EDGE_LOOP('',(#165));
#152=EDGE_LOOP('',(#166));
#153=EDGE_LOOP('',(#167));
#154=EDGE_LOOP('',(#168));
#155=ORIENTED_EDGE('',*,*,#177,.T.);
#156=ORIENTED_EDGE('',*,*,#178,.F.);
#157=ORIENTED_EDGE('',*,*,#177,.F.);
#158=ORIENTED_EDGE('',*,*,#179,.F.);
#159=ORIENTED_EDGE('',*,*,#180,.F.);
#160=ORIENTED_EDGE('',*,*,#178,.T.);
#161=ORIENTED_EDGE('',*,*,#180,.T.);
#162=ORIENTED_EDGE('',*,*,#181,.T.);
#163=ORIENTED_EDGE('',*,*,#182,.T.);
#164=ORIENTED_EDGE('',*,*,#181,.F.);
#165=ORIENTED_EDGE('',*,*,#182,.F.);
#166=ORIENTED_EDGE('',*,*,#179,.T.);
#167=ORIENTED_EDGE('',*,*,#183,.T.);
#168=ORIENTED_EDGE('',*,*,#183,.F.);
#169=VERTEX_POINT('',#363);
#170=VERTEX_POINT('',#365);
#171=VERTEX_POINT('',#368);
#172=VERTEX_POINT('',#371);
#173=VERTEX_POINT('',#375);
#174=VERTEX_POINT('',#378);
#175=VERTEX_POINT('',#404);
#176=VERTEX_POINT('',#405);
#177=EDGE_CURVE('',#169,#169,#184,.T.);
#178=EDGE_CURVE('',#170,#170,#185,.T.);
#179=EDGE_CURVE('',#171,#171,#186,.T.);
#180=EDGE_CURVE('',#172,#172,#187,.T.);
#181=EDGE_CURVE('',#173,#173,#188,.T.);
#182=EDGE_CURVE('',#174,#174,#189,.T.);
#183=EDGE_CURVE('',#175,#175,#190,.T.);
#184=CIRCLE('',#276,3.3125);
#185=CIRCLE('',#277,3.3125);
#186=CIRCLE('',#279,6.0625);
#187=CIRCLE('',#281,2.17316733133921);
#188=CIRCLE('',#284,5.4975);
#189=CIRCLE('',#286,6.0625);
#190=CIRCLE('',#292,2.64537161850656);
#191=CURVE_STYLE('',#200,POSITIVE_LENGTH_MEASURE(0.18),#268);
#192=CURVE_STYLE('',#201,POSITIVE_LENGTH_MEASURE(0.18),#268);
#193=CURVE_STYLE('',#202,POSITIVE_LENGTH_MEASURE(0.18),#268);
#194=CURVE_STYLE('',#203,POSITIVE_LENGTH_MEASURE(0.18),#268);
#195=CURVE_STYLE('',#204,POSITIVE_LENGTH_MEASURE(0.18),#91);
#196=CURVE_STYLE('',#205,POSITIVE_LENGTH_MEASURE(0.18),#268);
#197=CURVE_STYLE('',#206,POSITIVE_LENGTH_MEASURE(0.18),#268);
#198=CURVE_STYLE('',#207,POSITIVE_LENGTH_MEASURE(0.18),#268);
#199=CURVE_STYLE('',#208,POSITIVE_LENGTH_MEASURE(0.18),#268);
#200=DRAUGHTING_PRE_DEFINED_CURVE_FONT('continuous');
#201=DRAUGHTING_PRE_DEFINED_CURVE_FONT('continuous');
#202=DRAUGHTING_PRE_DEFINED_CURVE_FONT('continuous');
#203=DRAUGHTING_PRE_DEFINED_CURVE_FONT('continuous');
#204=DRAUGHTING_PRE_DEFINED_CURVE_FONT('continuous');
#205=DRAUGHTING_PRE_DEFINED_CURVE_FONT('continuous');
#206=DRAUGHTING_PRE_DEFINED_CURVE_FONT('continuous');
#207=DRAUGHTING_PRE_DEFINED_CURVE_FONT('continuous');
#208=DRAUGHTING_PRE_DEFINED_CURVE_FONT('continuous');
#209=PRESENTATION_LAYER_ASSIGNMENT('1','Layer 1',(#354,#272,#356,#357,#358,
#273,#274,#275,#105,#381,#382,#383,#93,#289,#290,#291,#106,#427,#428,#294));
#210=STYLED_ITEM('',(#230),#354);
#211=STYLED_ITEM('',(#231),#272);
#212=STYLED_ITEM('',(#232),#356);
#213=STYLED_ITEM('',(#233),#357);
#214=STYLED_ITEM('',(#234),#358);
#215=STYLED_ITEM('',(#235),#273);
#216=STYLED_ITEM('',(#236),#274);
#217=STYLED_ITEM('',(#237),#275);
#218=STYLED_ITEM('',(#238),#105);
#219=STYLED_ITEM('',(#239),#381);
#220=STYLED_ITEM('',(#240),#382);
#221=STYLED_ITEM('',(#241),#383);
#222=STYLED_ITEM('',(#242),#93);
#223=STYLED_ITEM('',(#243),#289);
#224=STYLED_ITEM('',(#244),#290);
#225=STYLED_ITEM('',(#245),#291);
#226=STYLED_ITEM('',(#246),#106);
#227=STYLED_ITEM('',(#247),#427);
#228=STYLED_ITEM('',(#248),#428);
#229=STYLED_ITEM('',(#249),#294);
#230=PRESENTATION_STYLE_ASSIGNMENT((#250));
#231=PRESENTATION_STYLE_ASSIGNMENT((#191));
#232=PRESENTATION_STYLE_ASSIGNMENT((#251));
#233=PRESENTATION_STYLE_ASSIGNMENT((#252));
#234=PRESENTATION_STYLE_ASSIGNMENT((#253));
#235=PRESENTATION_STYLE_ASSIGNMENT((#192));
#236=PRESENTATION_STYLE_ASSIGNMENT((#193));
#237=PRESENTATION_STYLE_ASSIGNMENT((#194));
#238=PRESENTATION_STYLE_ASSIGNMENT((#95));
#239=PRESENTATION_STYLE_ASSIGNMENT((#254));
#240=PRESENTATION_STYLE_ASSIGNMENT((#255));
#241=PRESENTATION_STYLE_ASSIGNMENT((#256));
#242=PRESENTATION_STYLE_ASSIGNMENT((#195));
#243=PRESENTATION_STYLE_ASSIGNMENT((#196));
#244=PRESENTATION_STYLE_ASSIGNMENT((#197));
#245=PRESENTATION_STYLE_ASSIGNMENT((#198));
#246=PRESENTATION_STYLE_ASSIGNMENT((#96));
#247=PRESENTATION_STYLE_ASSIGNMENT((#257));
#248=PRESENTATION_STYLE_ASSIGNMENT((#258));
#249=PRESENTATION_STYLE_ASSIGNMENT((#199));
#250=POINT_STYLE('',#259,POSITIVE_LENGTH_MEASURE(3.),#268);
#251=POINT_STYLE('',#260,POSITIVE_LENGTH_MEASURE(3.),#268);
#252=POINT_STYLE('',#261,POSITIVE_LENGTH_MEASURE(3.),#268);
#253=POINT_STYLE('',#262,POSITIVE_LENGTH_MEASURE(3.),#268);
#254=POINT_STYLE('',#263,POSITIVE_LENGTH_MEASURE(3.),#268);
#255=POINT_STYLE('',#264,POSITIVE_LENGTH_MEASURE(3.),#268);
#256=POINT_STYLE('',#265,POSITIVE_LENGTH_MEASURE(3.),#268);
#257=POINT_STYLE('',#266,POSITIVE_LENGTH_MEASURE(3.),#268);
#258=POINT_STYLE('',#267,POSITIVE_LENGTH_MEASURE(3.),#92);
#259=PRE_DEFINED_POINT_MARKER_SYMBOL('plus');
#260=PRE_DEFINED_POINT_MARKER_SYMBOL('plus');
#261=PRE_DEFINED_POINT_MARKER_SYMBOL('plus');
#262=PRE_DEFINED_POINT_MARKER_SYMBOL('plus');
#263=PRE_DEFINED_POINT_MARKER_SYMBOL('plus');
#264=PRE_DEFINED_POINT_MARKER_SYMBOL('plus');
#265=PRE_DEFINED_POINT_MARKER_SYMBOL('plus');
#266=PRE_DEFINED_POINT_MARKER_SYMBOL('plus');
#267=PRE_DEFINED_POINT_MARKER_SYMBOL('plus');
#268=COLOUR_RGB('Medium Maroon',0.6,0.4,0.4);
#269=COLOUR_RGB('Medium Gray',0.490196078431373,0.490196078431373,0.490196078431373);
#270=COLOUR_RGB('Light Gray',0.8,0.8,0.8);
#271=AXIS2_PLACEMENT_3D('',#353,#298,#299);
#272=AXIS2_PLACEMENT_3D('',#355,#300,#301);
#273=AXIS2_PLACEMENT_3D('PCS',#359,#302,#303);
#274=AXIS2_PLACEMENT_3D('MCS',#360,#304,#305);
#275=AXIS2_PLACEMENT_3D('CSW',#361,#306,#307);
#276=AXIS2_PLACEMENT_3D('',#362,#308,#309);
#277=AXIS2_PLACEMENT_3D('',#364,#310,#311);
#278=AXIS2_PLACEMENT_3D('',#366,#312,#313);
#279=AXIS2_PLACEMENT_3D('',#367,#314,#315);
#280=AXIS2_PLACEMENT_3D('',#369,#316,#317);
#281=AXIS2_PLACEMENT_3D('',#370,#318,#319);
#282=AXIS2_PLACEMENT_3D('',#372,#320,#321);
#283=AXIS2_PLACEMENT_3D('',#373,#322,#323);
#284=AXIS2_PLACEMENT_3D('',#374,#324,#325);
#285=AXIS2_PLACEMENT_3D('',#376,#326,#327);
#286=AXIS2_PLACEMENT_3D('',#377,#328,#329);
#287=AXIS2_PLACEMENT_3D('',#379,#330,#331);
#288=AXIS2_PLACEMENT_3D('',#380,#332,#333);
#289=AXIS2_PLACEMENT_3D('MCS',#400,#334,#335);
#290=AXIS2_PLACEMENT_3D('PCS',#401,#336,#337);
#291=AXIS2_PLACEMENT_3D('CIP',#402,#338,#339);
#292=AXIS2_PLACEMENT_3D('',#403,#340,#341);
#293=AXIS2_PLACEMENT_3D('',#426,#343,#344);
#294=AXIS2_PLACEMENT_3D('',#429,#345,#346);
#295=AXIS2_PLACEMENT_3D('',#430,#347,#348);
#296=AXIS2_PLACEMENT_3D('',#431,#349,#350);
#297=AXIS2_PLACEMENT_3D('',#432,#351,#352);
#298=DIRECTION('',(0.,0.,1.));
#299=DIRECTION('',(1.,0.,0.));
#300=DIRECTION('',(0.,0.,1.));
#301=DIRECTION('',(1.,0.,0.));
#302=DIRECTION('',(0.,0.,1.));
#303=DIRECTION('',(1.,0.,0.));
#304=DIRECTION('',(0.,0.,1.));
#305=DIRECTION('',(1.,0.,0.));
#306=DIRECTION('',(0.,0.,1.));
#307=DIRECTION('',(1.,0.,0.));
#308=DIRECTION('',(0.,0.,-1.));
#309=DIRECTION('',(0.,1.,0.));
#310=DIRECTION('',(0.,0.,-1.));
#311=DIRECTION('',(0.,-1.,0.));
#312=DIRECTION('',(0.,0.,1.));
#313=DIRECTION('',(0.,1.,0.));
#314=DIRECTION('',(0.,0.,1.));
#315=DIRECTION('',(0.,-1.,0.));
#316=DIRECTION('',(0.,0.,1.));
#317=DIRECTION('',(0.,1.,0.));
#318=DIRECTION('',(0.,0.,1.));
#319=DIRECTION('',(0.,1.,0.));
#320=DIRECTION('',(0.,0.,1.));
#321=DIRECTION('',(0.,1.,0.));
#322=DIRECTION('',(0.,-1.,0.));
#323=DIRECTION('',(0.,0.,0.999999999999999));
#324=DIRECTION('',(0.,0.,1.));
#325=DIRECTION('',(0.,1.,0.));
#326=DIRECTION('',(0.,0.,1.));
#327=DIRECTION('',(0.,1.,0.));
#328=DIRECTION('',(0.,0.,1.));
#329=DIRECTION('',(0.,-1.,0.));
#330=DIRECTION('',(0.,0.,-1.));
#331=DIRECTION('',(0.,-1.,0.));
#332=DIRECTION('',(0.,0.,1.));
#333=DIRECTION('',(0.,1.,0.));
#334=DIRECTION('',(0.,0.,1.));
#335=DIRECTION('',(1.,0.,0.));
#336=DIRECTION('',(0.,0.,1.));
#337=DIRECTION('',(1.,0.,0.));
#338=DIRECTION('',(0.,0.,1.));
#339=DIRECTION('',(1.,0.,0.));
#340=DIRECTION('',(0.,0.,-1.));
#341=DIRECTION('',(-1.,0.,0.));
#342=DIRECTION('',(0.,0.,-1.));
#343=DIRECTION('',(0.,0.,1.));
#344=DIRECTION('',(1.,0.,0.));
#345=DIRECTION('',(0.,0.,1.));
#346=DIRECTION('',(1.,0.,0.));
#347=DIRECTION('',(0.,0.,1.));
#348=DIRECTION('',(1.,0.,0.));
#349=DIRECTION('',(0.,0.,1.));
#350=DIRECTION('',(1.,0.,0.));
#351=DIRECTION('',(0.,0.,1.));
#352=DIRECTION('',(1.,0.,0.));
#353=CARTESIAN_POINT('',(0.,0.,0.));
#354=CARTESIAN_POINT('',(0.,0.,0.));
#355=CARTESIAN_POINT('',(0.,0.,0.));
#356=CARTESIAN_POINT('PCS',(3.21119995062947E-28,9.13735184374369E-14,0.));
#357=CARTESIAN_POINT('MCS',(0.,0.,-45.));
#358=CARTESIAN_POINT('CSW',(9.8906343185292E-17,8.97060203897126E-14,-85.005));
#359=CARTESIAN_POINT('',(3.21119995062947E-28,9.13735184374369E-14,0.));
#360=CARTESIAN_POINT('',(0.,0.,-45.));
#361=CARTESIAN_POINT('',(9.8906343185292E-17,8.97060203897126E-14,-85.005));
#362=CARTESIAN_POINT('',(3.21119995062947E-28,9.13735184374369E-14,-73.4128418796082));
#363=CARTESIAN_POINT('',(3.21119995062947E-28,3.31250000000009,-73.4128418796082));
#364=CARTESIAN_POINT('',(3.21119995062947E-28,9.13735184374369E-14,-88.));
#365=CARTESIAN_POINT('',(3.21119995062947E-28,-3.31249999999991,-88.));
#366=CARTESIAN_POINT('',(3.21119995062947E-28,9.13735184374369E-14,38.2268152444466));
#367=CARTESIAN_POINT('',(3.21119995062947E-28,9.13735184374369E-14,-68.9476991047353));
#368=CARTESIAN_POINT('',(3.21119995062947E-28,-6.06249999999991,-68.9476991047353));
#369=CARTESIAN_POINT('',(3.21119995062947E-28,9.13735184374369E-14,-73.4128418796082));
#370=CARTESIAN_POINT('',(3.21119995062947E-28,9.13735184374369E-14,-90.5));
#371=CARTESIAN_POINT('',(3.21119995062947E-28,2.17316733133931,-90.5));
#372=CARTESIAN_POINT('',(3.21119995062947E-28,9.13735184374369E-14,-90.5));
#373=CARTESIAN_POINT('',(3.21119995062947E-28,9.13735184374369E-14,-88.));
#374=CARTESIAN_POINT('',(3.21119995062947E-28,9.13735184374369E-14,0.));
#375=CARTESIAN_POINT('',(3.21119995062947E-28,5.49750000000009,0.));
#376=CARTESIAN_POINT('',(3.21119995062947E-28,9.13735184374369E-14,0.));
#377=CARTESIAN_POINT('',(3.21119995062947E-28,9.13735184374369E-14,-0.564999999999996));
#378=CARTESIAN_POINT('',(3.21119995062947E-28,-6.06249999999991,-0.564999999999996));
#379=CARTESIAN_POINT('',(3.21119995062947E-28,9.13735184374369E-14,0.));
#380=CARTESIAN_POINT('',(3.21119995062947E-28,9.13735184374369E-14,38.2268152444466));
#381=CARTESIAN_POINT('',(0.,0.,-6.995));
#382=CARTESIAN_POINT('',(0.,0.,0.));
#383=CARTESIAN_POINT('MCS',(0.,0.,0.));
#384=CARTESIAN_POINT('',(-2.44684430469641E-16,0.,-6.991));
#385=CARTESIAN_POINT('',(-1.13560674478209,0.,-6.991));
#386=CARTESIAN_POINT('',(-2.45683357152706,0.,-6.5514990489374));
#387=CARTESIAN_POINT('',(-3.33548185511648,0.,-5.4713237819363));
#388=CARTESIAN_POINT('',(-4.13928048224248,0.,-3.34710192859597));
#389=CARTESIAN_POINT('',(-4.1958153633704,0.,-1.95584162911518));
#390=CARTESIAN_POINT('',(-3.49650830534899,0.,-0.751777240348134));
#391=CARTESIAN_POINT('',(-2.64537161850656,0.,1.33226762955019E-15));
#392=CARTESIAN_POINT('',(-1.98402871387992,0.,1.33226762955019E-15));
#393=CARTESIAN_POINT('',(-1.32268580925328,0.,1.33226762955019E-15));
#394=CARTESIAN_POINT('',(-0.661342904626639,0.,1.33226762955019E-15));
#395=CARTESIAN_POINT('',(0.,0.,6.66133814775094E-16));
#396=CARTESIAN_POINT('',(0.,0.,-1.74775));
#397=CARTESIAN_POINT('',(0.,0.,-3.4955));
#398=CARTESIAN_POINT('',(0.,0.,-5.24325));
#399=CARTESIAN_POINT('',(0.,0.,-6.991));
#400=CARTESIAN_POINT('',(0.,0.,0.));
#401=CARTESIAN_POINT('',(0.,0.,0.));
#402=CARTESIAN_POINT('',(0.,0.,-6.995));
#403=CARTESIAN_POINT('',(0.,0.,1.33226762955019E-15));
#404=CARTESIAN_POINT('',(-2.64537161850656,0.,1.33226762955019E-15));
#405=CARTESIAN_POINT('',(-1.77635683940025E-15,0.,-6.991));
#406=CARTESIAN_POINT('',(-1.77635683940025E-15,0.,-6.991));
#407=CARTESIAN_POINT('',(-0.201306995197375,0.,-6.991));
#408=CARTESIAN_POINT('',(-0.603919217561338,0.,-6.96051815696227));
#409=CARTESIAN_POINT('',(-1.19407077552536,0.,-6.8243927342775));
#410=CARTESIAN_POINT('',(-1.75700072420139,0.,-6.60096743324348));
#411=CARTESIAN_POINT('',(-2.27987599907286,0.,-6.29533621912526));
#412=CARTESIAN_POINT('',(-2.75077621929175,0.,-5.9144661953278));
#413=CARTESIAN_POINT('',(-3.1589664796715,0.,-5.46704055598971));
#414=CARTESIAN_POINT('',(-3.49514078163101,0.,-4.96325902535674));
#415=CARTESIAN_POINT('',(-3.75163570647551,0.,-4.41460672590941));
#416=CARTESIAN_POINT('',(-3.92260340454383,0.,-3.83359120260244));
#417=CARTESIAN_POINT('',(-4.00414678012264,0.,-3.23345815895556));
#418=CARTESIAN_POINT('',(-3.99440635406899,0.,-2.62788890921138));
#419=CARTESIAN_POINT('',(-3.89360470027009,0.,-2.03068875960437));
#420=CARTESIAN_POINT('',(-3.70403930764067,0.,-1.45547231858485));
#421=CARTESIAN_POINT('',(-3.43003223906289,0.,-0.915352777679693));
#422=CARTESIAN_POINT('',(-3.07782963981048,0.,-0.422643612816996));
#423=CARTESIAN_POINT('',(-2.79625111065274,0.,-0.133266219144635));
#424=CARTESIAN_POINT('',(-2.64537161850656,0.,1.33226762955019E-15));
#425=CARTESIAN_POINT('',(0.,0.,0.));
#426=CARTESIAN_POINT('',(-2.64537161850656,0.,2.44249065417534E-15));
#427=CARTESIAN_POINT('',(0.,0.,0.));
#428=CARTESIAN_POINT('CRP',(-4.,0.,-92.));
#429=CARTESIAN_POINT('',(0.,0.,0.));
#430=CARTESIAN_POINT('',(0.,0.,0.));
#431=CARTESIAN_POINT('',(9.89063431849709E-17,0.,-85.005));
#432=CARTESIAN_POINT('',(0.,0.,0.));
#433=MECHANICAL_DESIGN_GEOMETRIC_PRESENTATION_REPRESENTATION('',(#210,#211),
#437);
#434=MECHANICAL_DESIGN_GEOMETRIC_PRESENTATION_REPRESENTATION('',(#212,#213,
#214,#215,#216,#217,#218),#438);
#435=MECHANICAL_DESIGN_GEOMETRIC_PRESENTATION_REPRESENTATION('',(#219,#220,
#221,#222,#223,#224,#225,#226),#439);
#436=MECHANICAL_DESIGN_GEOMETRIC_PRESENTATION_REPRESENTATION('',(#227,#228,
#229),#440);
#437=(
GEOMETRIC_REPRESENTATION_CONTEXT(3)
GLOBAL_UNCERTAINTY_ASSIGNED_CONTEXT((#441))
GLOBAL_UNIT_ASSIGNED_CONTEXT((#450,#446,#445))
REPRESENTATION_CONTEXT('1590149574944','TOP_LEVEL_ASSEMBLY_PART')
);
#438=(
GEOMETRIC_REPRESENTATION_CONTEXT(3)
GLOBAL_UNCERTAINTY_ASSIGNED_CONTEXT((#442))
GLOBAL_UNIT_ASSIGNED_CONTEXT((#450,#446,#445))
REPRESENTATION_CONTEXT('202450588mod000_00','COMPONENT_PART')
);
#439=(
GEOMETRIC_REPRESENTATION_CONTEXT(3)
GLOBAL_UNCERTAINTY_ASSIGNED_CONTEXT((#443))
GLOBAL_UNIT_ASSIGNED_CONTEXT((#450,#446,#445))
REPRESENTATION_CONTEXT('202447643mod000_00','COMPONENT_PART')
);
#440=(
GEOMETRIC_REPRESENTATION_CONTEXT(3)
GLOBAL_UNCERTAINTY_ASSIGNED_CONTEXT((#444))
GLOBAL_UNIT_ASSIGNED_CONTEXT((#450,#446,#445))
REPRESENTATION_CONTEXT('202450587mod000_00','COMPONENT_PART')
);
#441=UNCERTAINTY_MEASURE_WITH_UNIT(LENGTH_MEASURE(2.E-5),#450,
'DISTANCE_ACCURACY_VALUE','Maximum Tolerance applied to model');
#442=UNCERTAINTY_MEASURE_WITH_UNIT(LENGTH_MEASURE(2.E-5),#450,
'DISTANCE_ACCURACY_VALUE','Maximum Tolerance applied to model');
#443=UNCERTAINTY_MEASURE_WITH_UNIT(LENGTH_MEASURE(0.0508),#450,
'DISTANCE_ACCURACY_VALUE','Maximum Tolerance applied to model');
#444=UNCERTAINTY_MEASURE_WITH_UNIT(LENGTH_MEASURE(2.E-5),#450,
'DISTANCE_ACCURACY_VALUE','Maximum Tolerance applied to model');
#445=(
NAMED_UNIT(*)
SI_UNIT($,.STERADIAN.)
SOLID_ANGLE_UNIT()
);
#446=(
CONVERSION_BASED_UNIT('DEGREE',#448)
NAMED_UNIT(#447)
PLANE_ANGLE_UNIT()
);
#447=DIMENSIONAL_EXPONENTS(0.,0.,0.,0.,0.,0.,0.);
#448=PLANE_ANGLE_MEASURE_WITH_UNIT(PLANE_ANGLE_MEASURE(0.0174532925),#449);
#449=(
NAMED_UNIT(*)
PLANE_ANGLE_UNIT()
SI_UNIT($,.RADIAN.)
);
#450=(
LENGTH_UNIT()
NAMED_UNIT(*)
SI_UNIT(.MILLI.,.METRE.)
);
ENDSEC;
END-ISO-10303-21;
