ISO-10303-21;
HEADER;
/* Generated by software containing ST-Developer
 * from STEP Tools, Inc. (www.steptools.com) 
 */
/* OPTION: using custom schema-name function */

FILE_DESCRIPTION(
/* description */ (''),
/* implementation_level */ '2;1');

FILE_NAME(
/* name */ '1590149358718.stp',
/* time_stamp */ '2020-05-22T17:39:45+05:00',
/* author */ (''),
/* organization */ ('SMS'),
/* preprocessor_version */ 'ST-DEVELOPER v16.7',
/* originating_system */ 'SIEMENS PLM Software NX 12.0',
/* authorisation */ '');

FILE_SCHEMA (('AUTOMOTIVE_DESIGN { 1 0 10303 214 3 1 1 1 }'));
ENDSEC;

DATA;
#10=CONTEXT_DEPENDENT_SHAPE_REPRESENTATION(#16,#50);
#11=CONTEXT_DEPENDENT_SHAPE_REPRESENTATION(#17,#51);
#12=CONTEXT_DEPENDENT_SHAPE_REPRESENTATION(#18,#52);
#13=NEXT_ASSEMBLY_USAGE_OCCURRENCE('1001',' ',
'NXMOD-TM01_00-000-00-R216F_08A12C_053_PP_BAS',#56,#55,$);
#14=NEXT_ASSEMBLY_USAGE_OCCURRENCE('1002',' ',
'NXMOD-TM01_00-000-00-MI_R216F_0824_R1_BAS',#56,#54,$);
#15=NEXT_ASSEMBLY_USAGE_OCCURRENCE('1003',' ',
'NXMOD-TM01_00-000-00-R216F_08A12C_053_ACN_BAS',#56,#53,$);
#16=(
REPRESENTATION_RELATIONSHIP(' ',' ',#81,#82)
REPRESENTATION_RELATIONSHIP_WITH_TRANSFORMATION(#19)
SHAPE_REPRESENTATION_RELATIONSHIP()
);
#17=(
REPRESENTATION_RELATIONSHIP(' ',' ',#80,#82)
REPRESENTATION_RELATIONSHIP_WITH_TRANSFORMATION(#20)
SHAPE_REPRESENTATION_RELATIONSHIP()
);
#18=(
REPRESENTATION_RELATIONSHIP(' ',' ',#79,#82)
REPRESENTATION_RELATIONSHIP_WITH_TRANSFORMATION(#21)
SHAPE_REPRESENTATION_RELATIONSHIP()
);
#19=ITEM_DEFINED_TRANSFORMATION(' ',' ',#293,#321);
#20=ITEM_DEFINED_TRANSFORMATION(' ',' ',#293,#322);
#21=ITEM_DEFINED_TRANSFORMATION(' ',' ',#293,#323);
#22=ADVANCED_BREP_SHAPE_REPRESENTATION('202447643mod000_00-None',(#106),
#479);
#23=ADVANCED_BREP_SHAPE_REPRESENTATION('202448531mod000_00-None',(#105),
#478);
#24=CONSTRUCTIVE_GEOMETRY_REPRESENTATION_RELATIONSHIP(
'supplemental geometry','',#79,#28);
#25=CONSTRUCTIVE_GEOMETRY_REPRESENTATION_RELATIONSHIP(
'supplemental geometry','',#80,#29);
#26=CONSTRUCTIVE_GEOMETRY_REPRESENTATION_RELATIONSHIP(
'supplemental geometry','',#81,#30);
#27=CONSTRUCTIVE_GEOMETRY_REPRESENTATION_RELATIONSHIP(
'supplemental geometry','',#82,#31);
#28=CONSTRUCTIVE_GEOMETRY_REPRESENTATION('supplemental geometry',(#320),
#480);
#29=CONSTRUCTIVE_GEOMETRY_REPRESENTATION('supplemental geometry',(#315,
#316,#317),#479);
#30=CONSTRUCTIVE_GEOMETRY_REPRESENTATION('supplemental geometry',(#295,
#296,#297),#478);
#31=CONSTRUCTIVE_GEOMETRY_REPRESENTATION('supplemental geometry',(#294),
#477);
#32=SHAPE_REPRESENTATION_RELATIONSHIP('None',
'relationship between 202448530mod000_00-None and 202448530mod000_00-N
one',#79,#38);
#33=SHAPE_REPRESENTATION_RELATIONSHIP('None',
'relationship between 202447643mod000_00-None and 202447643mod000_00-N
one',#80,#22);
#34=SHAPE_REPRESENTATION_RELATIONSHIP('None',
'relationship between 202447643mod000_00-None and 202447643mod000_00-N
one',#80,#39);
#35=SHAPE_REPRESENTATION_RELATIONSHIP('None',
'relationship between 202448531mod000_00-None and 202448531mod000_00-N
one',#81,#23);
#36=SHAPE_REPRESENTATION_RELATIONSHIP('None',
'relationship between 202448531mod000_00-None and 202448531mod000_00-N
one',#81,#40);
#37=SHAPE_REPRESENTATION_RELATIONSHIP('None',
'relationship between 202448532mod000_00-None and 202448532mod000_00-N
one',#82,#41);
#38=GEOMETRICALLY_BOUNDED_WIREFRAME_SHAPE_REPRESENTATION(
'202448530mod000_00-None',(#83),#480);
#39=GEOMETRICALLY_BOUNDED_WIREFRAME_SHAPE_REPRESENTATION(
'202447643mod000_00-None',(#84),#479);
#40=GEOMETRICALLY_BOUNDED_WIREFRAME_SHAPE_REPRESENTATION(
'202448531mod000_00-None',(#85),#478);
#41=GEOMETRICALLY_BOUNDED_WIREFRAME_SHAPE_REPRESENTATION(
'202448532mod000_00-None',(#86),#477);
#42=SHAPE_DEFINITION_REPRESENTATION(#46,#79);
#43=SHAPE_DEFINITION_REPRESENTATION(#47,#80);
#44=SHAPE_DEFINITION_REPRESENTATION(#48,#81);
#45=SHAPE_DEFINITION_REPRESENTATION(#49,#82);
#46=PRODUCT_DEFINITION_SHAPE('','',#53);
#47=PRODUCT_DEFINITION_SHAPE('','',#54);
#48=PRODUCT_DEFINITION_SHAPE('','',#55);
#49=PRODUCT_DEFINITION_SHAPE('','',#56);
#50=PRODUCT_DEFINITION_SHAPE(' ','NAUO PRDDFN',#13);
#51=PRODUCT_DEFINITION_SHAPE(' ','NAUO PRDDFN',#14);
#52=PRODUCT_DEFINITION_SHAPE(' ','NAUO PRDDFN',#15);
#53=PRODUCT_DEFINITION(' ','',#61,#57);
#54=PRODUCT_DEFINITION(' ','',#62,#58);
#55=PRODUCT_DEFINITION(' ','',#63,#59);
#56=PRODUCT_DEFINITION(' ','',#64,#60);
#57=PRODUCT_DEFINITION_CONTEXT('part definition',#78,'design');
#58=PRODUCT_DEFINITION_CONTEXT('part definition',#78,'design');
#59=PRODUCT_DEFINITION_CONTEXT('part definition',#78,'design');
#60=PRODUCT_DEFINITION_CONTEXT('part definition',#78,'design');
#61=PRODUCT_DEFINITION_FORMATION_WITH_SPECIFIED_SOURCE(' ',' ',#69,
 .NOT_KNOWN.);
#62=PRODUCT_DEFINITION_FORMATION_WITH_SPECIFIED_SOURCE(' ',' ',#70,
 .NOT_KNOWN.);
#63=PRODUCT_DEFINITION_FORMATION_WITH_SPECIFIED_SOURCE(' ',' ',#71,
 .NOT_KNOWN.);
#64=PRODUCT_DEFINITION_FORMATION_WITH_SPECIFIED_SOURCE(' ',' ',#72,
 .NOT_KNOWN.);
#65=PRODUCT_RELATED_PRODUCT_CATEGORY('part','',(#69));
#66=PRODUCT_RELATED_PRODUCT_CATEGORY('part','',(#70));
#67=PRODUCT_RELATED_PRODUCT_CATEGORY('part','',(#71));
#68=PRODUCT_RELATED_PRODUCT_CATEGORY('part','',(#72));
#69=PRODUCT('ASSEMBLY_CONSTRUCTION','202448530mod000_00',' ',(#73));
#70=PRODUCT('202447643mod000_00','202447643mod000_00','MASTER_INSERT',(#74));
#71=PRODUCT('202448531mod000_00','202448531mod000_00','NOCUT',(#75));
#72=PRODUCT('202448532mod000_00','202448532mod000_00',' ',(#76));
#73=PRODUCT_CONTEXT(' ',#78,'mechanical');
#74=PRODUCT_CONTEXT(' ',#78,'mechanical');
#75=PRODUCT_CONTEXT(' ',#78,'mechanical');
#76=PRODUCT_CONTEXT(' ',#78,'mechanical');
#77=APPLICATION_PROTOCOL_DEFINITION('international standard',
'automotive_design',2010,#78);
#78=APPLICATION_CONTEXT(
'core data for automotive mechanical design processes');
#79=SHAPE_REPRESENTATION('202448530mod000_00-None',(#293),#480);
#80=SHAPE_REPRESENTATION('202447643mod000_00-None',(#293),#479);
#81=SHAPE_REPRESENTATION('202448531mod000_00-None',(#293),#478);
#82=SHAPE_REPRESENTATION('202448532mod000_00-None',(#293,#321,#322,#323),
#477);
#83=GEOMETRIC_CURVE_SET('None',(#467,#468));
#84=GEOMETRIC_CURVE_SET('None',(#421,#422,#423,#93));
#85=GEOMETRIC_CURVE_SET('None',(#390,#391,#392));
#86=GEOMETRIC_CURVE_SET('None',(#388));
#87=SURFACE_OF_REVOLUTION('',#89,#88);
#88=AXIS1_PLACEMENT('',#465,#376);
#89=B_SPLINE_CURVE_WITH_KNOTS('',3,(#446,#447,#448,#449,#450,#451,#452,
#453,#454,#455,#456,#457,#458,#459,#460,#461,#462,#463,#464),
 .UNSPECIFIED.,.F.,.F.,(4,1,1,1,1,1,1,1,1,1,1,1,1,1,1,1,4),(0.,0.0624999999999999,
0.125,0.1875,0.25,0.3125,0.375,0.4375,0.5,0.5625,0.625,0.6875,0.75,0.8125,
0.875,0.9375,1.),.UNSPECIFIED.);
#90=VERTEX_LOOP('',#194);
#91=DRAUGHTING_PRE_DEFINED_COLOUR('blue');
#92=DRAUGHTING_PRE_DEFINED_COLOUR('white');
#93=TRIMMED_CURVE('CUTTING EDGE LINE',#94,(PARAMETER_VALUE(0.)),(
PARAMETER_VALUE(1.)),.T.,.PARAMETER.);
#94=(
BOUNDED_CURVE()
B_SPLINE_CURVE(4,(#424,#425,#426,#427,#428,#429,#430,#431,#432,#433,#434,
#435,#436,#437,#438,#439),.UNSPECIFIED.,.T.,.F.)
B_SPLINE_CURVE_WITH_KNOTS((5,3,4,4,5),(0.,0.250341520340424,0.500683040680849,
0.637755267148616,1.),.UNSPECIFIED.)
CURVE()
GEOMETRIC_REPRESENTATION_ITEM()
RATIONAL_B_SPLINE_CURVE((0.548615003879166,0.548615003879166,0.537127075985786,
0.548615003879166,0.548615003879166,0.537127075985786,0.548615003879166,
0.548615003879166,0.548615003879166,0.548615003879166,0.548615003879166,
0.548615003879166,0.548615003879166,0.548615003879166,0.548615003879166,
0.548615003879166))
REPRESENTATION_ITEM('CUTTING EDGE LINE')
);
#95=SURFACE_STYLE_USAGE(.BOTH.,#97);
#96=SURFACE_STYLE_USAGE(.BOTH.,#98);
#97=SURFACE_SIDE_STYLE('',(#99));
#98=SURFACE_SIDE_STYLE('',(#100));
#99=SURFACE_STYLE_FILL_AREA(#101);
#100=SURFACE_STYLE_FILL_AREA(#102);
#101=FILL_AREA_STYLE('',(#103));
#102=FILL_AREA_STYLE('',(#104));
#103=FILL_AREA_STYLE_COLOUR('',#291);
#104=FILL_AREA_STYLE_COLOUR('',#292);
#105=MANIFOLD_SOLID_BREP('NOCUT',#107);
#106=MANIFOLD_SOLID_BREP('CUT',#108);
#107=CLOSED_SHELL('',(#120,#121,#122,#123,#124,#125,#126,#127,#128));
#108=CLOSED_SHELL('',(#129,#130));
#109=CONICAL_SURFACE('',#311,4.90779946162075,30.);
#110=CONICAL_SURFACE('',#314,5.60713785634133,4.00000000000001);
#111=TOROIDAL_SURFACE('',#306,6.69983202505897,1.);
#112=TOROIDAL_SURFACE('',#313,6.53965294247899,1.);
#113=PLANE('',#303);
#114=PLANE('',#310);
#115=PLANE('',#319);
#116=FACE_OUTER_BOUND('',#153,.T.);
#117=FACE_OUTER_BOUND('',#158,.T.);
#118=FACE_OUTER_BOUND('',#166,.T.);
#119=SPHERICAL_SURFACE('',#302,3.3125);
#120=ADVANCED_FACE('',(#133,#134),#131,.T.);
#121=ADVANCED_FACE('',(#135,#136),#119,.T.);
#122=ADVANCED_FACE('',(#116),#113,.T.);
#123=ADVANCED_FACE('',(#137,#138),#111,.F.);
#124=ADVANCED_FACE('',(#139,#140),#132,.T.);
#125=ADVANCED_FACE('',(#117),#114,.T.);
#126=ADVANCED_FACE('',(#141,#142),#109,.T.);
#127=ADVANCED_FACE('',(#143,#144),#112,.F.);
#128=ADVANCED_FACE('',(#145,#146),#110,.T.);
#129=ADVANCED_FACE('',(#147,#148),#87,.F.);
#130=ADVANCED_FACE('',(#118),#115,.T.);
#131=CYLINDRICAL_SURFACE('',#300,3.225);
#132=CYLINDRICAL_SURFACE('',#308,5.99875);
#133=FACE_BOUND('',#149,.T.);
#134=FACE_BOUND('',#150,.T.);
#135=FACE_BOUND('',#151,.T.);
#136=FACE_BOUND('',#152,.T.);
#137=FACE_BOUND('',#154,.T.);
#138=FACE_BOUND('',#155,.T.);
#139=FACE_BOUND('',#156,.T.);
#140=FACE_BOUND('',#157,.T.);
#141=FACE_BOUND('',#159,.T.);
#142=FACE_BOUND('',#160,.T.);
#143=FACE_BOUND('',#161,.T.);
#144=FACE_BOUND('',#162,.T.);
#145=FACE_BOUND('',#163,.T.);
#146=FACE_BOUND('',#164,.T.);
#147=FACE_BOUND('',#165,.T.);
#148=FACE_BOUND('',#90,.T.);
#149=EDGE_LOOP('',(#167));
#150=EDGE_LOOP('',(#168));
#151=EDGE_LOOP('',(#169));
#152=EDGE_LOOP('',(#170));
#153=EDGE_LOOP('',(#171));
#154=EDGE_LOOP('',(#172));
#155=EDGE_LOOP('',(#173));
#156=EDGE_LOOP('',(#174));
#157=EDGE_LOOP('',(#175));
#158=EDGE_LOOP('',(#176));
#159=EDGE_LOOP('',(#177));
#160=EDGE_LOOP('',(#178));
#161=EDGE_LOOP('',(#179));
#162=EDGE_LOOP('',(#180));
#163=EDGE_LOOP('',(#181));
#164=EDGE_LOOP('',(#182));
#165=EDGE_LOOP('',(#183));
#166=EDGE_LOOP('',(#184));
#167=ORIENTED_EDGE('',*,*,#195,.F.);
#168=ORIENTED_EDGE('',*,*,#196,.F.);
#169=ORIENTED_EDGE('',*,*,#197,.T.);
#170=ORIENTED_EDGE('',*,*,#195,.T.);
#171=ORIENTED_EDGE('',*,*,#197,.F.);
#172=ORIENTED_EDGE('',*,*,#198,.T.);
#173=ORIENTED_EDGE('',*,*,#199,.F.);
#174=ORIENTED_EDGE('',*,*,#200,.F.);
#175=ORIENTED_EDGE('',*,*,#199,.T.);
#176=ORIENTED_EDGE('',*,*,#201,.T.);
#177=ORIENTED_EDGE('',*,*,#201,.F.);
#178=ORIENTED_EDGE('',*,*,#200,.T.);
#179=ORIENTED_EDGE('',*,*,#202,.F.);
#180=ORIENTED_EDGE('',*,*,#198,.F.);
#181=ORIENTED_EDGE('',*,*,#202,.T.);
#182=ORIENTED_EDGE('',*,*,#196,.T.);
#183=ORIENTED_EDGE('',*,*,#203,.T.);
#184=ORIENTED_EDGE('',*,*,#203,.F.);
#185=VERTEX_POINT('',#397);
#186=VERTEX_POINT('',#399);
#187=VERTEX_POINT('',#402);
#188=VERTEX_POINT('',#406);
#189=VERTEX_POINT('',#408);
#190=VERTEX_POINT('',#411);
#191=VERTEX_POINT('',#414);
#192=VERTEX_POINT('',#418);
#193=VERTEX_POINT('',#444);
#194=VERTEX_POINT('',#445);
#195=EDGE_CURVE('',#185,#185,#204,.T.);
#196=EDGE_CURVE('',#186,#186,#205,.T.);
#197=EDGE_CURVE('',#187,#187,#206,.T.);
#198=EDGE_CURVE('',#188,#188,#207,.T.);
#199=EDGE_CURVE('',#189,#189,#208,.T.);
#200=EDGE_CURVE('',#190,#190,#209,.T.);
#201=EDGE_CURVE('',#191,#191,#210,.T.);
#202=EDGE_CURVE('',#192,#192,#211,.T.);
#203=EDGE_CURVE('',#193,#193,#212,.T.);
#204=CIRCLE('',#298,3.225);
#205=CIRCLE('',#299,3.225);
#206=CIRCLE('',#301,2.17316733133921);
#207=CIRCLE('',#304,5.80788863376729);
#208=CIRCLE('',#305,5.99875);
#209=CIRCLE('',#307,5.99875);
#210=CIRCLE('',#309,4.90779946162075);
#211=CIRCLE('',#312,5.54208889221917);
#212=CIRCLE('',#318,2.64537161850656);
#213=CURVE_STYLE('',#222,POSITIVE_LENGTH_MEASURE(0.18),#290);
#214=CURVE_STYLE('',#223,POSITIVE_LENGTH_MEASURE(0.18),#290);
#215=CURVE_STYLE('',#224,POSITIVE_LENGTH_MEASURE(0.18),#290);
#216=CURVE_STYLE('',#225,POSITIVE_LENGTH_MEASURE(0.18),#290);
#217=CURVE_STYLE('',#226,POSITIVE_LENGTH_MEASURE(0.18),#91);
#218=CURVE_STYLE('',#227,POSITIVE_LENGTH_MEASURE(0.18),#290);
#219=CURVE_STYLE('',#228,POSITIVE_LENGTH_MEASURE(0.18),#290);
#220=CURVE_STYLE('',#229,POSITIVE_LENGTH_MEASURE(0.18),#290);
#221=CURVE_STYLE('',#230,POSITIVE_LENGTH_MEASURE(0.18),#290);
#222=DRAUGHTING_PRE_DEFINED_CURVE_FONT('continuous');
#223=DRAUGHTING_PRE_DEFINED_CURVE_FONT('continuous');
#224=DRAUGHTING_PRE_DEFINED_CURVE_FONT('continuous');
#225=DRAUGHTING_PRE_DEFINED_CURVE_FONT('continuous');
#226=DRAUGHTING_PRE_DEFINED_CURVE_FONT('continuous');
#227=DRAUGHTING_PRE_DEFINED_CURVE_FONT('continuous');
#228=DRAUGHTING_PRE_DEFINED_CURVE_FONT('continuous');
#229=DRAUGHTING_PRE_DEFINED_CURVE_FONT('continuous');
#230=DRAUGHTING_PRE_DEFINED_CURVE_FONT('continuous');
#231=PRESENTATION_LAYER_ASSIGNMENT('1','Layer 1',(#388,#294,#390,#391,#392,
#295,#296,#297,#105,#421,#422,#423,#93,#315,#316,#317,#106,#467,#468,#320));
#232=STYLED_ITEM('',(#252),#388);
#233=STYLED_ITEM('',(#253),#294);
#234=STYLED_ITEM('',(#254),#390);
#235=STYLED_ITEM('',(#255),#391);
#236=STYLED_ITEM('',(#256),#392);
#237=STYLED_ITEM('',(#257),#295);
#238=STYLED_ITEM('',(#258),#296);
#239=STYLED_ITEM('',(#259),#297);
#240=STYLED_ITEM('',(#260),#105);
#241=STYLED_ITEM('',(#261),#421);
#242=STYLED_ITEM('',(#262),#422);
#243=STYLED_ITEM('',(#263),#423);
#244=STYLED_ITEM('',(#264),#93);
#245=STYLED_ITEM('',(#265),#315);
#246=STYLED_ITEM('',(#266),#316);
#247=STYLED_ITEM('',(#267),#317);
#248=STYLED_ITEM('',(#268),#106);
#249=STYLED_ITEM('',(#269),#467);
#250=STYLED_ITEM('',(#270),#468);
#251=STYLED_ITEM('',(#271),#320);
#252=PRESENTATION_STYLE_ASSIGNMENT((#272));
#253=PRESENTATION_STYLE_ASSIGNMENT((#213));
#254=PRESENTATION_STYLE_ASSIGNMENT((#273));
#255=PRESENTATION_STYLE_ASSIGNMENT((#274));
#256=PRESENTATION_STYLE_ASSIGNMENT((#275));
#257=PRESENTATION_STYLE_ASSIGNMENT((#214));
#258=PRESENTATION_STYLE_ASSIGNMENT((#215));
#259=PRESENTATION_STYLE_ASSIGNMENT((#216));
#260=PRESENTATION_STYLE_ASSIGNMENT((#95));
#261=PRESENTATION_STYLE_ASSIGNMENT((#276));
#262=PRESENTATION_STYLE_ASSIGNMENT((#277));
#263=PRESENTATION_STYLE_ASSIGNMENT((#278));
#264=PRESENTATION_STYLE_ASSIGNMENT((#217));
#265=PRESENTATION_STYLE_ASSIGNMENT((#218));
#266=PRESENTATION_STYLE_ASSIGNMENT((#219));
#267=PRESENTATION_STYLE_ASSIGNMENT((#220));
#268=PRESENTATION_STYLE_ASSIGNMENT((#96));
#269=PRESENTATION_STYLE_ASSIGNMENT((#279));
#270=PRESENTATION_STYLE_ASSIGNMENT((#280));
#271=PRESENTATION_STYLE_ASSIGNMENT((#221));
#272=POINT_STYLE('',#281,POSITIVE_LENGTH_MEASURE(3.),#290);
#273=POINT_STYLE('',#282,POSITIVE_LENGTH_MEASURE(3.),#290);
#274=POINT_STYLE('',#283,POSITIVE_LENGTH_MEASURE(3.),#290);
#275=POINT_STYLE('',#284,POSITIVE_LENGTH_MEASURE(3.),#290);
#276=POINT_STYLE('',#285,POSITIVE_LENGTH_MEASURE(3.),#290);
#277=POINT_STYLE('',#286,POSITIVE_LENGTH_MEASURE(3.),#290);
#278=POINT_STYLE('',#287,POSITIVE_LENGTH_MEASURE(3.),#290);
#279=POINT_STYLE('',#288,POSITIVE_LENGTH_MEASURE(3.),#290);
#280=POINT_STYLE('',#289,POSITIVE_LENGTH_MEASURE(3.),#92);
#281=PRE_DEFINED_POINT_MARKER_SYMBOL('plus');
#282=PRE_DEFINED_POINT_MARKER_SYMBOL('plus');
#283=PRE_DEFINED_POINT_MARKER_SYMBOL('plus');
#284=PRE_DEFINED_POINT_MARKER_SYMBOL('plus');
#285=PRE_DEFINED_POINT_MARKER_SYMBOL('plus');
#286=PRE_DEFINED_POINT_MARKER_SYMBOL('plus');
#287=PRE_DEFINED_POINT_MARKER_SYMBOL('plus');
#288=PRE_DEFINED_POINT_MARKER_SYMBOL('plus');
#289=PRE_DEFINED_POINT_MARKER_SYMBOL('plus');
#290=COLOUR_RGB('Medium Maroon',0.6,0.4,0.4);
#291=COLOUR_RGB('Medium Gray',0.490196078431373,0.490196078431373,0.490196078431373);
#292=COLOUR_RGB('Light Gray',0.8,0.8,0.8);
#293=AXIS2_PLACEMENT_3D('',#387,#324,#325);
#294=AXIS2_PLACEMENT_3D('',#389,#326,#327);
#295=AXIS2_PLACEMENT_3D('CSW',#393,#328,#329);
#296=AXIS2_PLACEMENT_3D('PCS',#394,#330,#331);
#297=AXIS2_PLACEMENT_3D('MCS',#395,#332,#333);
#298=AXIS2_PLACEMENT_3D('',#396,#334,#335);
#299=AXIS2_PLACEMENT_3D('',#398,#336,#337);
#300=AXIS2_PLACEMENT_3D('',#400,#338,#339);
#301=AXIS2_PLACEMENT_3D('',#401,#340,#341);
#302=AXIS2_PLACEMENT_3D('',#403,#342,#343);
#303=AXIS2_PLACEMENT_3D('',#404,#344,#345);
#304=AXIS2_PLACEMENT_3D('',#405,#346,#347);
#305=AXIS2_PLACEMENT_3D('',#407,#348,#349);
#306=AXIS2_PLACEMENT_3D('',#409,#350,#351);
#307=AXIS2_PLACEMENT_3D('',#410,#352,#353);
#308=AXIS2_PLACEMENT_3D('',#412,#354,#355);
#309=AXIS2_PLACEMENT_3D('',#413,#356,#357);
#310=AXIS2_PLACEMENT_3D('',#415,#358,#359);
#311=AXIS2_PLACEMENT_3D('',#416,#360,#361);
#312=AXIS2_PLACEMENT_3D('',#417,#362,#363);
#313=AXIS2_PLACEMENT_3D('',#419,#364,#365);
#314=AXIS2_PLACEMENT_3D('',#420,#366,#367);
#315=AXIS2_PLACEMENT_3D('CIP',#440,#368,#369);
#316=AXIS2_PLACEMENT_3D('MCS',#441,#370,#371);
#317=AXIS2_PLACEMENT_3D('PCS',#442,#372,#373);
#318=AXIS2_PLACEMENT_3D('',#443,#374,#375);
#319=AXIS2_PLACEMENT_3D('',#466,#377,#378);
#320=AXIS2_PLACEMENT_3D('',#469,#379,#380);
#321=AXIS2_PLACEMENT_3D('',#470,#381,#382);
#322=AXIS2_PLACEMENT_3D('',#471,#383,#384);
#323=AXIS2_PLACEMENT_3D('',#472,#385,#386);
#324=DIRECTION('',(0.,0.,1.));
#325=DIRECTION('',(1.,0.,0.));
#326=DIRECTION('',(0.,0.,1.));
#327=DIRECTION('',(1.,0.,0.));
#328=DIRECTION('',(0.,0.,1.));
#329=DIRECTION('',(1.,0.,0.));
#330=DIRECTION('',(0.,0.,1.));
#331=DIRECTION('',(1.,0.,0.));
#332=DIRECTION('',(0.,0.,1.));
#333=DIRECTION('',(1.,0.,0.));
#334=DIRECTION('',(0.,0.,-1.));
#335=DIRECTION('',(0.,1.,0.));
#336=DIRECTION('',(0.,0.,1.));
#337=DIRECTION('',(0.,-1.,0.));
#338=DIRECTION('',(0.,0.,-1.));
#339=DIRECTION('',(0.,-1.,0.));
#340=DIRECTION('',(0.,0.,1.));
#341=DIRECTION('',(0.,-1.,0.));
#342=DIRECTION('',(-6.12323399573677E-17,0.,-0.999999999999999));
#343=DIRECTION('',(-1.,0.,0.));
#344=DIRECTION('',(0.,0.,-1.));
#345=DIRECTION('',(0.,-1.,0.));
#346=DIRECTION('',(0.,0.,1.));
#347=DIRECTION('',(0.,1.,0.));
#348=DIRECTION('',(0.,0.,1.));
#349=DIRECTION('',(0.,-1.,0.));
#350=DIRECTION('',(0.,0.,1.));
#351=DIRECTION('',(0.,-1.,0.));
#352=DIRECTION('',(0.,0.,1.));
#353=DIRECTION('',(0.,-1.,0.));
#354=DIRECTION('',(0.,0.,-1.));
#355=DIRECTION('',(0.,-1.,0.));
#356=DIRECTION('',(0.,0.,1.));
#357=DIRECTION('',(0.,-1.,0.));
#358=DIRECTION('',(0.,0.,1.));
#359=DIRECTION('',(0.,-1.,0.));
#360=DIRECTION('',(0.,0.,-1.));
#361=DIRECTION('',(0.,1.,0.));
#362=DIRECTION('',(0.,0.,-1.));
#363=DIRECTION('',(0.,-1.,0.));
#364=DIRECTION('',(0.,0.,1.));
#365=DIRECTION('',(0.,1.,0.));
#366=DIRECTION('',(0.,0.,1.));
#367=DIRECTION('',(0.,1.,-3.6745828450882E-16));
#368=DIRECTION('',(0.,0.,1.));
#369=DIRECTION('',(1.,0.,0.));
#370=DIRECTION('',(0.,0.,1.));
#371=DIRECTION('',(1.,0.,0.));
#372=DIRECTION('',(0.,0.,1.));
#373=DIRECTION('',(1.,0.,0.));
#374=DIRECTION('',(0.,0.,-1.));
#375=DIRECTION('',(-1.,0.,0.));
#376=DIRECTION('',(0.,0.,-1.));
#377=DIRECTION('',(0.,0.,1.));
#378=DIRECTION('',(1.,0.,0.));
#379=DIRECTION('',(0.,0.,1.));
#380=DIRECTION('',(1.,0.,0.));
#381=DIRECTION('',(0.,0.,1.));
#382=DIRECTION('',(1.,0.,0.));
#383=DIRECTION('',(0.,0.,1.));
#384=DIRECTION('',(1.,0.,0.));
#385=DIRECTION('',(0.,0.,1.));
#386=DIRECTION('',(1.,0.,0.));
#387=CARTESIAN_POINT('',(0.,0.,0.));
#388=CARTESIAN_POINT('',(0.,0.,0.));
#389=CARTESIAN_POINT('',(0.,0.,0.));
#390=CARTESIAN_POINT('PCS',(3.89049224787801E-28,-1.10702531953049E-13,
0.));
#391=CARTESIAN_POINT('CSW',(3.89443655240411E-28,-0.00500000000011158,-103.009235910247));
#392=CARTESIAN_POINT('MCS',(0.,0.,-45.));
#393=CARTESIAN_POINT('',(3.89443655240411E-28,-0.00500000000011158,-103.009235910247));
#394=CARTESIAN_POINT('',(3.89049224787801E-28,-1.10702531953049E-13,0.));
#395=CARTESIAN_POINT('',(0.,0.,-45.));
#396=CARTESIAN_POINT('',(3.89049224787801E-28,-1.10702531953049E-13,-106.760563385617));
#397=CARTESIAN_POINT('',(3.89049224787801E-28,3.22499999999989,-106.760563385617));
#398=CARTESIAN_POINT('',(3.89049224787801E-28,-1.10702531953049E-13,-90.9301584610165));
#399=CARTESIAN_POINT('',(3.89049224787801E-28,-3.22500000000011,-90.9301584610165));
#400=CARTESIAN_POINT('',(3.89049224787801E-28,-1.10702531953049E-13,-91.5));
#401=CARTESIAN_POINT('',(3.89049224787801E-28,-1.10702531953049E-13,-108.504235910247));
#402=CARTESIAN_POINT('',(3.89049224787801E-28,-2.17316733133932,-108.504235910247));
#403=CARTESIAN_POINT('',(-4.44089209849674E-16,-1.10702531953049E-13,-106.004235910247));
#404=CARTESIAN_POINT('',(3.89049224787801E-28,-1.10702531953049E-13,-108.504235910247));
#405=CARTESIAN_POINT('',(3.89049224787801E-28,-1.10702531953049E-13,-57.1824422280572));
#406=CARTESIAN_POINT('',(3.89049224787801E-28,5.80788863376718,-57.1824422280572));
#407=CARTESIAN_POINT('',(3.89049224787801E-28,-1.10702531953049E-13,-56.9215086768499));
#408=CARTESIAN_POINT('',(3.89049224787801E-28,-5.99875000000011,-56.9215086768499));
#409=CARTESIAN_POINT('',(3.89049224787801E-28,-1.10702531953049E-13,-57.6345893133415));
#410=CARTESIAN_POINT('',(3.89049224787801E-28,-1.10702531953049E-13,-1.88958176101749));
#411=CARTESIAN_POINT('',(3.89049224787801E-28,-5.99875000000011,-1.88958176101749));
#412=CARTESIAN_POINT('',(3.89049224787801E-28,-1.10702531953049E-13,-91.5));
#413=CARTESIAN_POINT('',(3.89049224787801E-28,-1.10702531953049E-13,0.));
#414=CARTESIAN_POINT('',(3.89049224787801E-28,-4.90779946162086,0.));
#415=CARTESIAN_POINT('',(3.89049224787801E-28,-1.10702531953049E-13,0.));
#416=CARTESIAN_POINT('',(3.89049224787801E-28,-1.10702531953049E-13,0.));
#417=CARTESIAN_POINT('',(3.89049224787801E-28,-1.10702531953049E-13,-57.7942435262559));
#418=CARTESIAN_POINT('',(3.89049224787801E-28,-5.54208889221928,-57.7942435262559));
#419=CARTESIAN_POINT('',(3.89049224787801E-28,-1.10702531953049E-13,-57.864));
#420=CARTESIAN_POINT('',(3.89049224787801E-28,-1.10702531953049E-13,-56.864));
#421=CARTESIAN_POINT('',(0.,0.,-6.995));
#422=CARTESIAN_POINT('',(0.,0.,0.));
#423=CARTESIAN_POINT('MCS',(0.,0.,0.));
#424=CARTESIAN_POINT('',(-2.44684430469641E-16,0.,-6.991));
#425=CARTESIAN_POINT('',(-1.13560674478209,0.,-6.991));
#426=CARTESIAN_POINT('',(-2.45683357152706,0.,-6.5514990489374));
#427=CARTESIAN_POINT('',(-3.33548185511648,0.,-5.4713237819363));
#428=CARTESIAN_POINT('',(-4.13928048224248,0.,-3.34710192859597));
#429=CARTESIAN_POINT('',(-4.1958153633704,0.,-1.95584162911518));
#430=CARTESIAN_POINT('',(-3.49650830534899,0.,-0.751777240348134));
#431=CARTESIAN_POINT('',(-2.64537161850656,0.,1.33226762955019E-15));
#432=CARTESIAN_POINT('',(-1.98402871387992,0.,1.33226762955019E-15));
#433=CARTESIAN_POINT('',(-1.32268580925328,0.,1.33226762955019E-15));
#434=CARTESIAN_POINT('',(-0.661342904626639,0.,1.33226762955019E-15));
#435=CARTESIAN_POINT('',(0.,0.,6.66133814775094E-16));
#436=CARTESIAN_POINT('',(0.,0.,-1.74775));
#437=CARTESIAN_POINT('',(0.,0.,-3.4955));
#438=CARTESIAN_POINT('',(0.,0.,-5.24325));
#439=CARTESIAN_POINT('',(0.,0.,-6.991));
#440=CARTESIAN_POINT('',(0.,0.,-6.995));
#441=CARTESIAN_POINT('',(0.,0.,0.));
#442=CARTESIAN_POINT('',(0.,0.,0.));
#443=CARTESIAN_POINT('',(0.,0.,1.33226762955019E-15));
#444=CARTESIAN_POINT('',(-2.64537161850656,0.,1.33226762955019E-15));
#445=CARTESIAN_POINT('',(-1.77635683940025E-15,0.,-6.991));
#446=CARTESIAN_POINT('',(-1.77635683940025E-15,0.,-6.991));
#447=CARTESIAN_POINT('',(-0.201306995197375,0.,-6.991));
#448=CARTESIAN_POINT('',(-0.603919217561338,0.,-6.96051815696227));
#449=CARTESIAN_POINT('',(-1.19407077552536,0.,-6.8243927342775));
#450=CARTESIAN_POINT('',(-1.75700072420139,0.,-6.60096743324348));
#451=CARTESIAN_POINT('',(-2.27987599907286,0.,-6.29533621912526));
#452=CARTESIAN_POINT('',(-2.75077621929175,0.,-5.9144661953278));
#453=CARTESIAN_POINT('',(-3.1589664796715,0.,-5.46704055598971));
#454=CARTESIAN_POINT('',(-3.49514078163101,0.,-4.96325902535674));
#455=CARTESIAN_POINT('',(-3.75163570647551,0.,-4.41460672590941));
#456=CARTESIAN_POINT('',(-3.92260340454383,0.,-3.83359120260244));
#457=CARTESIAN_POINT('',(-4.00414678012264,0.,-3.23345815895556));
#458=CARTESIAN_POINT('',(-3.99440635406899,0.,-2.62788890921138));
#459=CARTESIAN_POINT('',(-3.89360470027009,0.,-2.03068875960437));
#460=CARTESIAN_POINT('',(-3.70403930764067,0.,-1.45547231858485));
#461=CARTESIAN_POINT('',(-3.43003223906289,0.,-0.915352777679693));
#462=CARTESIAN_POINT('',(-3.07782963981048,0.,-0.422643612816996));
#463=CARTESIAN_POINT('',(-2.79625111065274,0.,-0.133266219144635));
#464=CARTESIAN_POINT('',(-2.64537161850656,0.,1.33226762955019E-15));
#465=CARTESIAN_POINT('',(0.,0.,0.));
#466=CARTESIAN_POINT('',(-2.64537161850656,0.,2.44249065417534E-15));
#467=CARTESIAN_POINT('',(0.,0.,0.));
#468=CARTESIAN_POINT('CRP',(-3.995,0.,-110.));
#469=CARTESIAN_POINT('',(0.,0.,0.));
#470=CARTESIAN_POINT('',(0.,0.,0.));
#471=CARTESIAN_POINT('',(3.89443655240412E-28,-0.00500000000012335,-103.009235910247));
#472=CARTESIAN_POINT('',(0.,0.,0.));
#473=MECHANICAL_DESIGN_GEOMETRIC_PRESENTATION_REPRESENTATION('',(#232,#233),
#477);
#474=MECHANICAL_DESIGN_GEOMETRIC_PRESENTATION_REPRESENTATION('',(#234,#235,
#236,#237,#238,#239,#240),#478);
#475=MECHANICAL_DESIGN_GEOMETRIC_PRESENTATION_REPRESENTATION('',(#241,#242,
#243,#244,#245,#246,#247,#248),#479);
#476=MECHANICAL_DESIGN_GEOMETRIC_PRESENTATION_REPRESENTATION('',(#249,#250,
#251),#480);
#477=(
GEOMETRIC_REPRESENTATION_CONTEXT(3)
GLOBAL_UNCERTAINTY_ASSIGNED_CONTEXT((#481))
GLOBAL_UNIT_ASSIGNED_CONTEXT((#490,#486,#485))
REPRESENTATION_CONTEXT('1590149358718','TOP_LEVEL_ASSEMBLY_PART')
);
#478=(
GEOMETRIC_REPRESENTATION_CONTEXT(3)
GLOBAL_UNCERTAINTY_ASSIGNED_CONTEXT((#482))
GLOBAL_UNIT_ASSIGNED_CONTEXT((#490,#486,#485))
REPRESENTATION_CONTEXT('202448531mod000_00','COMPONENT_PART')
);
#479=(
GEOMETRIC_REPRESENTATION_CONTEXT(3)
GLOBAL_UNCERTAINTY_ASSIGNED_CONTEXT((#483))
GLOBAL_UNIT_ASSIGNED_CONTEXT((#490,#486,#485))
REPRESENTATION_CONTEXT('202447643mod000_00','COMPONENT_PART')
);
#480=(
GEOMETRIC_REPRESENTATION_CONTEXT(3)
GLOBAL_UNCERTAINTY_ASSIGNED_CONTEXT((#484))
GLOBAL_UNIT_ASSIGNED_CONTEXT((#490,#486,#485))
REPRESENTATION_CONTEXT('202448530mod000_00','COMPONENT_PART')
);
#481=UNCERTAINTY_MEASURE_WITH_UNIT(LENGTH_MEASURE(2.E-5),#490,
'DISTANCE_ACCURACY_VALUE','Maximum Tolerance applied to model');
#482=UNCERTAINTY_MEASURE_WITH_UNIT(LENGTH_MEASURE(2.E-5),#490,
'DISTANCE_ACCURACY_VALUE','Maximum Tolerance applied to model');
#483=UNCERTAINTY_MEASURE_WITH_UNIT(LENGTH_MEASURE(0.0508),#490,
'DISTANCE_ACCURACY_VALUE','Maximum Tolerance applied to model');
#484=UNCERTAINTY_MEASURE_WITH_UNIT(LENGTH_MEASURE(2.E-5),#490,
'DISTANCE_ACCURACY_VALUE','Maximum Tolerance applied to model');
#485=(
NAMED_UNIT(*)
SI_UNIT($,.STERADIAN.)
SOLID_ANGLE_UNIT()
);
#486=(
CONVERSION_BASED_UNIT('DEGREE',#488)
NAMED_UNIT(#487)
PLANE_ANGLE_UNIT()
);
#487=DIMENSIONAL_EXPONENTS(0.,0.,0.,0.,0.,0.,0.);
#488=PLANE_ANGLE_MEASURE_WITH_UNIT(PLANE_ANGLE_MEASURE(0.0174532925),#489);
#489=(
NAMED_UNIT(*)
PLANE_ANGLE_UNIT()
SI_UNIT($,.RADIAN.)
);
#490=(
LENGTH_UNIT()
NAMED_UNIT(*)
SI_UNIT(.MILLI.,.METRE.)
);
ENDSEC;
END-ISO-10303-21;
