ISO-10303-21;
HEADER;
/* Generated by software containing ST-Developer
 * from STEP Tools, Inc. (www.steptools.com) 
 */
/* OPTION: using custom schema-name function */

FILE_DESCRIPTION(
/* description */ (''),
/* implementation_level */ '2;1');

FILE_NAME(
/* name */ '1555307133706.stp',
/* time_stamp */ '2019-04-15T07:45:47+02:00',
/* author */ (''),
/* organization */ ('SMS'),
/* preprocessor_version */ 'ST-DEVELOPER v15',
/* originating_system */ 'SIEMENS PLM Software NX 8.5',
/* authorisation */ '');

FILE_SCHEMA (('AUTOMOTIVE_DESIGN { 1 0 10303 214 3 1 1 1 }'));
ENDSEC;

DATA;
#10=CONSTRUCTIVE_GEOMETRY_REPRESENTATION_RELATIONSHIP(
'supplemental geometry','',#26,#11);
#11=CONSTRUCTIVE_GEOMETRY_REPRESENTATION('supplemental geometry',(#177,
#178,#179),#290);
#12=GEOMETRICALLY_BOUNDED_WIREFRAME_SHAPE_REPRESENTATION(
'202305146mod000_00-None',(#27),#290);
#13=SHAPE_REPRESENTATION_RELATIONSHIP('None',
'relationship between 202305146mod000_00-None and 202305146mod000_00-N
one',#26,#15);
#14=SHAPE_REPRESENTATION_RELATIONSHIP('None',
'relationship between 202305146mod000_00-None and 202305146mod000_00-N
one',#26,#12);
#15=ADVANCED_BREP_SHAPE_REPRESENTATION('202305146mod000_00-None',(#33),
#290);
#16=SHAPE_DEFINITION_REPRESENTATION(#17,#26);
#17=PRODUCT_DEFINITION_SHAPE('','',#18);
#18=PRODUCT_DEFINITION(' ','',#20,#19);
#19=PRODUCT_DEFINITION_CONTEXT('part definition',#25,'design');
#20=PRODUCT_DEFINITION_FORMATION_WITH_SPECIFIED_SOURCE(' ',' ',#22,
 .NOT_KNOWN.);
#21=PRODUCT_RELATED_PRODUCT_CATEGORY('part','',(#22));
#22=PRODUCT('202305146mod000_00','202305146mod000_00',' ',(#23));
#23=PRODUCT_CONTEXT(' ',#25,'mechanical');
#24=APPLICATION_PROTOCOL_DEFINITION('international standard',
'automotive_design',2010,#25);
#25=APPLICATION_CONTEXT(
'core data for automotive mechanical design processes');
#26=SHAPE_REPRESENTATION('202305146mod000_00-None',(#176),#290);
#27=GEOMETRIC_CURVE_SET('None',(#252,#253,#254));
#28=SURFACE_STYLE_USAGE(.BOTH.,#29);
#29=SURFACE_SIDE_STYLE('',(#30));
#30=SURFACE_STYLE_FILL_AREA(#31);
#31=FILL_AREA_STYLE('',(#32));
#32=FILL_AREA_STYLE_COLOUR('',#175);
#33=MANIFOLD_SOLID_BREP('NOCUT',#34);
#34=CLOSED_SHELL('',(#43,#44,#45,#46,#47,#48,#49,#50,#51,#52,#53));
#35=CYLINDRICAL_SURFACE('',#189,18.);
#36=CYLINDRICAL_SURFACE('',#193,44.441);
#37=CYLINDRICAL_SURFACE('',#199,55.);
#38=FACE_OUTER_BOUND('',#81,.T.);
#39=FACE_OUTER_BOUND('',#82,.T.);
#40=CONICAL_SURFACE('',#184,22.58675,30.0000000000002);
#41=CONICAL_SURFACE('',#197,54.5,44.9999999999996);
#42=CONICAL_SURFACE('',#200,55.,30.);
#43=ADVANCED_FACE('',(#59,#60),#54,.T.);
#44=ADVANCED_FACE('',(#61,#62),#40,.T.);
#45=ADVANCED_FACE('',(#38),#55,.T.);
#46=ADVANCED_FACE('',(#39),#56,.T.);
#47=ADVANCED_FACE('',(#63,#64),#35,.T.);
#48=ADVANCED_FACE('',(#65,#66),#57,.T.);
#49=ADVANCED_FACE('',(#67,#68),#36,.F.);
#50=ADVANCED_FACE('',(#69,#70),#58,.T.);
#51=ADVANCED_FACE('',(#71,#72),#41,.T.);
#52=ADVANCED_FACE('',(#73,#74),#37,.T.);
#53=ADVANCED_FACE('',(#75,#76),#42,.T.);
#54=PLANE('',#182);
#55=PLANE('',#185);
#56=PLANE('',#187);
#57=PLANE('',#191);
#58=PLANE('',#195);
#59=FACE_BOUND('',#77,.T.);
#60=FACE_BOUND('',#78,.T.);
#61=FACE_BOUND('',#79,.T.);
#62=FACE_BOUND('',#80,.T.);
#63=FACE_BOUND('',#83,.T.);
#64=FACE_BOUND('',#84,.T.);
#65=FACE_BOUND('',#85,.T.);
#66=FACE_BOUND('',#86,.T.);
#67=FACE_BOUND('',#87,.T.);
#68=FACE_BOUND('',#88,.T.);
#69=FACE_BOUND('',#89,.T.);
#70=FACE_BOUND('',#90,.T.);
#71=FACE_BOUND('',#91,.T.);
#72=FACE_BOUND('',#92,.T.);
#73=FACE_BOUND('',#93,.T.);
#74=FACE_BOUND('',#94,.T.);
#75=FACE_BOUND('',#95,.T.);
#76=FACE_BOUND('',#96,.T.);
#77=EDGE_LOOP('',(#97));
#78=EDGE_LOOP('',(#98));
#79=EDGE_LOOP('',(#99));
#80=EDGE_LOOP('',(#100));
#81=EDGE_LOOP('',(#101));
#82=EDGE_LOOP('',(#102));
#83=EDGE_LOOP('',(#103));
#84=EDGE_LOOP('',(#104));
#85=EDGE_LOOP('',(#105));
#86=EDGE_LOOP('',(#106));
#87=EDGE_LOOP('',(#107));
#88=EDGE_LOOP('',(#108));
#89=EDGE_LOOP('',(#109));
#90=EDGE_LOOP('',(#110));
#91=EDGE_LOOP('',(#111));
#92=EDGE_LOOP('',(#112));
#93=EDGE_LOOP('',(#113));
#94=EDGE_LOOP('',(#114));
#95=EDGE_LOOP('',(#115));
#96=EDGE_LOOP('',(#116));
#97=ORIENTED_EDGE('',*,*,#127,.T.);
#98=ORIENTED_EDGE('',*,*,#128,.F.);
#99=ORIENTED_EDGE('',*,*,#129,.T.);
#100=ORIENTED_EDGE('',*,*,#127,.F.);
#101=ORIENTED_EDGE('',*,*,#129,.F.);
#102=ORIENTED_EDGE('',*,*,#130,.T.);
#103=ORIENTED_EDGE('',*,*,#131,.T.);
#104=ORIENTED_EDGE('',*,*,#130,.F.);
#105=ORIENTED_EDGE('',*,*,#132,.T.);
#106=ORIENTED_EDGE('',*,*,#131,.F.);
#107=ORIENTED_EDGE('',*,*,#133,.T.);
#108=ORIENTED_EDGE('',*,*,#132,.F.);
#109=ORIENTED_EDGE('',*,*,#134,.T.);
#110=ORIENTED_EDGE('',*,*,#133,.F.);
#111=ORIENTED_EDGE('',*,*,#135,.T.);
#112=ORIENTED_EDGE('',*,*,#134,.F.);
#113=ORIENTED_EDGE('',*,*,#136,.T.);
#114=ORIENTED_EDGE('',*,*,#135,.F.);
#115=ORIENTED_EDGE('',*,*,#128,.T.);
#116=ORIENTED_EDGE('',*,*,#136,.F.);
#117=VERTEX_POINT('',#259);
#118=VERTEX_POINT('',#261);
#119=VERTEX_POINT('',#264);
#120=VERTEX_POINT('',#268);
#121=VERTEX_POINT('',#271);
#122=VERTEX_POINT('',#274);
#123=VERTEX_POINT('',#277);
#124=VERTEX_POINT('',#280);
#125=VERTEX_POINT('',#283);
#126=VERTEX_POINT('',#286);
#127=EDGE_CURVE('',#117,#117,#137,.T.);
#128=EDGE_CURVE('',#118,#118,#138,.T.);
#129=EDGE_CURVE('',#119,#119,#139,.T.);
#130=EDGE_CURVE('',#120,#120,#140,.T.);
#131=EDGE_CURVE('',#121,#121,#141,.T.);
#132=EDGE_CURVE('',#122,#122,#142,.T.);
#133=EDGE_CURVE('',#123,#123,#143,.T.);
#134=EDGE_CURVE('',#124,#124,#144,.T.);
#135=EDGE_CURVE('',#125,#125,#145,.T.);
#136=EDGE_CURVE('',#126,#126,#146,.T.);
#137=CIRCLE('',#180,22.58675);
#138=CIRCLE('',#181,45.0002933376357);
#139=CIRCLE('',#183,19.7);
#140=CIRCLE('',#186,18.);
#141=CIRCLE('',#188,18.);
#142=CIRCLE('',#190,44.441);
#143=CIRCLE('',#192,44.441);
#144=CIRCLE('',#194,54.5);
#145=CIRCLE('',#196,55.);
#146=CIRCLE('',#198,55.);
#147=CURVE_STYLE('',#150,POSITIVE_LENGTH_MEASURE(0.18),#174);
#148=CURVE_STYLE('',#151,POSITIVE_LENGTH_MEASURE(0.18),#174);
#149=CURVE_STYLE('',#152,POSITIVE_LENGTH_MEASURE(0.18),#174);
#150=DRAUGHTING_PRE_DEFINED_CURVE_FONT('continuous');
#151=DRAUGHTING_PRE_DEFINED_CURVE_FONT('continuous');
#152=DRAUGHTING_PRE_DEFINED_CURVE_FONT('continuous');
#153=PRESENTATION_LAYER_ASSIGNMENT('1','Layer 1',(#252,#253,#254,#177,#178,
#179,#33));
#154=STYLED_ITEM('',(#161),#252);
#155=STYLED_ITEM('',(#162),#253);
#156=STYLED_ITEM('',(#163),#254);
#157=STYLED_ITEM('',(#164),#177);
#158=STYLED_ITEM('',(#165),#178);
#159=STYLED_ITEM('',(#166),#179);
#160=STYLED_ITEM('',(#167),#33);
#161=PRESENTATION_STYLE_ASSIGNMENT((#168));
#162=PRESENTATION_STYLE_ASSIGNMENT((#169));
#163=PRESENTATION_STYLE_ASSIGNMENT((#170));
#164=PRESENTATION_STYLE_ASSIGNMENT((#147));
#165=PRESENTATION_STYLE_ASSIGNMENT((#148));
#166=PRESENTATION_STYLE_ASSIGNMENT((#149));
#167=PRESENTATION_STYLE_ASSIGNMENT((#28));
#168=POINT_STYLE('',#171,POSITIVE_LENGTH_MEASURE(3.),#174);
#169=POINT_STYLE('',#172,POSITIVE_LENGTH_MEASURE(3.),#174);
#170=POINT_STYLE('',#173,POSITIVE_LENGTH_MEASURE(3.),#174);
#171=PRE_DEFINED_POINT_MARKER_SYMBOL('plus');
#172=PRE_DEFINED_POINT_MARKER_SYMBOL('plus');
#173=PRE_DEFINED_POINT_MARKER_SYMBOL('plus');
#174=COLOUR_RGB('Medium Maroon',0.6,0.4,0.4);
#175=COLOUR_RGB('Medium Gray',0.501960784313725,0.501960784313725,0.501960784313725);
#176=AXIS2_PLACEMENT_3D('',#251,#201,#202);
#177=AXIS2_PLACEMENT_3D('MCS',#255,#203,#204);
#178=AXIS2_PLACEMENT_3D('PCS',#256,#205,#206);
#179=AXIS2_PLACEMENT_3D('CSW',#257,#207,#208);
#180=AXIS2_PLACEMENT_3D('',#258,#209,#210);
#181=AXIS2_PLACEMENT_3D('',#260,#211,#212);
#182=AXIS2_PLACEMENT_3D('',#262,#213,#214);
#183=AXIS2_PLACEMENT_3D('',#263,#215,#216);
#184=AXIS2_PLACEMENT_3D('',#265,#217,#218);
#185=AXIS2_PLACEMENT_3D('',#266,#219,#220);
#186=AXIS2_PLACEMENT_3D('',#267,#221,#222);
#187=AXIS2_PLACEMENT_3D('',#269,#223,#224);
#188=AXIS2_PLACEMENT_3D('',#270,#225,#226);
#189=AXIS2_PLACEMENT_3D('',#272,#227,#228);
#190=AXIS2_PLACEMENT_3D('',#273,#229,#230);
#191=AXIS2_PLACEMENT_3D('',#275,#231,#232);
#192=AXIS2_PLACEMENT_3D('',#276,#233,#234);
#193=AXIS2_PLACEMENT_3D('',#278,#235,#236);
#194=AXIS2_PLACEMENT_3D('',#279,#237,#238);
#195=AXIS2_PLACEMENT_3D('',#281,#239,#240);
#196=AXIS2_PLACEMENT_3D('',#282,#241,#242);
#197=AXIS2_PLACEMENT_3D('',#284,#243,#244);
#198=AXIS2_PLACEMENT_3D('',#285,#245,#246);
#199=AXIS2_PLACEMENT_3D('',#287,#247,#248);
#200=AXIS2_PLACEMENT_3D('',#288,#249,#250);
#201=DIRECTION('',(0.,0.,1.));
#202=DIRECTION('',(1.,0.,0.));
#203=DIRECTION('',(0.,0.,1.));
#204=DIRECTION('',(1.,0.,0.));
#205=DIRECTION('',(0.,0.,1.));
#206=DIRECTION('',(1.,0.,0.));
#207=DIRECTION('',(0.,0.,1.));
#208=DIRECTION('',(1.,0.,0.));
#209=DIRECTION('',(0.,0.,1.));
#210=DIRECTION('',(1.,0.,0.));
#211=DIRECTION('',(0.,0.,1.));
#212=DIRECTION('',(1.,0.,0.));
#213=DIRECTION('',(0.,0.,-1.));
#214=DIRECTION('',(1.,0.,0.));
#215=DIRECTION('',(0.,0.,1.));
#216=DIRECTION('',(1.,0.,0.));
#217=DIRECTION('',(0.,0.,1.));
#218=DIRECTION('',(-1.,0.,0.));
#219=DIRECTION('',(0.,0.,-1.));
#220=DIRECTION('',(1.,0.,0.));
#221=DIRECTION('',(0.,0.,1.));
#222=DIRECTION('',(1.,0.,0.));
#223=DIRECTION('',(0.,0.,1.));
#224=DIRECTION('',(-1.,0.,0.));
#225=DIRECTION('',(0.,0.,1.));
#226=DIRECTION('',(1.,0.,0.));
#227=DIRECTION('',(0.,0.,1.));
#228=DIRECTION('',(-1.,0.,0.));
#229=DIRECTION('',(0.,0.,1.));
#230=DIRECTION('',(1.,0.,0.));
#231=DIRECTION('',(0.,0.,1.));
#232=DIRECTION('',(-1.,0.,0.));
#233=DIRECTION('',(0.,0.,1.));
#234=DIRECTION('',(1.,0.,0.));
#235=DIRECTION('',(0.,0.,1.));
#236=DIRECTION('',(-1.,0.,0.));
#237=DIRECTION('',(0.,0.,1.));
#238=DIRECTION('',(1.,0.,0.));
#239=DIRECTION('',(0.,0.,1.));
#240=DIRECTION('',(-1.,0.,0.));
#241=DIRECTION('',(0.,0.,1.));
#242=DIRECTION('',(1.,0.,0.));
#243=DIRECTION('',(0.,0.,-1.));
#244=DIRECTION('',(1.,0.,1.31605384616545E-017));
#245=DIRECTION('',(0.,0.,1.));
#246=DIRECTION('',(1.,0.,0.));
#247=DIRECTION('',(0.,0.,1.));
#248=DIRECTION('',(-1.,0.,0.));
#249=DIRECTION('',(0.,0.,1.));
#250=DIRECTION('',(-1.,0.,-7.68122663877368E-017));
#251=CARTESIAN_POINT('',(0.,0.,0.));
#252=CARTESIAN_POINT('MCS',(0.,0.,0.));
#253=CARTESIAN_POINT('PCS',(0.,0.,0.));
#254=CARTESIAN_POINT('CSW',(0.,0.,-70.));
#255=CARTESIAN_POINT('',(0.,0.,0.));
#256=CARTESIAN_POINT('',(0.,0.,0.));
#257=CARTESIAN_POINT('',(0.,0.,-70.));
#258=CARTESIAN_POINT('',(0.,0.,-65.0000023312506));
#259=CARTESIAN_POINT('',(22.58675,0.,-65.0000023312506));
#260=CARTESIAN_POINT('',(0.,0.,-65.));
#261=CARTESIAN_POINT('',(45.0002933376357,0.,-65.));
#262=CARTESIAN_POINT('',(0.,45.0002933376357,-65.0000011656253));
#263=CARTESIAN_POINT('',(0.,0.,-70.));
#264=CARTESIAN_POINT('',(19.7,0.,-70.));
#265=CARTESIAN_POINT('',(0.,0.,-65.0000023312506));
#266=CARTESIAN_POINT('',(0.,14.8997798824877,-70.));
#267=CARTESIAN_POINT('',(0.,0.,17.));
#268=CARTESIAN_POINT('',(18.,0.,17.));
#269=CARTESIAN_POINT('',(0.,0.,17.));
#270=CARTESIAN_POINT('',(0.,0.,0.));
#271=CARTESIAN_POINT('',(18.,0.,0.));
#272=CARTESIAN_POINT('',(0.,0.,-70.));
#273=CARTESIAN_POINT('',(0.,0.,0.));
#274=CARTESIAN_POINT('',(44.441,0.,0.));
#275=CARTESIAN_POINT('',(0.,37.3625,0.));
#276=CARTESIAN_POINT('',(0.,0.,9.99999999999999));
#277=CARTESIAN_POINT('',(44.441,0.,9.99999999999999));
#278=CARTESIAN_POINT('',(0.,0.,-70.));
#279=CARTESIAN_POINT('',(0.,0.,9.99999999999999));
#280=CARTESIAN_POINT('',(54.5,0.,9.99999999999999));
#281=CARTESIAN_POINT('',(0.,44.441,9.99999999999999));
#282=CARTESIAN_POINT('',(0.,0.,9.49999999999999));
#283=CARTESIAN_POINT('',(55.,0.,9.49999999999999));
#284=CARTESIAN_POINT('',(0.,0.,9.99999999999999));
#285=CARTESIAN_POINT('',(0.,0.,-47.68));
#286=CARTESIAN_POINT('',(55.,0.,-47.68));
#287=CARTESIAN_POINT('',(0.,0.,-70.));
#288=CARTESIAN_POINT('',(0.,0.,-47.68));
#289=MECHANICAL_DESIGN_GEOMETRIC_PRESENTATION_REPRESENTATION('',(#154,#155,
#156,#157,#158,#159,#160),#290);
#290=(
GEOMETRIC_REPRESENTATION_CONTEXT(3)
GLOBAL_UNCERTAINTY_ASSIGNED_CONTEXT((#291))
GLOBAL_UNIT_ASSIGNED_CONTEXT((#297,#293,#292))
REPRESENTATION_CONTEXT('1555307133706','TOP_LEVEL_ASSEMBLY_PART')
);
#291=UNCERTAINTY_MEASURE_WITH_UNIT(LENGTH_MEASURE(2.E-005),#297,
'DISTANCE_ACCURACY_VALUE','Maximum Tolerance applied to model');
#292=(
NAMED_UNIT(*)
SI_UNIT($,.STERADIAN.)
SOLID_ANGLE_UNIT()
);
#293=(
CONVERSION_BASED_UNIT('DEGREE',#295)
NAMED_UNIT(#294)
PLANE_ANGLE_UNIT()
);
#294=DIMENSIONAL_EXPONENTS(0.,0.,0.,0.,0.,0.,0.);
#295=PLANE_ANGLE_MEASURE_WITH_UNIT(PLANE_ANGLE_MEASURE(0.0174532925),#296);
#296=(
NAMED_UNIT(*)
PLANE_ANGLE_UNIT()
SI_UNIT($,.RADIAN.)
);
#297=(
LENGTH_UNIT()
NAMED_UNIT(*)
SI_UNIT(.MILLI.,.METRE.)
);
ENDSEC;
END-ISO-10303-21;
