ISO-10303-21;
HEADER;
/* Generated by software containing ST-Developer
 * from STEP Tools, Inc. (www.steptools.com) 
 */
/* OPTION: using custom schema-name function */

FILE_DESCRIPTION(
/* description */ (''),
/* implementation_level */ '2;1');

FILE_NAME(
/* name */ '1586150921114.stp',
/* time_stamp */ '2020-04-06T10:59:03+05:00',
/* author */ (''),
/* organization */ ('SMS'),
/* preprocessor_version */ 'ST-DEVELOPER v16.7',
/* originating_system */ 'SIEMENS PLM Software NX 12.0',
/* authorisation */ '');

FILE_SCHEMA (('AUTOMOTIVE_DESIGN { 1 0 10303 214 3 1 1 1 }'));
ENDSEC;

DATA;
#10=CONSTRUCTIVE_GEOMETRY_REPRESENTATION_RELATIONSHIP(
'supplemental geometry','',#26,#11);
#11=CONSTRUCTIVE_GEOMETRY_REPRESENTATION('supplemental geometry',(#369,
#370,#371),#630);
#12=GEOMETRICALLY_BOUNDED_WIREFRAME_SHAPE_REPRESENTATION(
'202233835mod000_00-None',(#27),#630);
#13=SHAPE_REPRESENTATION_RELATIONSHIP('None',
'relationship between 202233835mod000_00-None and 202233835mod000_00-N
one',#26,#15);
#14=SHAPE_REPRESENTATION_RELATIONSHIP('None',
'relationship between 202233835mod000_00-None and 202233835mod000_00-N
one',#26,#12);
#15=ADVANCED_BREP_SHAPE_REPRESENTATION('202233835mod000_00-None',(#33),
#630);
#16=SHAPE_DEFINITION_REPRESENTATION(#17,#26);
#17=PRODUCT_DEFINITION_SHAPE('','',#18);
#18=PRODUCT_DEFINITION(' ','',#20,#19);
#19=PRODUCT_DEFINITION_CONTEXT('part definition',#25,'design');
#20=PRODUCT_DEFINITION_FORMATION_WITH_SPECIFIED_SOURCE(' ',' ',#22,
 .NOT_KNOWN.);
#21=PRODUCT_RELATED_PRODUCT_CATEGORY('part','',(#22));
#22=PRODUCT('202233835mod000_00','202233835mod000_00',' ',(#23));
#23=PRODUCT_CONTEXT(' ',#25,'mechanical');
#24=APPLICATION_PROTOCOL_DEFINITION('international standard',
'automotive_design',2010,#25);
#25=APPLICATION_CONTEXT(
'core data for automotive mechanical design processes');
#26=SHAPE_REPRESENTATION('202233835mod000_00-None',(#368),#630);
#27=GEOMETRIC_CURVE_SET('None',(#500,#501,#502));
#28=SURFACE_STYLE_USAGE(.BOTH.,#29);
#29=SURFACE_SIDE_STYLE('',(#30));
#30=SURFACE_STYLE_FILL_AREA(#31);
#31=FILL_AREA_STYLE('',(#32));
#32=FILL_AREA_STYLE_COLOUR('',#367);
#33=MANIFOLD_SOLID_BREP('NOCUT',#34);
#34=CLOSED_SHELL('',(#99,#100,#101,#102,#103,#104,#105,#106,#107,#108,#109,
#110,#111,#112,#113,#114,#115,#116,#117));
#35=(
BOUNDED_CURVE()
B_SPLINE_CURVE(3,(#565,#566,#567,#568),.UNSPECIFIED.,.F.,.F.)
B_SPLINE_CURVE_WITH_KNOTS((4,4),(0.,1.),.UNSPECIFIED.)
CURVE()
GEOMETRIC_REPRESENTATION_ITEM()
RATIONAL_B_SPLINE_CURVE((1.,0.866666666666667,0.866666666666667,1.))
REPRESENTATION_ITEM('')
);
#36=(
BOUNDED_CURVE()
B_SPLINE_CURVE(3,(#573,#574,#575,#576),.UNSPECIFIED.,.F.,.F.)
B_SPLINE_CURVE_WITH_KNOTS((4,4),(0.,1.),.UNSPECIFIED.)
CURVE()
GEOMETRIC_REPRESENTATION_ITEM()
RATIONAL_B_SPLINE_CURVE((1.,0.866666666666666,0.866666666666666,1.))
REPRESENTATION_ITEM('')
);
#37=(
BOUNDED_CURVE()
B_SPLINE_CURVE(3,(#582,#583,#584,#585),.UNSPECIFIED.,.F.,.F.)
B_SPLINE_CURVE_WITH_KNOTS((4,4),(0.,1.),.UNSPECIFIED.)
CURVE()
GEOMETRIC_REPRESENTATION_ITEM()
RATIONAL_B_SPLINE_CURVE((1.,0.866666666666666,0.866666666666666,1.))
REPRESENTATION_ITEM('')
);
#38=(
BOUNDED_CURVE()
B_SPLINE_CURVE(3,(#589,#590,#591,#592),.UNSPECIFIED.,.F.,.F.)
B_SPLINE_CURVE_WITH_KNOTS((4,4),(0.,1.),.UNSPECIFIED.)
CURVE()
GEOMETRIC_REPRESENTATION_ITEM()
RATIONAL_B_SPLINE_CURVE((1.,0.866666666666667,0.866666666666667,1.))
REPRESENTATION_ITEM('')
);
#39=B_SPLINE_CURVE_WITH_KNOTS('',3,(#528,#529,#530,#531,#532,#533),
 .UNSPECIFIED.,.F.,.F.,(4,2,4),(0.,0.5,1.),.UNSPECIFIED.);
#40=B_SPLINE_CURVE_WITH_KNOTS('',3,(#537,#538,#539,#540,#541,#542),
 .UNSPECIFIED.,.F.,.F.,(4,2,4),(0.,0.5,1.),.UNSPECIFIED.);
#41=B_SPLINE_CURVE_WITH_KNOTS('',3,(#600,#601,#602,#603,#604,#605),
 .UNSPECIFIED.,.F.,.F.,(4,2,4),(0.,0.5,1.),.UNSPECIFIED.);
#42=B_SPLINE_CURVE_WITH_KNOTS('',3,(#607,#608,#609,#610,#611,#612),
 .UNSPECIFIED.,.F.,.F.,(4,2,4),(0.,0.5,1.),.UNSPECIFIED.);
#43=CYLINDRICAL_SURFACE('',#378,1.99999999999999);
#44=CYLINDRICAL_SURFACE('',#389,5.);
#45=CYLINDRICAL_SURFACE('',#391,9.5);
#46=FACE_BOUND('',#147,.T.);
#47=FACE_BOUND('',#148,.T.);
#48=FACE_BOUND('',#151,.T.);
#49=FACE_BOUND('',#152,.T.);
#50=FACE_BOUND('',#153,.T.);
#51=FACE_BOUND('',#154,.T.);
#52=FACE_BOUND('',#166,.T.);
#53=FACE_BOUND('',#167,.T.);
#54=CONICAL_SURFACE('',#376,5.,45.0000000000001);
#55=CONICAL_SURFACE('',#383,4.5,60.0000000000003);
#56=CONICAL_SURFACE('',#400,5.,59.9999999999997);
#57=CONICAL_SURFACE('',#402,4.5,60.0000000000003);
#58=CONICAL_SURFACE('',#404,5.,45.0000000000001);
#59=LINE('',#512,#79);
#60=LINE('',#516,#80);
#61=LINE('',#524,#81);
#62=LINE('',#546,#82);
#63=LINE('',#550,#83);
#64=LINE('',#552,#84);
#65=LINE('',#555,#85);
#66=LINE('',#558,#86);
#67=LINE('',#560,#87);
#68=LINE('',#564,#88);
#69=LINE('',#571,#89);
#70=LINE('',#578,#90);
#71=LINE('',#579,#91);
#72=LINE('',#587,#92);
#73=LINE('',#594,#93);
#74=LINE('',#598,#94);
#75=LINE('',#614,#95);
#76=LINE('',#615,#96);
#77=LINE('',#619,#97);
#78=LINE('',#620,#98);
#79=VECTOR('',#419,1.);
#80=VECTOR('',#422,1.);
#81=VECTOR('',#431,1.);
#82=VECTOR('',#438,1.);
#83=VECTOR('',#445,1.);
#84=VECTOR('',#446,1.);
#85=VECTOR('',#449,1.);
#86=VECTOR('',#452,1.);
#87=VECTOR('',#453,1.);
#88=VECTOR('',#456,1.);
#89=VECTOR('',#457,1.);
#90=VECTOR('',#458,1.);
#91=VECTOR('',#459,1.);
#92=VECTOR('',#460,1.);
#93=VECTOR('',#463,1.);
#94=VECTOR('',#466,1.);
#95=VECTOR('',#473,1.);
#96=VECTOR('',#474,1.);
#97=VECTOR('',#481,1.);
#98=VECTOR('',#482,1.);
#99=ADVANCED_FACE('',(#129),#118,.T.);
#100=ADVANCED_FACE('',(#130),#54,.T.);
#101=ADVANCED_FACE('',(#46,#47),#43,.F.);
#102=ADVANCED_FACE('',(#131),#55,.T.);
#103=ADVANCED_FACE('',(#132),#119,.F.);
#104=ADVANCED_FACE('',(#48,#49,#50,#51),#44,.T.);
#105=ADVANCED_FACE('',(#133),#45,.T.);
#106=ADVANCED_FACE('',(#134),#120,.F.);
#107=ADVANCED_FACE('',(#135),#121,.F.);
#108=ADVANCED_FACE('',(#136),#122,.F.);
#109=ADVANCED_FACE('',(#137),#123,.F.);
#110=ADVANCED_FACE('',(#138),#124,.F.);
#111=ADVANCED_FACE('',(#139),#125,.T.);
#112=ADVANCED_FACE('',(#140),#126,.T.);
#113=ADVANCED_FACE('',(#141),#127,.T.);
#114=ADVANCED_FACE('',(#142),#56,.T.);
#115=ADVANCED_FACE('',(#143),#57,.T.);
#116=ADVANCED_FACE('',(#52,#53),#128,.T.);
#117=ADVANCED_FACE('',(#144),#58,.T.);
#118=PLANE('',#373);
#119=PLANE('',#385);
#120=PLANE('',#392);
#121=PLANE('',#393);
#122=PLANE('',#394);
#123=PLANE('',#395);
#124=PLANE('',#396);
#125=PLANE('',#397);
#126=PLANE('',#398);
#127=PLANE('',#399);
#128=PLANE('',#403);
#129=FACE_OUTER_BOUND('',#145,.T.);
#130=FACE_OUTER_BOUND('',#146,.T.);
#131=FACE_OUTER_BOUND('',#149,.T.);
#132=FACE_OUTER_BOUND('',#150,.T.);
#133=FACE_OUTER_BOUND('',#155,.T.);
#134=FACE_OUTER_BOUND('',#156,.T.);
#135=FACE_OUTER_BOUND('',#157,.T.);
#136=FACE_OUTER_BOUND('',#158,.T.);
#137=FACE_OUTER_BOUND('',#159,.T.);
#138=FACE_OUTER_BOUND('',#160,.T.);
#139=FACE_OUTER_BOUND('',#161,.T.);
#140=FACE_OUTER_BOUND('',#162,.T.);
#141=FACE_OUTER_BOUND('',#163,.T.);
#142=FACE_OUTER_BOUND('',#164,.T.);
#143=FACE_OUTER_BOUND('',#165,.T.);
#144=FACE_OUTER_BOUND('',#168,.T.);
#145=EDGE_LOOP('',(#169));
#146=EDGE_LOOP('',(#170,#171,#172,#173));
#147=EDGE_LOOP('',(#174));
#148=EDGE_LOOP('',(#175));
#149=EDGE_LOOP('',(#176,#177,#178,#179,#180,#181,#182,#183));
#150=EDGE_LOOP('',(#184,#185));
#151=EDGE_LOOP('',(#186,#187,#188,#189,#190,#191));
#152=EDGE_LOOP('',(#192,#193,#194,#195,#196,#197,#198,#199,#200,#201));
#153=EDGE_LOOP('',(#202,#203,#204,#205));
#154=EDGE_LOOP('',(#206,#207,#208,#209));
#155=EDGE_LOOP('',(#210,#211,#212,#213));
#156=EDGE_LOOP('',(#214,#215,#216,#217));
#157=EDGE_LOOP('',(#218,#219,#220,#221));
#158=EDGE_LOOP('',(#222,#223,#224,#225));
#159=EDGE_LOOP('',(#226,#227));
#160=EDGE_LOOP('',(#228,#229));
#161=EDGE_LOOP('',(#230,#231,#232,#233));
#162=EDGE_LOOP('',(#234,#235));
#163=EDGE_LOOP('',(#236,#237));
#164=EDGE_LOOP('',(#238,#239,#240,#241));
#165=EDGE_LOOP('',(#242,#243,#244,#245));
#166=EDGE_LOOP('',(#246));
#167=EDGE_LOOP('',(#247,#248));
#168=EDGE_LOOP('',(#249,#250,#251,#252));
#169=ORIENTED_EDGE('',*,*,#283,.T.);
#170=ORIENTED_EDGE('',*,*,#284,.F.);
#171=ORIENTED_EDGE('',*,*,#285,.F.);
#172=ORIENTED_EDGE('',*,*,#286,.F.);
#173=ORIENTED_EDGE('',*,*,#287,.T.);
#174=ORIENTED_EDGE('',*,*,#288,.T.);
#175=ORIENTED_EDGE('',*,*,#283,.F.);
#176=ORIENTED_EDGE('',*,*,#289,.F.);
#177=ORIENTED_EDGE('',*,*,#290,.F.);
#178=ORIENTED_EDGE('',*,*,#291,.T.);
#179=ORIENTED_EDGE('',*,*,#292,.T.);
#180=ORIENTED_EDGE('',*,*,#293,.T.);
#181=ORIENTED_EDGE('',*,*,#294,.T.);
#182=ORIENTED_EDGE('',*,*,#295,.T.);
#183=ORIENTED_EDGE('',*,*,#296,.T.);
#184=ORIENTED_EDGE('',*,*,#297,.T.);
#185=ORIENTED_EDGE('',*,*,#284,.T.);
#186=ORIENTED_EDGE('',*,*,#298,.T.);
#187=ORIENTED_EDGE('',*,*,#298,.F.);
#188=ORIENTED_EDGE('',*,*,#286,.T.);
#189=ORIENTED_EDGE('',*,*,#299,.T.);
#190=ORIENTED_EDGE('',*,*,#299,.F.);
#191=ORIENTED_EDGE('',*,*,#300,.T.);
#192=ORIENTED_EDGE('',*,*,#301,.F.);
#193=ORIENTED_EDGE('',*,*,#301,.T.);
#194=ORIENTED_EDGE('',*,*,#302,.F.);
#195=ORIENTED_EDGE('',*,*,#303,.F.);
#196=ORIENTED_EDGE('',*,*,#303,.T.);
#197=ORIENTED_EDGE('',*,*,#295,.F.);
#198=ORIENTED_EDGE('',*,*,#304,.F.);
#199=ORIENTED_EDGE('',*,*,#305,.F.);
#200=ORIENTED_EDGE('',*,*,#306,.T.);
#201=ORIENTED_EDGE('',*,*,#291,.F.);
#202=ORIENTED_EDGE('',*,*,#307,.F.);
#203=ORIENTED_EDGE('',*,*,#308,.F.);
#204=ORIENTED_EDGE('',*,*,#309,.F.);
#205=ORIENTED_EDGE('',*,*,#310,.F.);
#206=ORIENTED_EDGE('',*,*,#311,.T.);
#207=ORIENTED_EDGE('',*,*,#312,.T.);
#208=ORIENTED_EDGE('',*,*,#313,.T.);
#209=ORIENTED_EDGE('',*,*,#314,.T.);
#210=ORIENTED_EDGE('',*,*,#293,.F.);
#211=ORIENTED_EDGE('',*,*,#315,.F.);
#212=ORIENTED_EDGE('',*,*,#316,.T.);
#213=ORIENTED_EDGE('',*,*,#317,.T.);
#214=ORIENTED_EDGE('',*,*,#292,.F.);
#215=ORIENTED_EDGE('',*,*,#306,.F.);
#216=ORIENTED_EDGE('',*,*,#318,.F.);
#217=ORIENTED_EDGE('',*,*,#315,.T.);
#218=ORIENTED_EDGE('',*,*,#294,.F.);
#219=ORIENTED_EDGE('',*,*,#317,.F.);
#220=ORIENTED_EDGE('',*,*,#319,.F.);
#221=ORIENTED_EDGE('',*,*,#304,.T.);
#222=ORIENTED_EDGE('',*,*,#320,.T.);
#223=ORIENTED_EDGE('',*,*,#311,.F.);
#224=ORIENTED_EDGE('',*,*,#321,.F.);
#225=ORIENTED_EDGE('',*,*,#313,.F.);
#226=ORIENTED_EDGE('',*,*,#320,.F.);
#227=ORIENTED_EDGE('',*,*,#312,.F.);
#228=ORIENTED_EDGE('',*,*,#321,.T.);
#229=ORIENTED_EDGE('',*,*,#314,.F.);
#230=ORIENTED_EDGE('',*,*,#308,.T.);
#231=ORIENTED_EDGE('',*,*,#322,.T.);
#232=ORIENTED_EDGE('',*,*,#310,.T.);
#233=ORIENTED_EDGE('',*,*,#323,.F.);
#234=ORIENTED_EDGE('',*,*,#307,.T.);
#235=ORIENTED_EDGE('',*,*,#322,.F.);
#236=ORIENTED_EDGE('',*,*,#309,.T.);
#237=ORIENTED_EDGE('',*,*,#323,.T.);
#238=ORIENTED_EDGE('',*,*,#316,.F.);
#239=ORIENTED_EDGE('',*,*,#318,.T.);
#240=ORIENTED_EDGE('',*,*,#305,.T.);
#241=ORIENTED_EDGE('',*,*,#319,.T.);
#242=ORIENTED_EDGE('',*,*,#290,.T.);
#243=ORIENTED_EDGE('',*,*,#324,.F.);
#244=ORIENTED_EDGE('',*,*,#296,.F.);
#245=ORIENTED_EDGE('',*,*,#302,.T.);
#246=ORIENTED_EDGE('',*,*,#288,.F.);
#247=ORIENTED_EDGE('',*,*,#324,.T.);
#248=ORIENTED_EDGE('',*,*,#289,.T.);
#249=ORIENTED_EDGE('',*,*,#285,.T.);
#250=ORIENTED_EDGE('',*,*,#297,.F.);
#251=ORIENTED_EDGE('',*,*,#287,.F.);
#252=ORIENTED_EDGE('',*,*,#300,.F.);
#253=VERTEX_POINT('',#507);
#254=VERTEX_POINT('',#510);
#255=VERTEX_POINT('',#511);
#256=VERTEX_POINT('',#513);
#257=VERTEX_POINT('',#515);
#258=VERTEX_POINT('',#519);
#259=VERTEX_POINT('',#522);
#260=VERTEX_POINT('',#523);
#261=VERTEX_POINT('',#525);
#262=VERTEX_POINT('',#527);
#263=VERTEX_POINT('',#534);
#264=VERTEX_POINT('',#536);
#265=VERTEX_POINT('',#543);
#266=VERTEX_POINT('',#545);
#267=VERTEX_POINT('',#551);
#268=VERTEX_POINT('',#553);
#269=VERTEX_POINT('',#556);
#270=VERTEX_POINT('',#559);
#271=VERTEX_POINT('',#561);
#272=VERTEX_POINT('',#563);
#273=VERTEX_POINT('',#569);
#274=VERTEX_POINT('',#570);
#275=VERTEX_POINT('',#572);
#276=VERTEX_POINT('',#577);
#277=VERTEX_POINT('',#580);
#278=VERTEX_POINT('',#581);
#279=VERTEX_POINT('',#586);
#280=VERTEX_POINT('',#588);
#281=VERTEX_POINT('',#595);
#282=VERTEX_POINT('',#597);
#283=EDGE_CURVE('',#253,#253,#325,.T.);
#284=EDGE_CURVE('',#254,#255,#326,.T.);
#285=EDGE_CURVE('',#256,#254,#59,.T.);
#286=EDGE_CURVE('',#257,#256,#327,.T.);
#287=EDGE_CURVE('',#257,#255,#60,.T.);
#288=EDGE_CURVE('',#258,#258,#328,.T.);
#289=EDGE_CURVE('',#259,#260,#329,.T.);
#290=EDGE_CURVE('',#261,#259,#61,.T.);
#291=EDGE_CURVE('',#261,#262,#330,.T.);
#292=EDGE_CURVE('',#262,#263,#39,.T.);
#293=EDGE_CURVE('',#263,#264,#331,.T.);
#294=EDGE_CURVE('',#264,#265,#40,.T.);
#295=EDGE_CURVE('',#265,#266,#332,.T.);
#296=EDGE_CURVE('',#266,#260,#62,.T.);
#297=EDGE_CURVE('',#255,#254,#333,.T.);
#298=EDGE_CURVE('',#257,#267,#63,.T.);
#299=EDGE_CURVE('',#256,#268,#64,.T.);
#300=EDGE_CURVE('',#256,#257,#334,.T.);
#301=EDGE_CURVE('',#269,#261,#65,.T.);
#302=EDGE_CURVE('',#266,#261,#335,.T.);
#303=EDGE_CURVE('',#270,#266,#66,.T.);
#304=EDGE_CURVE('',#271,#265,#67,.T.);
#305=EDGE_CURVE('',#272,#271,#336,.T.);
#306=EDGE_CURVE('',#272,#262,#68,.T.);
#307=EDGE_CURVE('',#273,#274,#35,.T.);
#308=EDGE_CURVE('',#275,#273,#69,.T.);
#309=EDGE_CURVE('',#276,#275,#36,.T.);
#310=EDGE_CURVE('',#274,#276,#70,.T.);
#311=EDGE_CURVE('',#277,#278,#71,.T.);
#312=EDGE_CURVE('',#278,#279,#37,.T.);
#313=EDGE_CURVE('',#279,#280,#72,.T.);
#314=EDGE_CURVE('',#280,#277,#38,.T.);
#315=EDGE_CURVE('',#281,#263,#73,.T.);
#316=EDGE_CURVE('',#281,#282,#337,.T.);
#317=EDGE_CURVE('',#282,#264,#74,.T.);
#318=EDGE_CURVE('',#281,#272,#41,.T.);
#319=EDGE_CURVE('',#271,#282,#42,.T.);
#320=EDGE_CURVE('',#279,#278,#75,.T.);
#321=EDGE_CURVE('',#280,#277,#76,.T.);
#322=EDGE_CURVE('',#273,#274,#77,.T.);
#323=EDGE_CURVE('',#275,#276,#78,.T.);
#324=EDGE_CURVE('',#260,#259,#338,.T.);
#325=CIRCLE('',#372,1.99999999999999);
#326=CIRCLE('',#374,4.);
#327=CIRCLE('',#375,5.);
#328=CIRCLE('',#377,1.99999999999999);
#329=CIRCLE('',#379,4.5);
#330=CIRCLE('',#380,5.);
#331=CIRCLE('',#381,9.5);
#332=CIRCLE('',#382,5.);
#333=CIRCLE('',#384,4.);
#334=CIRCLE('',#386,5.);
#335=CIRCLE('',#387,5.);
#336=CIRCLE('',#388,5.);
#337=CIRCLE('',#390,9.5);
#338=CIRCLE('',#401,4.5);
#339=CURVE_STYLE('',#342,POSITIVE_LENGTH_MEASURE(0.18),#366);
#340=CURVE_STYLE('',#343,POSITIVE_LENGTH_MEASURE(0.18),#366);
#341=CURVE_STYLE('',#344,POSITIVE_LENGTH_MEASURE(0.18),#366);
#342=DRAUGHTING_PRE_DEFINED_CURVE_FONT('continuous');
#343=DRAUGHTING_PRE_DEFINED_CURVE_FONT('continuous');
#344=DRAUGHTING_PRE_DEFINED_CURVE_FONT('continuous');
#345=PRESENTATION_LAYER_ASSIGNMENT('1','Layer 1',(#500,#501,#502,#369,#370,
#371,#33));
#346=STYLED_ITEM('',(#353),#500);
#347=STYLED_ITEM('',(#354),#501);
#348=STYLED_ITEM('',(#355),#502);
#349=STYLED_ITEM('',(#356),#369);
#350=STYLED_ITEM('',(#357),#370);
#351=STYLED_ITEM('',(#358),#371);
#352=STYLED_ITEM('',(#359),#33);
#353=PRESENTATION_STYLE_ASSIGNMENT((#360));
#354=PRESENTATION_STYLE_ASSIGNMENT((#361));
#355=PRESENTATION_STYLE_ASSIGNMENT((#362));
#356=PRESENTATION_STYLE_ASSIGNMENT((#339));
#357=PRESENTATION_STYLE_ASSIGNMENT((#340));
#358=PRESENTATION_STYLE_ASSIGNMENT((#341));
#359=PRESENTATION_STYLE_ASSIGNMENT((#28));
#360=POINT_STYLE('',#363,POSITIVE_LENGTH_MEASURE(3.),#366);
#361=POINT_STYLE('',#364,POSITIVE_LENGTH_MEASURE(3.),#366);
#362=POINT_STYLE('',#365,POSITIVE_LENGTH_MEASURE(3.),#366);
#363=PRE_DEFINED_POINT_MARKER_SYMBOL('plus');
#364=PRE_DEFINED_POINT_MARKER_SYMBOL('plus');
#365=PRE_DEFINED_POINT_MARKER_SYMBOL('plus');
#366=COLOUR_RGB('Medium Maroon',0.6,0.4,0.4);
#367=COLOUR_RGB('Medium Gray',0.501960784313725,0.501960784313725,0.501960784313725);
#368=AXIS2_PLACEMENT_3D('',#499,#405,#406);
#369=AXIS2_PLACEMENT_3D('PCS',#503,#407,#408);
#370=AXIS2_PLACEMENT_3D('MCS',#504,#409,#410);
#371=AXIS2_PLACEMENT_3D('CSW',#505,#411,#412);
#372=AXIS2_PLACEMENT_3D('',#506,#413,#414);
#373=AXIS2_PLACEMENT_3D('',#508,#415,#416);
#374=AXIS2_PLACEMENT_3D('',#509,#417,#418);
#375=AXIS2_PLACEMENT_3D('',#514,#420,#421);
#376=AXIS2_PLACEMENT_3D('',#517,#423,#424);
#377=AXIS2_PLACEMENT_3D('',#518,#425,#426);
#378=AXIS2_PLACEMENT_3D('',#520,#427,#428);
#379=AXIS2_PLACEMENT_3D('',#521,#429,#430);
#380=AXIS2_PLACEMENT_3D('',#526,#432,#433);
#381=AXIS2_PLACEMENT_3D('',#535,#434,#435);
#382=AXIS2_PLACEMENT_3D('',#544,#436,#437);
#383=AXIS2_PLACEMENT_3D('',#547,#439,#440);
#384=AXIS2_PLACEMENT_3D('',#548,#441,#442);
#385=AXIS2_PLACEMENT_3D('',#549,#443,#444);
#386=AXIS2_PLACEMENT_3D('',#554,#447,#448);
#387=AXIS2_PLACEMENT_3D('',#557,#450,#451);
#388=AXIS2_PLACEMENT_3D('',#562,#454,#455);
#389=AXIS2_PLACEMENT_3D('',#593,#461,#462);
#390=AXIS2_PLACEMENT_3D('',#596,#464,#465);
#391=AXIS2_PLACEMENT_3D('',#599,#467,#468);
#392=AXIS2_PLACEMENT_3D('',#606,#469,#470);
#393=AXIS2_PLACEMENT_3D('',#613,#471,#472);
#394=AXIS2_PLACEMENT_3D('',#616,#475,#476);
#395=AXIS2_PLACEMENT_3D('',#617,#477,#478);
#396=AXIS2_PLACEMENT_3D('',#618,#479,#480);
#397=AXIS2_PLACEMENT_3D('',#621,#483,#484);
#398=AXIS2_PLACEMENT_3D('',#622,#485,#486);
#399=AXIS2_PLACEMENT_3D('',#623,#487,#488);
#400=AXIS2_PLACEMENT_3D('',#624,#489,#490);
#401=AXIS2_PLACEMENT_3D('',#625,#491,#492);
#402=AXIS2_PLACEMENT_3D('',#626,#493,#494);
#403=AXIS2_PLACEMENT_3D('',#627,#495,#496);
#404=AXIS2_PLACEMENT_3D('',#628,#497,#498);
#405=DIRECTION('',(0.,0.,1.));
#406=DIRECTION('',(1.,0.,0.));
#407=DIRECTION('',(0.,0.,1.));
#408=DIRECTION('',(1.,0.,0.));
#409=DIRECTION('',(0.,0.,1.));
#410=DIRECTION('',(1.,0.,0.));
#411=DIRECTION('',(0.,0.,1.));
#412=DIRECTION('',(1.,0.,0.));
#413=DIRECTION('',(0.,0.,-1.));
#414=DIRECTION('',(-1.,0.,0.));
#415=DIRECTION('',(0.,0.,-1.));
#416=DIRECTION('',(-1.,0.,0.));
#417=DIRECTION('',(0.,0.,1.));
#418=DIRECTION('',(-1.,0.,0.));
#419=DIRECTION('',(-0.707106781186549,-8.65956056235495E-17,0.707106781186546));
#420=DIRECTION('',(0.,0.,-1.));
#421=DIRECTION('',(-1.,0.,0.));
#422=DIRECTION('',(0.707106781186549,0.,0.707106781186546));
#423=DIRECTION('',(0.,0.,-1.));
#424=DIRECTION('',(1.,0.,1.1046995269902E-16));
#425=DIRECTION('',(0.,0.,-1.));
#426=DIRECTION('',(-1.,0.,0.));
#427=DIRECTION('',(0.,0.,-1.));
#428=DIRECTION('',(1.,0.,0.));
#429=DIRECTION('',(0.,0.,-1.));
#430=DIRECTION('',(-1.,0.,0.));
#431=DIRECTION('',(0.866025403784441,-1.06057523872491E-16,-0.499999999999995));
#432=DIRECTION('',(0.,0.,-1.));
#433=DIRECTION('',(1.,0.,0.));
#434=DIRECTION('',(0.,0.,-1.));
#435=DIRECTION('',(1.,0.,0.));
#436=DIRECTION('',(0.,0.,-1.));
#437=DIRECTION('',(1.,1.77635683940025E-15,0.));
#438=DIRECTION('',(-0.866025403784441,0.,-0.499999999999995));
#439=DIRECTION('',(0.,0.,1.));
#440=DIRECTION('',(-1.,0.,3.19663271522537E-17));
#441=DIRECTION('',(0.,0.,1.));
#442=DIRECTION('',(-1.,0.,0.));
#443=DIRECTION('',(0.,0.,-1.));
#444=DIRECTION('',(1.,0.,0.));
#445=DIRECTION('',(0.,0.,-1.));
#446=DIRECTION('',(0.,0.,-1.));
#447=DIRECTION('',(0.,0.,-1.));
#448=DIRECTION('',(-1.,0.,0.));
#449=DIRECTION('',(0.,0.,-1.));
#450=DIRECTION('',(0.,0.,-1.));
#451=DIRECTION('',(1.,0.,0.));
#452=DIRECTION('',(0.,0.,-1.));
#453=DIRECTION('',(0.,0.,-1.));
#454=DIRECTION('',(0.,0.,-1.));
#455=DIRECTION('',(-1.,0.,0.));
#456=DIRECTION('',(0.,0.,-1.));
#457=DIRECTION('',(0.,0.,1.));
#458=DIRECTION('',(0.,0.,-1.));
#459=DIRECTION('',(0.,0.,-1.));
#460=DIRECTION('',(0.,0.,1.));
#461=DIRECTION('',(0.,0.,1.));
#462=DIRECTION('',(-1.,0.,0.));
#463=DIRECTION('',(0.,0.,-1.));
#464=DIRECTION('',(0.,0.,-1.));
#465=DIRECTION('',(-1.,0.,0.));
#466=DIRECTION('',(0.,0.,-1.));
#467=DIRECTION('',(0.,0.,-1.));
#468=DIRECTION('',(1.,0.,0.));
#469=DIRECTION('',(0.965925826289068,-0.258819045102522,0.));
#470=DIRECTION('',(0.258819045102522,0.965925826289068,0.));
#471=DIRECTION('',(-0.965925826289068,-0.258819045102521,0.));
#472=DIRECTION('',(0.258819045102521,-0.965925826289068,0.));
#473=DIRECTION('',(-1.,0.,0.));
#474=DIRECTION('',(-1.,0.,0.));
#475=DIRECTION('',(0.,-1.,1.15648231731787E-16));
#476=DIRECTION('',(0.,-1.15359111152458E-16,-1.));
#477=DIRECTION('',(0.,-0.499999999999999,-0.866025403784439));
#478=DIRECTION('',(0.,0.866025403784439,-0.499999999999999));
#479=DIRECTION('',(0.,-0.499999999999998,0.86602540378444));
#480=DIRECTION('',(0.,-0.86602540378444,-0.499999999999998));
#481=DIRECTION('',(-1.,0.,0.));
#482=DIRECTION('',(-1.,0.,0.));
#483=DIRECTION('',(0.,-1.,-1.15648231731787E-16));
#484=DIRECTION('',(0.,1.15359111152458E-16,-1.));
#485=DIRECTION('',(0.,-0.499999999999998,-0.86602540378444));
#486=DIRECTION('',(0.,0.86602540378444,-0.499999999999998));
#487=DIRECTION('',(0.,-0.499999999999999,0.866025403784439));
#488=DIRECTION('',(0.,-0.866025403784439,-0.499999999999999));
#489=DIRECTION('',(0.,0.,-1.));
#490=DIRECTION('',(1.,0.,5.1930329474383E-17));
#491=DIRECTION('',(0.,0.,-1.));
#492=DIRECTION('',(-1.,0.,0.));
#493=DIRECTION('',(0.,0.,1.));
#494=DIRECTION('',(-1.,0.,3.19663271522537E-17));
#495=DIRECTION('',(0.,0.,-1.));
#496=DIRECTION('',(1.,0.,0.));
#497=DIRECTION('',(0.,0.,-1.));
#498=DIRECTION('',(1.,0.,1.1046995269902E-16));
#499=CARTESIAN_POINT('',(0.,0.,0.));
#500=CARTESIAN_POINT('PCS',(0.,0.,0.));
#501=CARTESIAN_POINT('MCS',(0.,0.,-51.));
#502=CARTESIAN_POINT('CSW',(0.,0.,-65.));
#503=CARTESIAN_POINT('',(0.,0.,0.));
#504=CARTESIAN_POINT('',(0.,0.,-51.));
#505=CARTESIAN_POINT('',(0.,0.,-65.));
#506=CARTESIAN_POINT('',(0.,0.,-45.));
#507=CARTESIAN_POINT('',(-1.99999999999999,0.,-45.));
#508=CARTESIAN_POINT('',(0.,0.,-45.));
#509=CARTESIAN_POINT('',(0.,0.,0.));
#510=CARTESIAN_POINT('',(4.,5.51091059616309E-16,0.));
#511=CARTESIAN_POINT('',(-4.,0.,0.));
#512=CARTESIAN_POINT('',(5.,6.12323399573677E-16,-1.));
#513=CARTESIAN_POINT('',(5.,0.,-1.));
#514=CARTESIAN_POINT('',(0.,0.,-1.));
#515=CARTESIAN_POINT('',(-5.,6.12323399573677E-16,-1.));
#516=CARTESIAN_POINT('',(-5.,0.,-1.));
#517=CARTESIAN_POINT('',(0.,0.,-1.));
#518=CARTESIAN_POINT('',(0.,0.,-65.));
#519=CARTESIAN_POINT('',(-1.99999999999999,0.,-65.));
#520=CARTESIAN_POINT('',(0.,0.,-65.));
#521=CARTESIAN_POINT('',(0.,0.,-65.));
#522=CARTESIAN_POINT('',(-4.5,8.57252759403147E-16,-65.));
#523=CARTESIAN_POINT('',(4.5,0.,-65.));
#524=CARTESIAN_POINT('',(-4.5,5.51091059616309E-16,-65.));
#525=CARTESIAN_POINT('',(-5.,6.12323399573677E-16,-64.7113248654052));
#526=CARTESIAN_POINT('',(0.,0.,-64.7113248654052));
#527=CARTESIAN_POINT('',(-4.82962913144534,1.29409522551261,-64.7113248654052));
#528=CARTESIAN_POINT('',(-4.82962913144534,1.29409522551261,-64.7113248654052));
#529=CARTESIAN_POINT('',(-4.45683296288267,2.68538946745551,-64.7113248654052));
#530=CARTESIAN_POINT('',(-4.09870298086,4.02194875607784,-64.3363755140596));
#531=CARTESIAN_POINT('',(-3.40539717354063,6.60940125417628,-63.3467410782209));
#532=CARTESIAN_POINT('',(-3.07078242583792,7.85820049356464,-62.7426431975705));
#533=CARTESIAN_POINT('',(-2.73895431179196,9.09659987456391,-62.1132486540519));
#534=CARTESIAN_POINT('',(-2.73895431179196,9.09659987456391,-62.1132486540519));
#535=CARTESIAN_POINT('',(0.,0.,-62.1132486540519));
#536=CARTESIAN_POINT('',(2.73895431179196,9.09659987456391,-62.1132486540519));
#537=CARTESIAN_POINT('',(2.73895431179196,9.09659987456391,-62.1132486540519));
#538=CARTESIAN_POINT('',(3.07018070612161,7.86044614211782,-62.7415018864816));
#539=CARTESIAN_POINT('',(3.40404787939145,6.61443688849537,-63.3440216454475));
#540=CARTESIAN_POINT('',(4.09418864410825,4.03879649019783,-64.3307184013986));
#541=CARTESIAN_POINT('',(4.45709386177714,2.68441577952571,-64.7113248654052));
#542=CARTESIAN_POINT('',(4.82962913144534,1.29409522551261,-64.7113248654052));
#543=CARTESIAN_POINT('',(4.82962913144534,1.29409522551261,-64.7113248654052));
#544=CARTESIAN_POINT('',(0.,0.,-64.7113248654052));
#545=CARTESIAN_POINT('',(5.,0.,-64.7113248654052));
#546=CARTESIAN_POINT('',(4.5,0.,-65.));
#547=CARTESIAN_POINT('',(0.,0.,-65.));
#548=CARTESIAN_POINT('',(0.,0.,0.));
#549=CARTESIAN_POINT('',(0.,0.,0.));
#550=CARTESIAN_POINT('',(-5.,6.12323399573677E-16,-65.));
#551=CARTESIAN_POINT('',(-5.,1.80122105978151E-15,-49.7569482785752));
#552=CARTESIAN_POINT('',(5.,0.,-65.));
#553=CARTESIAN_POINT('',(5.,1.1688902824981E-13,-49.7569482785754));
#554=CARTESIAN_POINT('',(0.,0.,-1.));
#555=CARTESIAN_POINT('',(-5.,6.12323399573677E-16,-65.));
#556=CARTESIAN_POINT('',(-5.,1.80759651009296E-15,-50.7430517214248));
#557=CARTESIAN_POINT('',(0.,0.,-64.7113248654052));
#558=CARTESIAN_POINT('',(5.,0.,-65.));
#559=CARTESIAN_POINT('',(5.,3.26712180531406E-15,-50.7430517214248));
#560=CARTESIAN_POINT('',(4.82962913144534,1.29409522551261,0.));
#561=CARTESIAN_POINT('',(4.82962913144534,1.29409522551261,-51.));
#562=CARTESIAN_POINT('',(0.,0.,-51.));
#563=CARTESIAN_POINT('',(-4.82962913144534,1.29409522551261,-51.));
#564=CARTESIAN_POINT('',(-4.82962913144534,1.29409522551261,0.));
#565=CARTESIAN_POINT('',(3.,-4.,-5.));
#566=CARTESIAN_POINT('',(1.15384615384616,-5.38461538461538,-4.20059193496822));
#567=CARTESIAN_POINT('',(-1.15384615384615,-5.38461538461538,-4.20059193496822));
#568=CARTESIAN_POINT('',(-3.,-4.,-5.));
#569=CARTESIAN_POINT('',(3.,-4.,-5.));
#570=CARTESIAN_POINT('',(-3.,-4.,-5.));
#571=CARTESIAN_POINT('',(3.00000000000001,-3.99999999999999,-65.));
#572=CARTESIAN_POINT('',(3.00000000000001,-3.99999999999999,-50.));
#573=CARTESIAN_POINT('',(-3.00000000000001,-3.99999999999999,-50.));
#574=CARTESIAN_POINT('',(-1.15384615384616,-5.38461538461539,-50.7994080650318));
#575=CARTESIAN_POINT('',(1.15384615384616,-5.38461538461539,-50.7994080650318));
#576=CARTESIAN_POINT('',(3.00000000000001,-3.99999999999999,-50.));
#577=CARTESIAN_POINT('',(-3.00000000000001,-3.99999999999999,-50.));
#578=CARTESIAN_POINT('',(-3.00000000000001,-3.99999999999999,-65.));
#579=CARTESIAN_POINT('',(-3.00000000000001,3.99999999999999,-65.));
#580=CARTESIAN_POINT('',(-3.,4.,-5.));
#581=CARTESIAN_POINT('',(-3.00000000000001,3.99999999999999,-50.));
#582=CARTESIAN_POINT('',(-3.00000000000001,3.99999999999999,-50.));
#583=CARTESIAN_POINT('',(-1.15384615384616,5.38461538461539,-50.7994080650318));
#584=CARTESIAN_POINT('',(1.15384615384616,5.38461538461539,-50.7994080650318));
#585=CARTESIAN_POINT('',(3.00000000000001,3.99999999999999,-50.));
#586=CARTESIAN_POINT('',(3.00000000000001,3.99999999999999,-50.));
#587=CARTESIAN_POINT('',(3.00000000000001,3.99999999999999,-65.));
#588=CARTESIAN_POINT('',(3.,4.,-5.));
#589=CARTESIAN_POINT('',(3.,4.,-5.));
#590=CARTESIAN_POINT('',(1.15384615384616,5.38461538461538,-4.20059193496822));
#591=CARTESIAN_POINT('',(-1.15384615384615,5.38461538461538,-4.20059193496822));
#592=CARTESIAN_POINT('',(-3.,4.,-5.));
#593=CARTESIAN_POINT('',(0.,0.,-65.));
#594=CARTESIAN_POINT('',(-2.73895431179196,9.09659987456392,0.));
#595=CARTESIAN_POINT('',(-2.73895431179196,9.09659987456392,-53.5980762113534));
#596=CARTESIAN_POINT('',(0.,0.,-53.5980762113534));
#597=CARTESIAN_POINT('',(2.73895431179196,9.09659987456391,-53.5980762113534));
#598=CARTESIAN_POINT('',(2.73895431179196,9.09659987456392,0.));
#599=CARTESIAN_POINT('',(0.,0.,-65.));
#600=CARTESIAN_POINT('',(-2.73895431179196,9.09659987456392,-53.5980762113534));
#601=CARTESIAN_POINT('',(-3.07018070612161,7.86044614211782,-52.9698229789237));
#602=CARTESIAN_POINT('',(-3.40404787939145,6.61443688849538,-52.3673032199578));
#603=CARTESIAN_POINT('',(-4.09418864410825,4.03879649019784,-51.3806064640066));
#604=CARTESIAN_POINT('',(-4.45709386177714,2.68441577952571,-51.));
#605=CARTESIAN_POINT('',(-4.82962913144534,1.29409522551261,-51.));
#606=CARTESIAN_POINT('',(-4.82962913144534,1.29409522551261,0.));
#607=CARTESIAN_POINT('',(4.82962913144534,1.29409522551261,-51.));
#608=CARTESIAN_POINT('',(4.45683296288267,2.68538946745552,-51.));
#609=CARTESIAN_POINT('',(4.09870298086,4.02194875607785,-51.3749493513457));
#610=CARTESIAN_POINT('',(3.40539717354063,6.60940125417628,-52.3645837871844));
#611=CARTESIAN_POINT('',(3.07078242583791,7.85820049356464,-52.9686816678348));
#612=CARTESIAN_POINT('',(2.73895431179196,9.09659987456391,-53.5980762113534));
#613=CARTESIAN_POINT('',(4.82962913144534,1.29409522551261,0.));
#614=CARTESIAN_POINT('',(5.,3.99999999999999,-50.));
#615=CARTESIAN_POINT('',(5.,4.,-5.));
#616=CARTESIAN_POINT('',(5.,4.,-5.));
#617=CARTESIAN_POINT('',(5.,3.99999999999999,-50.));
#618=CARTESIAN_POINT('',(5.,8.36802632,-2.47811882832065));
#619=CARTESIAN_POINT('',(5.,-4.,-5.));
#620=CARTESIAN_POINT('',(5.,-3.99999999999999,-50.));
#621=CARTESIAN_POINT('',(5.,-4.,-5.));
#622=CARTESIAN_POINT('',(5.,-8.36802632,-2.47811882832065));
#623=CARTESIAN_POINT('',(5.,-3.99999999999999,-50.));
#624=CARTESIAN_POINT('',(0.,0.,-51.));
#625=CARTESIAN_POINT('',(0.,0.,-65.));
#626=CARTESIAN_POINT('',(0.,0.,-65.));
#627=CARTESIAN_POINT('',(0.,0.,-65.));
#628=CARTESIAN_POINT('',(0.,0.,-1.));
#629=MECHANICAL_DESIGN_GEOMETRIC_PRESENTATION_REPRESENTATION('',(#346,#347,
#348,#349,#350,#351,#352),#630);
#630=(
GEOMETRIC_REPRESENTATION_CONTEXT(3)
GLOBAL_UNCERTAINTY_ASSIGNED_CONTEXT((#631))
GLOBAL_UNIT_ASSIGNED_CONTEXT((#637,#633,#632))
REPRESENTATION_CONTEXT('1586150921114','TOP_LEVEL_ASSEMBLY_PART')
);
#631=UNCERTAINTY_MEASURE_WITH_UNIT(LENGTH_MEASURE(0.0508),#637,
'DISTANCE_ACCURACY_VALUE','Maximum Tolerance applied to model');
#632=(
NAMED_UNIT(*)
SI_UNIT($,.STERADIAN.)
SOLID_ANGLE_UNIT()
);
#633=(
CONVERSION_BASED_UNIT('DEGREE',#635)
NAMED_UNIT(#634)
PLANE_ANGLE_UNIT()
);
#634=DIMENSIONAL_EXPONENTS(0.,0.,0.,0.,0.,0.,0.);
#635=PLANE_ANGLE_MEASURE_WITH_UNIT(PLANE_ANGLE_MEASURE(0.0174532925),#636);
#636=(
NAMED_UNIT(*)
PLANE_ANGLE_UNIT()
SI_UNIT($,.RADIAN.)
);
#637=(
LENGTH_UNIT()
NAMED_UNIT(*)
SI_UNIT(.MILLI.,.METRE.)
);
ENDSEC;
END-ISO-10303-21;
