ISO-10303-21;
HEADER;
/* Generated by software containing ST-Developer
 * from STEP Tools, Inc. (www.steptools.com) 
 */
/* OPTION: using custom schema-name function */

FILE_DESCRIPTION(
/* description */ (''),
/* implementation_level */ '2;1');

FILE_NAME(
/* name */ '1670841363163.stp',
/* time_stamp */ '2022-12-12T11:36:10+01:00',
/* author */ (''),
/* organization */ ('SMS'),
/* preprocessor_version */ 'ST-DEVELOPER v16.7',
/* originating_system */ 'SIEMENS PLM Software NX 12.0',
/* authorisation */ '');

FILE_SCHEMA (('AUTOMOTIVE_DESIGN { 1 0 10303 214 3 1 1 1 }'));
ENDSEC;

DATA;
#10=CONSTRUCTIVE_GEOMETRY_REPRESENTATION_RELATIONSHIP(
'supplemental geometry','',#26,#11);
#11=CONSTRUCTIVE_GEOMETRY_REPRESENTATION('supplemental geometry',(#276,
#277,#278),#448);
#12=GEOMETRICALLY_BOUNDED_WIREFRAME_SHAPE_REPRESENTATION(
'202191262mod000_03-None',(#27),#448);
#13=SHAPE_REPRESENTATION_RELATIONSHIP('None',
'relationship between 202191262mod000_03-None and 202191262mod000_03-N
one',#26,#15);
#14=SHAPE_REPRESENTATION_RELATIONSHIP('None',
'relationship between 202191262mod000_03-None and 202191262mod000_03-N
one',#26,#12);
#15=ADVANCED_BREP_SHAPE_REPRESENTATION('202191262mod000_03-None',(#39,#40),
#448);
#16=SHAPE_DEFINITION_REPRESENTATION(#17,#26);
#17=PRODUCT_DEFINITION_SHAPE('','',#18);
#18=PRODUCT_DEFINITION(' ','',#20,#19);
#19=PRODUCT_DEFINITION_CONTEXT('part definition',#25,'design');
#20=PRODUCT_DEFINITION_FORMATION_WITH_SPECIFIED_SOURCE(' ',' ',#22,
 .NOT_KNOWN.);
#21=PRODUCT_RELATED_PRODUCT_CATEGORY('part','',(#22));
#22=PRODUCT('202191262mod000_03','202191262mod000_03','MASTER_INSERT',(#23));
#23=PRODUCT_CONTEXT(' ',#25,'mechanical');
#24=APPLICATION_PROTOCOL_DEFINITION('international standard',
'automotive_design',2010,#25);
#25=APPLICATION_CONTEXT(
'core data for automotive mechanical design processes');
#26=SHAPE_REPRESENTATION('202191262mod000_03-None',(#275),#448);
#27=GEOMETRIC_CURVE_SET('None',(#382,#383,#384,#385,#222,#223,#224,#225,
#204));
#28=VERTEX_LOOP('',#174);
#29=SURFACE_STYLE_USAGE(.BOTH.,#31);
#30=SURFACE_STYLE_USAGE(.BOTH.,#32);
#31=SURFACE_SIDE_STYLE('',(#33));
#32=SURFACE_SIDE_STYLE('',(#34));
#33=SURFACE_STYLE_FILL_AREA(#35);
#34=SURFACE_STYLE_FILL_AREA(#36);
#35=FILL_AREA_STYLE('',(#37));
#36=FILL_AREA_STYLE('',(#38));
#37=FILL_AREA_STYLE_COLOUR('',#273);
#38=FILL_AREA_STYLE_COLOUR('',#274);
#39=MANIFOLD_SOLID_BREP('NOCUT',#41);
#40=MANIFOLD_SOLID_BREP('CUT',#42);
#41=CLOSED_SHELL('',(#79,#80,#81,#82,#83,#84,#85,#86,#87,#88,#89,#90,#91));
#42=CLOSED_SHELL('',(#92,#93,#94));
#43=TOROIDAL_SURFACE('',#286,3.25,0.499999999999996);
#44=TOROIDAL_SURFACE('',#294,4.89461257567267,0.3);
#45=CYLINDRICAL_SURFACE('',#284,2.75);
#46=CYLINDRICAL_SURFACE('',#298,5.85);
#47=CYLINDRICAL_SURFACE('',#302,6.);
#48=CONICAL_SURFACE('',#282,2.55,45.0000000000002);
#49=CONICAL_SURFACE('',#290,3.74261489508634,6.00000000000002);
#50=CONICAL_SURFACE('',#292,4.50987581252578,2.20000000000011);
#51=CONICAL_SURFACE('',#307,0.75,75.);
#52=CONICAL_SURFACE('',#308,1.25793653499712E-17,74.999999);
#53=FACE_BOUND('',#105,.T.);
#54=FACE_BOUND('',#106,.T.);
#55=FACE_BOUND('',#107,.T.);
#56=FACE_BOUND('',#108,.T.);
#57=FACE_BOUND('',#109,.T.);
#58=FACE_BOUND('',#110,.T.);
#59=FACE_BOUND('',#111,.T.);
#60=FACE_BOUND('',#112,.T.);
#61=FACE_BOUND('',#113,.T.);
#62=FACE_BOUND('',#114,.T.);
#63=FACE_BOUND('',#115,.T.);
#64=FACE_BOUND('',#116,.T.);
#65=FACE_BOUND('',#117,.T.);
#66=FACE_BOUND('',#118,.T.);
#67=FACE_BOUND('',#119,.T.);
#68=FACE_BOUND('',#120,.T.);
#69=FACE_BOUND('',#121,.T.);
#70=FACE_BOUND('',#122,.T.);
#71=FACE_BOUND('',#123,.T.);
#72=FACE_BOUND('',#124,.T.);
#73=FACE_BOUND('',#125,.T.);
#74=FACE_BOUND('',#126,.T.);
#75=FACE_BOUND('',#129,.T.);
#76=FACE_BOUND('',#130,.T.);
#77=FACE_BOUND('',#131,.T.);
#78=FACE_BOUND('',#28,.T.);
#79=ADVANCED_FACE('',(#101),#95,.F.);
#80=ADVANCED_FACE('',(#53,#54),#48,.T.);
#81=ADVANCED_FACE('',(#55,#56),#45,.T.);
#82=ADVANCED_FACE('',(#57,#58),#43,.F.);
#83=ADVANCED_FACE('',(#59,#60),#96,.F.);
#84=ADVANCED_FACE('',(#61,#62),#49,.T.);
#85=ADVANCED_FACE('',(#63,#64),#50,.T.);
#86=ADVANCED_FACE('',(#65,#66),#44,.F.);
#87=ADVANCED_FACE('',(#67,#68),#97,.F.);
#88=ADVANCED_FACE('',(#69,#70),#46,.T.);
#89=ADVANCED_FACE('',(#71,#72),#98,.T.);
#90=ADVANCED_FACE('',(#73,#74),#47,.T.);
#91=ADVANCED_FACE('',(#102),#99,.F.);
#92=ADVANCED_FACE('',(#103),#100,.F.);
#93=ADVANCED_FACE('',(#75,#76),#51,.T.);
#94=ADVANCED_FACE('',(#77,#78),#52,.T.);
#95=PLANE('',#280);
#96=PLANE('',#288);
#97=PLANE('',#296);
#98=PLANE('',#300);
#99=PLANE('',#303);
#100=PLANE('',#305);
#101=FACE_OUTER_BOUND('',#104,.T.);
#102=FACE_OUTER_BOUND('',#127,.T.);
#103=FACE_OUTER_BOUND('',#128,.T.);
#104=EDGE_LOOP('',(#132));
#105=EDGE_LOOP('',(#133));
#106=EDGE_LOOP('',(#134));
#107=EDGE_LOOP('',(#135));
#108=EDGE_LOOP('',(#136));
#109=EDGE_LOOP('',(#137));
#110=EDGE_LOOP('',(#138));
#111=EDGE_LOOP('',(#139));
#112=EDGE_LOOP('',(#140));
#113=EDGE_LOOP('',(#141));
#114=EDGE_LOOP('',(#142));
#115=EDGE_LOOP('',(#143));
#116=EDGE_LOOP('',(#144));
#117=EDGE_LOOP('',(#145));
#118=EDGE_LOOP('',(#146));
#119=EDGE_LOOP('',(#147));
#120=EDGE_LOOP('',(#148));
#121=EDGE_LOOP('',(#149));
#122=EDGE_LOOP('',(#150));
#123=EDGE_LOOP('',(#151));
#124=EDGE_LOOP('',(#152));
#125=EDGE_LOOP('',(#153));
#126=EDGE_LOOP('',(#154));
#127=EDGE_LOOP('',(#155));
#128=EDGE_LOOP('',(#156));
#129=EDGE_LOOP('',(#157));
#130=EDGE_LOOP('',(#158));
#131=EDGE_LOOP('',(#159));
#132=ORIENTED_EDGE('',*,*,#175,.F.);
#133=ORIENTED_EDGE('',*,*,#176,.F.);
#134=ORIENTED_EDGE('',*,*,#175,.T.);
#135=ORIENTED_EDGE('',*,*,#177,.F.);
#136=ORIENTED_EDGE('',*,*,#176,.T.);
#137=ORIENTED_EDGE('',*,*,#178,.F.);
#138=ORIENTED_EDGE('',*,*,#177,.T.);
#139=ORIENTED_EDGE('',*,*,#179,.F.);
#140=ORIENTED_EDGE('',*,*,#178,.T.);
#141=ORIENTED_EDGE('',*,*,#180,.F.);
#142=ORIENTED_EDGE('',*,*,#179,.T.);
#143=ORIENTED_EDGE('',*,*,#181,.F.);
#144=ORIENTED_EDGE('',*,*,#180,.T.);
#145=ORIENTED_EDGE('',*,*,#182,.F.);
#146=ORIENTED_EDGE('',*,*,#181,.T.);
#147=ORIENTED_EDGE('',*,*,#183,.T.);
#148=ORIENTED_EDGE('',*,*,#182,.T.);
#149=ORIENTED_EDGE('',*,*,#184,.T.);
#150=ORIENTED_EDGE('',*,*,#183,.F.);
#151=ORIENTED_EDGE('',*,*,#185,.F.);
#152=ORIENTED_EDGE('',*,*,#184,.F.);
#153=ORIENTED_EDGE('',*,*,#186,.F.);
#154=ORIENTED_EDGE('',*,*,#185,.T.);
#155=ORIENTED_EDGE('',*,*,#186,.T.);
#156=ORIENTED_EDGE('',*,*,#187,.T.);
#157=ORIENTED_EDGE('',*,*,#187,.F.);
#158=ORIENTED_EDGE('',*,*,#188,.T.);
#159=ORIENTED_EDGE('',*,*,#188,.F.);
#160=VERTEX_POINT('',#403);
#161=VERTEX_POINT('',#406);
#162=VERTEX_POINT('',#409);
#163=VERTEX_POINT('',#412);
#164=VERTEX_POINT('',#415);
#165=VERTEX_POINT('',#418);
#166=VERTEX_POINT('',#421);
#167=VERTEX_POINT('',#424);
#168=VERTEX_POINT('',#427);
#169=VERTEX_POINT('',#430);
#170=VERTEX_POINT('',#433);
#171=VERTEX_POINT('',#436);
#172=VERTEX_POINT('',#440);
#173=VERTEX_POINT('',#443);
#174=VERTEX_POINT('',#445);
#175=EDGE_CURVE('',#160,#160,#189,.T.);
#176=EDGE_CURVE('',#161,#161,#190,.T.);
#177=EDGE_CURVE('',#162,#162,#191,.T.);
#178=EDGE_CURVE('',#163,#163,#192,.T.);
#179=EDGE_CURVE('',#164,#164,#193,.T.);
#180=EDGE_CURVE('',#165,#165,#194,.T.);
#181=EDGE_CURVE('',#166,#166,#195,.T.);
#182=EDGE_CURVE('',#167,#167,#196,.T.);
#183=EDGE_CURVE('',#168,#168,#197,.T.);
#184=EDGE_CURVE('',#169,#169,#198,.T.);
#185=EDGE_CURVE('',#170,#170,#199,.T.);
#186=EDGE_CURVE('',#171,#171,#200,.T.);
#187=EDGE_CURVE('',#172,#172,#201,.T.);
#188=EDGE_CURVE('',#173,#173,#202,.T.);
#189=CIRCLE('',#279,2.55);
#190=CIRCLE('',#281,2.75);
#191=CIRCLE('',#283,2.75);
#192=CIRCLE('',#285,3.25);
#193=CIRCLE('',#287,3.74261489508634);
#194=CIRCLE('',#289,4.50987581252578);
#195=CIRCLE('',#291,4.59483370074949);
#196=CIRCLE('',#293,4.89461257567267);
#197=CIRCLE('',#295,5.85);
#198=CIRCLE('',#297,5.85);
#199=CIRCLE('',#299,6.);
#200=CIRCLE('',#301,6.);
#201=CIRCLE('',#304,6.);
#202=CIRCLE('',#306,0.75);
#203=DRAUGHTING_PRE_DEFINED_COLOUR('blue');
#204=B_SPLINE_CURVE_WITH_KNOTS('CUTTING PART LINE',3,(#390,#391,#392,#393,
#394,#395,#396,#397,#398),.UNSPECIFIED.,.F.,.F.,(4,2,3,4),(0.,0.0635832740360687,
0.508666190207076,1.),.UNSPECIFIED.);
#205=INVISIBILITY((#239,#240,#241,#242));
#206=CURVE_STYLE('',#214,POSITIVE_LENGTH_MEASURE(0.18),#272);
#207=CURVE_STYLE('',#215,POSITIVE_LENGTH_MEASURE(0.18),#272);
#208=CURVE_STYLE('',#216,POSITIVE_LENGTH_MEASURE(0.18),#272);
#209=CURVE_STYLE('',#217,POSITIVE_LENGTH_MEASURE(0.18),#272);
#210=CURVE_STYLE('',#218,POSITIVE_LENGTH_MEASURE(0.18),#203);
#211=CURVE_STYLE('',#219,POSITIVE_LENGTH_MEASURE(0.18),#271);
#212=CURVE_STYLE('',#220,POSITIVE_LENGTH_MEASURE(0.18),#271);
#213=CURVE_STYLE('',#221,POSITIVE_LENGTH_MEASURE(0.18),#271);
#214=DRAUGHTING_PRE_DEFINED_CURVE_FONT('continuous');
#215=DRAUGHTING_PRE_DEFINED_CURVE_FONT('chain double dash');
#216=DRAUGHTING_PRE_DEFINED_CURVE_FONT('continuous');
#217=DRAUGHTING_PRE_DEFINED_CURVE_FONT('continuous');
#218=DRAUGHTING_PRE_DEFINED_CURVE_FONT('continuous');
#219=DRAUGHTING_PRE_DEFINED_CURVE_FONT('continuous');
#220=DRAUGHTING_PRE_DEFINED_CURVE_FONT('continuous');
#221=DRAUGHTING_PRE_DEFINED_CURVE_FONT('continuous');
#222=TRIMMED_CURVE('Line81',#226,(PARAMETER_VALUE(0.)),(
PARAMETER_VALUE(1.)),.T.,.PARAMETER.);
#223=TRIMMED_CURVE('Line82',#227,(PARAMETER_VALUE(0.)),(
PARAMETER_VALUE(1.)),.T.,.PARAMETER.);
#224=TRIMMED_CURVE('Line83',#228,(PARAMETER_VALUE(0.)),(
PARAMETER_VALUE(1.)),.T.,.PARAMETER.);
#225=TRIMMED_CURVE('Line84',#229,(PARAMETER_VALUE(0.)),(
PARAMETER_VALUE(1.)),.T.,.PARAMETER.);
#226=LINE('Line81',#386,#230);
#227=LINE('Line82',#387,#231);
#228=LINE('Line83',#388,#232);
#229=LINE('Line84',#389,#233);
#230=VECTOR('',#311,6.);
#231=VECTOR('',#312,1.60769516861652);
#232=VECTOR('',#313,0.776457138938738);
#233=VECTOR('',#314,5.43519994715293);
#234=PRESENTATION_LAYER_ASSIGNMENT('1','Layer 1',(#382,#383,#384,#385,#222,
#223,#224,#225,#204,#276,#277,#278,#39,#40));
#235=STYLED_ITEM('',(#249),#382);
#236=STYLED_ITEM('',(#250),#383);
#237=STYLED_ITEM('',(#251),#384);
#238=STYLED_ITEM('',(#252),#385);
#239=STYLED_ITEM('',(#253),#222);
#240=STYLED_ITEM('',(#254),#223);
#241=STYLED_ITEM('',(#255),#224);
#242=STYLED_ITEM('',(#256),#225);
#243=STYLED_ITEM('',(#257),#204);
#244=STYLED_ITEM('',(#258),#276);
#245=STYLED_ITEM('',(#259),#277);
#246=STYLED_ITEM('',(#260),#278);
#247=STYLED_ITEM('',(#261),#39);
#248=STYLED_ITEM('',(#262),#40);
#249=PRESENTATION_STYLE_ASSIGNMENT((#263));
#250=PRESENTATION_STYLE_ASSIGNMENT((#264));
#251=PRESENTATION_STYLE_ASSIGNMENT((#265));
#252=PRESENTATION_STYLE_ASSIGNMENT((#266));
#253=PRESENTATION_STYLE_ASSIGNMENT((#206));
#254=PRESENTATION_STYLE_ASSIGNMENT((#207));
#255=PRESENTATION_STYLE_ASSIGNMENT((#208));
#256=PRESENTATION_STYLE_ASSIGNMENT((#209));
#257=PRESENTATION_STYLE_ASSIGNMENT((#210));
#258=PRESENTATION_STYLE_ASSIGNMENT((#211));
#259=PRESENTATION_STYLE_ASSIGNMENT((#212));
#260=PRESENTATION_STYLE_ASSIGNMENT((#213));
#261=PRESENTATION_STYLE_ASSIGNMENT((#29));
#262=PRESENTATION_STYLE_ASSIGNMENT((#30));
#263=POINT_STYLE('',#267,POSITIVE_LENGTH_MEASURE(3.),#271);
#264=POINT_STYLE('',#268,POSITIVE_LENGTH_MEASURE(3.),#271);
#265=POINT_STYLE('',#269,POSITIVE_LENGTH_MEASURE(3.),#271);
#266=POINT_STYLE('',#270,POSITIVE_LENGTH_MEASURE(3.),#272);
#267=PRE_DEFINED_POINT_MARKER_SYMBOL('plus');
#268=PRE_DEFINED_POINT_MARKER_SYMBOL('plus');
#269=PRE_DEFINED_POINT_MARKER_SYMBOL('plus');
#270=PRE_DEFINED_POINT_MARKER_SYMBOL('plus');
#271=COLOUR_RGB('Medium Weak Red',0.6,0.4,0.4);
#272=COLOUR_RGB('Dark Hard Blue',0.,0.,0.8);
#273=COLOUR_RGB('Dark Dull Magenta',0.501960784313725,0.501960784313725,
0.501960784313725);
#274=COLOUR_RGB('Pale Gray',0.8,0.8,0.8);
#275=AXIS2_PLACEMENT_3D('',#381,#309,#310);
#276=AXIS2_PLACEMENT_3D('PCS',#399,#315,#316);
#277=AXIS2_PLACEMENT_3D('MCS',#400,#317,#318);
#278=AXIS2_PLACEMENT_3D('CIP',#401,#319,#320);
#279=AXIS2_PLACEMENT_3D('',#402,#321,#322);
#280=AXIS2_PLACEMENT_3D('',#404,#323,#324);
#281=AXIS2_PLACEMENT_3D('',#405,#325,#326);
#282=AXIS2_PLACEMENT_3D('',#407,#327,#328);
#283=AXIS2_PLACEMENT_3D('',#408,#329,#330);
#284=AXIS2_PLACEMENT_3D('',#410,#331,#332);
#285=AXIS2_PLACEMENT_3D('',#411,#333,#334);
#286=AXIS2_PLACEMENT_3D('',#413,#335,#336);
#287=AXIS2_PLACEMENT_3D('',#414,#337,#338);
#288=AXIS2_PLACEMENT_3D('',#416,#339,#340);
#289=AXIS2_PLACEMENT_3D('',#417,#341,#342);
#290=AXIS2_PLACEMENT_3D('',#419,#343,#344);
#291=AXIS2_PLACEMENT_3D('',#420,#345,#346);
#292=AXIS2_PLACEMENT_3D('',#422,#347,#348);
#293=AXIS2_PLACEMENT_3D('',#423,#349,#350);
#294=AXIS2_PLACEMENT_3D('',#425,#351,#352);
#295=AXIS2_PLACEMENT_3D('',#426,#353,#354);
#296=AXIS2_PLACEMENT_3D('',#428,#355,#356);
#297=AXIS2_PLACEMENT_3D('',#429,#357,#358);
#298=AXIS2_PLACEMENT_3D('',#431,#359,#360);
#299=AXIS2_PLACEMENT_3D('',#432,#361,#362);
#300=AXIS2_PLACEMENT_3D('',#434,#363,#364);
#301=AXIS2_PLACEMENT_3D('',#435,#365,#366);
#302=AXIS2_PLACEMENT_3D('',#437,#367,#368);
#303=AXIS2_PLACEMENT_3D('',#438,#369,#370);
#304=AXIS2_PLACEMENT_3D('',#439,#371,#372);
#305=AXIS2_PLACEMENT_3D('',#441,#373,#374);
#306=AXIS2_PLACEMENT_3D('',#442,#375,#376);
#307=AXIS2_PLACEMENT_3D('',#444,#377,#378);
#308=AXIS2_PLACEMENT_3D('',#446,#379,#380);
#309=DIRECTION('',(0.,0.,1.));
#310=DIRECTION('',(1.,0.,0.));
#311=DIRECTION('',(-1.,0.,0.));
#312=DIRECTION('',(-1.22464679914735E-16,0.,-1.));
#313=DIRECTION('',(0.965925821771824,0.,0.258819061961107));
#314=DIRECTION('',(0.965925826289069,0.,0.25881904510252));
#315=DIRECTION('',(0.,0.,1.));
#316=DIRECTION('',(1.,0.,0.));
#317=DIRECTION('',(0.,0.,1.));
#318=DIRECTION('',(1.,0.,0.));
#319=DIRECTION('',(0.,0.,1.));
#320=DIRECTION('',(1.,0.,0.));
#321=DIRECTION('',(0.,0.,-1.));
#322=DIRECTION('',(-1.,0.,0.));
#323=DIRECTION('',(0.,0.,-1.));
#324=DIRECTION('',(-1.,0.,0.));
#325=DIRECTION('',(0.,0.,-1.));
#326=DIRECTION('',(-1.,0.,0.));
#327=DIRECTION('',(0.,0.,-1.));
#328=DIRECTION('',(-1.,0.,3.28759124667689E-17));
#329=DIRECTION('',(0.,0.,-1.));
#330=DIRECTION('',(-1.,0.,0.));
#331=DIRECTION('',(0.,0.,-1.));
#332=DIRECTION('',(-1.,0.,0.));
#333=DIRECTION('',(0.,0.,-1.));
#334=DIRECTION('',(-1.,0.,0.));
#335=DIRECTION('',(0.,0.,-1.));
#336=DIRECTION('',(-1.,0.,0.));
#337=DIRECTION('',(0.,0.,-1.));
#338=DIRECTION('',(-1.,0.,0.));
#339=DIRECTION('',(0.,0.,-1.));
#340=DIRECTION('',(-1.,0.,0.));
#341=DIRECTION('',(0.,0.,-1.));
#342=DIRECTION('',(-1.,0.,0.));
#343=DIRECTION('',(0.,0.,-1.));
#344=DIRECTION('',(-1.,0.,2.70933876800749E-16));
#345=DIRECTION('',(0.,0.,-1.));
#346=DIRECTION('',(-1.,0.,0.));
#347=DIRECTION('',(0.,0.,-1.));
#348=DIRECTION('',(-1.,0.,-1.27297648233752E-15));
#349=DIRECTION('',(0.,0.,-1.));
#350=DIRECTION('',(-1.,0.,0.));
#351=DIRECTION('',(0.,0.,-1.));
#352=DIRECTION('',(-1.,0.,0.));
#353=DIRECTION('',(0.,0.,1.));
#354=DIRECTION('',(1.,0.,0.));
#355=DIRECTION('',(0.,0.,-1.));
#356=DIRECTION('',(-1.,0.,0.));
#357=DIRECTION('',(0.,0.,1.));
#358=DIRECTION('',(1.,0.,0.));
#359=DIRECTION('',(0.,0.,1.));
#360=DIRECTION('',(1.,0.,0.));
#361=DIRECTION('',(0.,0.,-1.));
#362=DIRECTION('',(1.,0.,0.));
#363=DIRECTION('',(0.,0.,1.));
#364=DIRECTION('',(1.,0.,0.));
#365=DIRECTION('',(0.,0.,-1.));
#366=DIRECTION('',(1.,0.,0.));
#367=DIRECTION('',(0.,0.,1.));
#368=DIRECTION('',(1.,0.,0.));
#369=DIRECTION('',(0.,0.,1.));
#370=DIRECTION('',(1.,0.,0.));
#371=DIRECTION('',(0.,0.,1.));
#372=DIRECTION('',(1.,0.,0.));
#373=DIRECTION('',(0.,0.,-1.));
#374=DIRECTION('',(-1.,0.,0.));
#375=DIRECTION('',(0.,0.,1.));
#376=DIRECTION('',(1.,0.,0.));
#377=DIRECTION('',(0.,0.,1.));
#378=DIRECTION('',(1.,0.,7.90031416404785E-18));
#379=DIRECTION('',(0.,0.,1.));
#380=DIRECTION('',(1.,0.,-3.25372450850787E-18));
#381=CARTESIAN_POINT('',(0.,0.,0.));
#382=CARTESIAN_POINT('PCS',(-1.50990331349021E-14,0.,0.));
#383=CARTESIAN_POINT('MCS',(0.,0.,0.));
#384=CARTESIAN_POINT('',(0.,0.,-14.));
#385=CARTESIAN_POINT('CRP',(0.75,0.,-13.7990380916469));
#386=CARTESIAN_POINT('',(6.,0.,-12.3923048313835));
#387=CARTESIAN_POINT('',(9.8442937112544E-17,0.,-12.3923048313835));
#388=CARTESIAN_POINT('',(-9.84429371125445E-17,0.,-14.));
#389=CARTESIAN_POINT('',(0.75,0.,-13.7990380916469));
#390=CARTESIAN_POINT('',(-1.11022302462516E-16,0.,-14.));
#391=CARTESIAN_POINT('',(0.25,0.,-13.9330126972156));
#392=CARTESIAN_POINT('',(0.5,0.,-13.8660253944312));
#393=CARTESIAN_POINT('',(2.49999999181596,0.,-13.3301269743491));
#394=CARTESIAN_POINT('',(4.25,0.,-12.8612159181379));
#395=CARTESIAN_POINT('',(6.,0.,-12.3923048313835));
#396=CARTESIAN_POINT('',(4.,0.,-12.3923048313835));
#397=CARTESIAN_POINT('',(2.,0.,-12.3923048313835));
#398=CARTESIAN_POINT('',(0.,0.,-12.3923048313835));
#399=CARTESIAN_POINT('',(-1.50990331349021E-14,0.,0.));
#400=CARTESIAN_POINT('',(0.,0.,0.));
#401=CARTESIAN_POINT('',(0.,0.,-14.));
#402=CARTESIAN_POINT('',(0.,0.,13.8));
#403=CARTESIAN_POINT('',(-2.55,0.,13.8));
#404=CARTESIAN_POINT('',(-4.28902006571184E-16,0.,13.8));
#405=CARTESIAN_POINT('',(0.,0.,13.6));
#406=CARTESIAN_POINT('',(-2.75,0.,13.6));
#407=CARTESIAN_POINT('',(0.,0.,13.8));
#408=CARTESIAN_POINT('',(0.,0.,10.3));
#409=CARTESIAN_POINT('',(-2.75,0.,10.3));
#410=CARTESIAN_POINT('',(0.,0.,0.));
#411=CARTESIAN_POINT('',(0.,0.,9.8));
#412=CARTESIAN_POINT('',(-3.25,0.,9.8));
#413=CARTESIAN_POINT('',(0.,0.,10.3));
#414=CARTESIAN_POINT('',(0.,0.,9.8));
#415=CARTESIAN_POINT('',(-3.74261489508634,0.,9.8));
#416=CARTESIAN_POINT('',(-8.29760769360195E-15,-3.25,9.8));
#417=CARTESIAN_POINT('',(0.,0.,2.5));
#418=CARTESIAN_POINT('',(-4.50987581252578,0.,2.5));
#419=CARTESIAN_POINT('',(0.,0.,9.8));
#420=CARTESIAN_POINT('',(0.,0.,0.288483657273745));
#421=CARTESIAN_POINT('',(-4.59483370074949,0.,0.288483657273745));
#422=CARTESIAN_POINT('',(0.,0.,2.5));
#423=CARTESIAN_POINT('',(0.,0.,-5.42101086242752E-17));
#424=CARTESIAN_POINT('',(-4.89461257567267,0.,-5.42101086242752E-17));
#425=CARTESIAN_POINT('',(0.,0.,0.3));
#426=CARTESIAN_POINT('',(0.,0.,0.));
#427=CARTESIAN_POINT('',(5.85,0.,0.));
#428=CARTESIAN_POINT('',(0.,5.85,0.));
#429=CARTESIAN_POINT('',(0.,0.,-3.2));
#430=CARTESIAN_POINT('',(5.85,0.,-3.2));
#431=CARTESIAN_POINT('',(0.,0.,0.));
#432=CARTESIAN_POINT('',(0.,0.,-3.2));
#433=CARTESIAN_POINT('',(6.,0.,-3.2));
#434=CARTESIAN_POINT('',(0.,-4.44089209850063E-15,-3.2));
#435=CARTESIAN_POINT('',(0.,0.,-12.4));
#436=CARTESIAN_POINT('',(6.,0.,-12.4));
#437=CARTESIAN_POINT('',(0.,0.,-12.4));
#438=CARTESIAN_POINT('',(0.,0.,-12.4));
#439=CARTESIAN_POINT('',(-9.84429371125445E-17,0.,-12.3923048313835));
#440=CARTESIAN_POINT('',(6.,0.,-12.3923048313835));
#441=CARTESIAN_POINT('',(6.,0.,-12.3923048313835));
#442=CARTESIAN_POINT('',(-9.84429371125445E-17,0.,-13.7990380916469));
#443=CARTESIAN_POINT('',(0.75,0.,-13.7990380916469));
#444=CARTESIAN_POINT('',(-9.84429371125445E-17,0.,-13.7990380916469));
#445=CARTESIAN_POINT('',(-1.11022302462516E-16,0.,-14.));
#446=CARTESIAN_POINT('',(-9.84429371125445E-17,0.,-14.));
#447=MECHANICAL_DESIGN_GEOMETRIC_PRESENTATION_REPRESENTATION('',(#235,#236,
#237,#238,#239,#240,#241,#242,#243,#244,#245,#246,#247,#248),#448);
#448=(
GEOMETRIC_REPRESENTATION_CONTEXT(3)
GLOBAL_UNCERTAINTY_ASSIGNED_CONTEXT((#449))
GLOBAL_UNIT_ASSIGNED_CONTEXT((#455,#451,#450))
REPRESENTATION_CONTEXT('1670841363163','TOP_LEVEL_ASSEMBLY_PART')
);
#449=UNCERTAINTY_MEASURE_WITH_UNIT(LENGTH_MEASURE(2.E-5),#455,
'DISTANCE_ACCURACY_VALUE','Maximum Tolerance applied to model');
#450=(
NAMED_UNIT(*)
SI_UNIT($,.STERADIAN.)
SOLID_ANGLE_UNIT()
);
#451=(
CONVERSION_BASED_UNIT('DEGREE',#453)
NAMED_UNIT(#452)
PLANE_ANGLE_UNIT()
);
#452=DIMENSIONAL_EXPONENTS(0.,0.,0.,0.,0.,0.,0.);
#453=PLANE_ANGLE_MEASURE_WITH_UNIT(PLANE_ANGLE_MEASURE(0.0174532925),#454);
#454=(
NAMED_UNIT(*)
PLANE_ANGLE_UNIT()
SI_UNIT($,.RADIAN.)
);
#455=(
LENGTH_UNIT()
NAMED_UNIT(*)
SI_UNIT(.MILLI.,.METRE.)
);
ENDSEC;
END-ISO-10303-21;
