ISO-10303-21;
HEADER;
FILE_DESCRIPTION(('STEP'), '1');
FILE_NAME('C:\\Users\\ds2002\\OneDrive - Sandvik\\HomeShare\\Documents\\Batchrepair\\CorSRT2\\NEW_MILBN_SLD\\Output2\\MOD000000000000000020082356800000.stp', '2018-11-23T12:39:09', (''), (''), 'Express v3.0.0.0', 'Express Tool', 'Unknown');
FILE_SCHEMA(('AUTOMOTIVE_DESIGN'));
ENDSEC;

DATA;
#1 = MANIFOLD_SOLID_BREP('NOCUT', #2);
#2 = CLOSED_SHELL('', (#3, #50, #70, #117, #164, #173, #185, #216));
#3 = ADVANCED_FACE('', (#4), #31, .T.);
#4 = FACE_OUTER_BOUND('', #5, .T.);
#5 = EDGE_LOOP('', (#6, #16, #23, #24));
#6 = ORIENTED_EDGE('', *, *, #7, .F.);
#7 = EDGE_CURVE('', #8, #10, #12, .T.);
#8 = VERTEX_POINT('', #9);
#9 = CARTESIAN_POINT('', (-12.1, 7.40911313484149E-16, 0.));
#10 = VERTEX_POINT('', #11);
#11 = CARTESIAN_POINT('', (-12.1, 1.4818226269683E-15, -12.1));
#12 = LINE('', #13, #14);
#13 = CARTESIAN_POINT('', (-12.1, 7.40911313484149E-16, 0.));
#14 = VECTOR('', #15, 12.1);
#15 = DIRECTION('', (0., 7.40911313484151E-16, -12.1));
#16 = ORIENTED_EDGE('', *, *, #17, .T.);
#17 = EDGE_CURVE('', #8, #8, #18, .T.);
#18 = CIRCLE('', #19, 12.1);
#19 = AXIS2_PLACEMENT_3D('', #20, #21, #22);
#20 = CARTESIAN_POINT('', (1.11022302462516E-15, -1.77635683940025E-15, -1.10933564796705E-31));
#21 = DIRECTION('', (3.57063260368329E-33, 6.12323399573677E-17, -1.));
#22 = DIRECTION('', (-1., 2.08038690321025E-16, 9.16806320633924E-33));
#23 = ORIENTED_EDGE('', *, *, #7, .T.);
#24 = ORIENTED_EDGE('', *, *, #25, .F.);
#25 = EDGE_CURVE('', #10, #10, #26, .T.);
#26 = CIRCLE('', #27, 12.1);
#27 = AXIS2_PLACEMENT_3D('', #28, #29, #30);
#28 = CARTESIAN_POINT('', (1.11022302462516E-15, -8.88178419700125E-16, -12.1));
#29 = DIRECTION('', (0., 0., -1.));
#30 = DIRECTION('', (-1., 1.95867855096564E-16, 0.));
#31 = (
   BOUNDED_SURFACE ()
   B_SPLINE_SURFACE (2, 1, ((#32, #33), (#34, #35), (#36, #37), (#38, #39), (#40, #41), (#42, #43), (#44, #45), (#46, #47), (#48, #49)), .UNSPECIFIED., .T., .F., .U.)
   B_SPLINE_SURFACE_WITH_KNOTS ((3, 2, 2, 2, 3), (2, 2), (0., 19.0066355542183, 38.0132711084365, 57.0199066626548, 76.026542216873), (0., 1.), .UNSPECIFIED.)
   GEOMETRIC_REPRESENTATION_ITEM ()
   RATIONAL_B_SPLINE_SURFACE (((1., 1.), (0.707106781186548, 0.707106781186548), (1., 1.), (0.707106781186548, 0.707106781186548), (1., 1.), (0.707106781186548, 0.707106781186548), (1., 1.), (0.707106781186548, 0.707106781186548), (1., 1.)))
   REPRESENTATION_ITEM ('')
   SURFACE ()
);
#32 = CARTESIAN_POINT('', (-12.1, 7.40911313484149E-16, 0.));
#33 = CARTESIAN_POINT('', (-12.1, 1.62908973318427E-15, -12.1));
#34 = CARTESIAN_POINT('', (-12.1, 12.1, 8.88178419700125E-16));
#35 = CARTESIAN_POINT('', (-12.1, 12.1, -12.1));
#36 = CARTESIAN_POINT('', (4.71844785465692E-15, 12.1, 8.88178419700125E-16));
#37 = CARTESIAN_POINT('', (4.71844785465692E-15, 12.1, -12.1));
#38 = CARTESIAN_POINT('', (12.1, 12.1, 8.88178419700125E-16));
#39 = CARTESIAN_POINT('', (12.1, 12.1, -12.1));
#40 = CARTESIAN_POINT('', (12.1, -9.47314051306729E-15, -5.56830902904477E-31));
#41 = CARTESIAN_POINT('', (12.1, -8.58496209336717E-15, -12.1));
#42 = CARTESIAN_POINT('', (12.1, -12.1, -8.88178419700126E-16));
#43 = CARTESIAN_POINT('', (12.1, -12.1, -12.1));
#44 = CARTESIAN_POINT('', (-4.01378134492623E-15, -12.1, -8.88178419700126E-16));
#45 = CARTESIAN_POINT('', (-4.01378134492623E-15, -12.1, -12.1));
#46 = CARTESIAN_POINT('', (-12.1, -12.1, -8.88178419700125E-16));
#47 = CARTESIAN_POINT('', (-12.1, -12.1, -12.1));
#48 = CARTESIAN_POINT('', (-12.1, 7.40911313484149E-16, 0.));
#49 = CARTESIAN_POINT('', (-12.1, 1.62908973318427E-15, -12.1));
#50 = ADVANCED_FACE('', (#51, #54), #65, .T.);
#51 = FACE_OUTER_BOUND('', #52, .T.);
#52 = EDGE_LOOP('', (#53));
#53 = ORIENTED_EDGE('', *, *, #17, .F.);
#54 = FACE_BOUND('', #55, .T.);
#55 = EDGE_LOOP('', (#56));
#56 = ORIENTED_EDGE('', *, *, #57, .T.);
#57 = EDGE_CURVE('', #58, #58, #60, .T.);
#58 = VERTEX_POINT('', #59);
#59 = CARTESIAN_POINT('', (-8.905, 5.45273987320359E-16, 0.));
#60 = CIRCLE('', #61, 8.905);
#61 = AXIS2_PLACEMENT_3D('', #62, #63, #64);
#62 = CARTESIAN_POINT('', (9.99200722162641E-16, -3.99680288865056E-15, -2.46519032881566E-31));
#63 = DIRECTION('', (3.5489008984148E-33, 6.12323399573677E-17, -1.));
#64 = DIRECTION('', (-1., 5.10059166307796E-16, 2.76832153713157E-32));
#65 = B_SPLINE_SURFACE_WITH_KNOTS('', 1, 1, ((#66, #67), (#68, #69)), .UNSPECIFIED., .F., .F., .U., (2, 2), (2, 2), (6.7231825151859, 30.9231825151859), (6.7231825151859, 30.9231825151859), .UNSPECIFIED.);
#66 = CARTESIAN_POINT('', (12.1, -12.1, -7.40911313484147E-16));
#67 = CARTESIAN_POINT('', (-12.1, -12.1, -7.40911313484147E-16));
#68 = CARTESIAN_POINT('', (12.1, 12.1, 7.40911313484151E-16));
#69 = CARTESIAN_POINT('', (-12.1, 12.1, 7.40911313484151E-16));
#70 = ADVANCED_FACE('', (#71), #98, .T.);
#71 = FACE_OUTER_BOUND('', #72, .T.);
#72 = EDGE_LOOP('', (#73, #83, #90, #91));
#73 = ORIENTED_EDGE('', *, *, #74, .T.);
#74 = EDGE_CURVE('', #75, #77, #79, .T.);
#75 = VERTEX_POINT('', #76);
#76 = CARTESIAN_POINT('', (-8.735, 2.59318959719452E-16, 4.5));
#77 = VERTEX_POINT('', #78);
#78 = CARTESIAN_POINT('', (-7.155, -7.55913236773704E-16, 19.5));
#79 = LINE('', #80, #81);
#80 = CARTESIAN_POINT('', (-8.735, 2.59318959719452E-16, 4.5));
#81 = VECTOR('', #82, 15.0829837896883);
#82 = DIRECTION('', (1.58, -1.01523219649316E-15, 15.));
#83 = ORIENTED_EDGE('', *, *, #84, .T.);
#84 = EDGE_CURVE('', #77, #77, #85, .T.);
#85 = CIRCLE('', #86, 7.155);
#86 = AXIS2_PLACEMENT_3D('', #87, #88, #89);
#87 = CARTESIAN_POINT('', (2.27595720048157E-15, -2.22044604925031E-16, 19.5));
#88 = DIRECTION('', (0., 0., -1.));
#89 = DIRECTION('', (-1., -7.46147633611003E-17, 0.));
#90 = ORIENTED_EDGE('', *, *, #74, .F.);
#91 = ORIENTED_EDGE('', *, *, #92, .F.);
#92 = EDGE_CURVE('', #75, #75, #93, .T.);
#93 = CIRCLE('', #94, 8.735);
#94 = AXIS2_PLACEMENT_3D('', #95, #96, #97);
#95 = CARTESIAN_POINT('', (2.77555756156289E-16, 6.66133814775094E-16, 4.5));
#96 = DIRECTION('', (0., 0., -1.));
#97 = DIRECTION('', (-1., -4.65729656617793E-17, 0.));
#98 = (
   BOUNDED_SURFACE ()
   B_SPLINE_SURFACE (1, 2, ((#99, #100, #101, #102, #103, #104, #105, #106, #107), (#108, #109, #110, #111, #112, #113, #114, #115, #116)), .UNSPECIFIED., .F., .T., .U.)
   B_SPLINE_SURFACE_WITH_KNOTS ((2, 2), (3, 2, 2, 2, 3), (0., 1.), (0., 0.25, 0.5, 0.75, 1.), .UNSPECIFIED.)
   GEOMETRIC_REPRESENTATION_ITEM ()
   RATIONAL_B_SPLINE_SURFACE (((1., 0.707106781186548, 1., 0.707106781186548, 1., 0.707106781186548, 1., 0.707106781186548, 1.), (1., 0.707106781186548, 1., 0.707106781186548, 1., 0.707106781186548, 1., 0.707106781186548, 1.)))
   REPRESENTATION_ITEM ('')
   SURFACE ()
);
#99 = CARTESIAN_POINT('', (-8.735, -1.89154779398367E-15, 4.5));
#100 = CARTESIAN_POINT('', (-8.735, 8.735, 4.5));
#101 = CARTESIAN_POINT('', (4.56799277162721E-15, 8.73499999999999, 4.5));
#102 = CARTESIAN_POINT('', (8.735, 8.73499999999999, 4.5));
#103 = CARTESIAN_POINT('', (8.735, -1.0361399522463E-14, 4.5));
#104 = CARTESIAN_POINT('', (8.735, -8.73500000000001, 4.5));
#105 = CARTESIAN_POINT('', (-2.8321299777969E-15, -8.73500000000001, 4.5));
#106 = CARTESIAN_POINT('', (-8.735, -8.735, 4.5));
#107 = CARTESIAN_POINT('', (-8.735, -1.89154779398367E-15, 4.5));
#108 = CARTESIAN_POINT('', (-7.155, -7.55913236773704E-16, 19.5));
#109 = CARTESIAN_POINT('', (-7.155, 7.155, 19.5));
#110 = CARTESIAN_POINT('', (3.80197298164453E-15, 7.155, 19.5));
#111 = CARTESIAN_POINT('', (7.155, 7.15499999999999, 19.5));
#112 = CARTESIAN_POINT('', (7.155, -7.69372538528768E-15, 19.5));
#113 = CARTESIAN_POINT('', (7.155, -7.15500000000001, 19.5));
#114 = CARTESIAN_POINT('', (-2.25960438207951E-15, -7.15500000000001, 19.5));
#115 = CARTESIAN_POINT('', (-7.155, -7.155, 19.5));
#116 = CARTESIAN_POINT('', (-7.155, -7.55913236773704E-16, 19.5));
#117 = ADVANCED_FACE('', (#118), #145, .T.);
#118 = FACE_OUTER_BOUND('', #119, .T.);
#119 = EDGE_LOOP('', (#120, #130, #137, #138));
#120 = ORIENTED_EDGE('', *, *, #121, .T.);
#121 = EDGE_CURVE('', #122, #124, #126, .T.);
#122 = VERTEX_POINT('', #123);
#123 = CARTESIAN_POINT('', (-5.1, -8.81745695386094E-16, 19.5));
#124 = VERTEX_POINT('', #125);
#125 = CARTESIAN_POINT('', (-5.1, -1.15729122519425E-15, 24.));
#126 = LINE('', #127, #128);
#127 = CARTESIAN_POINT('', (-5.1, -8.81745695386094E-16, 19.5));
#128 = VECTOR('', #129, 4.5);
#129 = DIRECTION('', (0., -2.75545529808156E-16, 4.5));
#130 = ORIENTED_EDGE('', *, *, #131, .T.);
#131 = EDGE_CURVE('', #124, #124, #132, .T.);
#132 = CIRCLE('', #133, 5.1);
#133 = AXIS2_PLACEMENT_3D('', #134, #135, #136);
#134 = CARTESIAN_POINT('', (-9.43689570931383E-16, -2.88657986402541E-15, 24.));
#135 = DIRECTION('', (0., 0., -1.));
#136 = DIRECTION('', (-1., 3.39076203692384E-16, 0.));
#137 = ORIENTED_EDGE('', *, *, #121, .F.);
#138 = ORIENTED_EDGE('', *, *, #139, .F.);
#139 = EDGE_CURVE('', #122, #122, #140, .T.);
#140 = CIRCLE('', #141, 5.1);
#141 = AXIS2_PLACEMENT_3D('', #142, #143, #144);
#142 = CARTESIAN_POINT('', (-9.71445146547012E-16, -2.66453525910038E-15, 19.5));
#143 = DIRECTION('', (0., 0., -1.));
#144 = DIRECTION('', (-1., 3.49566581120447E-16, 0.));
#145 = (
   BOUNDED_SURFACE ()
   B_SPLINE_SURFACE (1, 2, ((#146, #147, #148, #149, #150, #151, #152, #153, #154), (#155, #156, #157, #158, #159, #160, #161, #162, #163)), .UNSPECIFIED., .F., .T., .U.)
   B_SPLINE_SURFACE_WITH_KNOTS ((2, 2), (3, 2, 2, 2, 3), (0., 1.), (0., 8.01106126665398, 16.022122533308, 24.0331837999619, 32.0442450666159), .UNSPECIFIED.)
   GEOMETRIC_REPRESENTATION_ITEM ()
   RATIONAL_B_SPLINE_SURFACE (((1., 0.707106781186548, 1., 0.707106781186548, 1., 0.707106781186548, 1., 0.707106781186548, 1.), (1., 0.707106781186548, 1., 0.707106781186548, 1., 0.707106781186548, 1., 0.707106781186548, 1.)))
   REPRESENTATION_ITEM ('')
   SURFACE ()
);
#146 = CARTESIAN_POINT('', (-5.09999999999999, -2.82262576213198E-15, 19.5));
#147 = CARTESIAN_POINT('', (-5.1, 5.1, 19.5));
#148 = CARTESIAN_POINT('', (3.78847273926629E-15, 5.1, 19.5));
#149 = CARTESIAN_POINT('', (5.1, 5.1, 19.5));
#150 = CARTESIAN_POINT('', (5.1, -3.27562654028397E-16, 19.5));
#151 = CARTESIAN_POINT('', (5.10000000000001, -5.1, 19.5));
#152 = CARTESIAN_POINT('', (6.90810571493502E-15, -5.1, 19.5));
#153 = CARTESIAN_POINT('', (-5.09999999999999, -5.1, 19.5));
#154 = CARTESIAN_POINT('', (-5.09999999999999, -2.82262576213198E-15, 19.5));
#155 = CARTESIAN_POINT('', (-5.1, -1.15729122519425E-15, 24.));
#156 = CARTESIAN_POINT('', (-5.1, 5.1, 24.));
#157 = CARTESIAN_POINT('', (6.53725375618789E-16, 5.1, 24.));
#158 = CARTESIAN_POINT('', (5.1, 5.1, 24.));
#159 = CARTESIAN_POINT('', (5.1, 1.33777188290934E-15, 24.));
#160 = CARTESIAN_POINT('', (5.1, -5.1, 24.));
#161 = CARTESIAN_POINT('', (3.77335835128752E-15, -5.1, 24.));
#162 = CARTESIAN_POINT('', (-5.1, -5.1, 24.));
#163 = CARTESIAN_POINT('', (-5.1, -1.15729122519425E-15, 24.));
#164 = ADVANCED_FACE('', (#165), #168, .T.);
#165 = FACE_OUTER_BOUND('', #166, .T.);
#166 = EDGE_LOOP('', (#167));
#167 = ORIENTED_EDGE('', *, *, #131, .F.);
#168 = B_SPLINE_SURFACE_WITH_KNOTS('', 1, 1, ((#169, #170), (#171, #172)), .UNSPECIFIED., .F., .F., .U., (2, 2), (2, 2), (2.83373808491307, 13.0337380849131), (2.83373808491307, 13.0337380849131), .UNSPECIFIED.);
#169 = CARTESIAN_POINT('', (5.1, -5.1, 24.));
#170 = CARTESIAN_POINT('', (-5.1, -5.1, 24.));
#171 = CARTESIAN_POINT('', (5.1, 5.1, 24.));
#172 = CARTESIAN_POINT('', (-5.1, 5.1, 24.));
#173 = ADVANCED_FACE('', (#174, #177), #180, .T.);
#174 = FACE_OUTER_BOUND('', #175, .T.);
#175 = EDGE_LOOP('', (#176));
#176 = ORIENTED_EDGE('', *, *, #84, .F.);
#177 = FACE_BOUND('', #178, .T.);
#178 = EDGE_LOOP('', (#179));
#179 = ORIENTED_EDGE('', *, *, #139, .T.);
#180 = B_SPLINE_SURFACE_WITH_KNOTS('', 1, 1, ((#181, #182), (#183, #184)), .UNSPECIFIED., .F., .F., .U., (2, 2), (2, 2), (3.9755678426574, 18.2855678426574), (3.9755678426574, 18.2855678426574), .UNSPECIFIED.);
#181 = CARTESIAN_POINT('', (7.155, -7.155, 19.5));
#182 = CARTESIAN_POINT('', (-7.155, -7.155, 19.5));
#183 = CARTESIAN_POINT('', (7.155, 7.155, 19.5));
#184 = CARTESIAN_POINT('', (-7.155, 7.155, 19.5));
#185 = ADVANCED_FACE('', (#186), #197, .T.);
#186 = FACE_OUTER_BOUND('', #187, .T.);
#187 = EDGE_LOOP('', (#188, #194, #195, #196));
#188 = ORIENTED_EDGE('', *, *, #189, .T.);
#189 = EDGE_CURVE('', #58, #75, #190, .T.);
#190 = LINE('', #191, #192);
#191 = CARTESIAN_POINT('', (-8.905, 5.45273987320359E-16, 0.));
#192 = VECTOR('', #193, 4.5032099662352);
#193 = DIRECTION('', (0.17, -2.85955027600907E-16, 4.5));
#194 = ORIENTED_EDGE('', *, *, #92, .T.);
#195 = ORIENTED_EDGE('', *, *, #189, .F.);
#196 = ORIENTED_EDGE('', *, *, #57, .F.);
#197 = (
   BOUNDED_SURFACE ()
   B_SPLINE_SURFACE (1, 2, ((#198, #199, #200, #201, #202, #203, #204, #205, #206), (#207, #208, #209, #210, #211, #212, #213, #214, #215)), .UNSPECIFIED., .F., .T., .U.)
   B_SPLINE_SURFACE_WITH_KNOTS ((2, 2), (3, 2, 2, 2, 3), (0., 1.), (0., 0.25, 0.5, 0.75, 1.), .UNSPECIFIED.)
   GEOMETRIC_REPRESENTATION_ITEM ()
   RATIONAL_B_SPLINE_SURFACE (((1., 0.707106781186548, 1., 0.707106781186548, 1., 0.707106781186548, 1., 0.707106781186548, 1.), (1., 0.707106781186548, 1., 0.707106781186548, 1., 0.707106781186548, 1., 0.707106781186548, 1.)))
   REPRESENTATION_ITEM ('')
   SURFACE ()
);
#198 = CARTESIAN_POINT('', (-8.905, 1.9483205712147E-15, -8.88178419700125E-16));
#199 = CARTESIAN_POINT('', (-8.90499999999999, 8.905, 2.18763279096695E-15));
#200 = CARTESIAN_POINT('', (5.17780486761988E-15, 8.90499999999999, 2.18763279096695E-15));
#201 = CARTESIAN_POINT('', (8.905, 8.90499999999999, 2.18763279096695E-15));
#202 = CARTESIAN_POINT('', (8.905, -1.10718244231254E-14, -8.88178419700125E-16));
#203 = CARTESIAN_POINT('', (8.90499999999999, -8.90500000000001, -3.9639896303672E-15));
#204 = CARTESIAN_POINT('', (-6.75179215207953E-15, -8.905, -3.9639896303672E-15));
#205 = CARTESIAN_POINT('', (-8.90500000000001, -8.905, -3.9639896303672E-15));
#206 = CARTESIAN_POINT('', (-8.905, 1.9483205712147E-15, -8.88178419700125E-16));
#207 = CARTESIAN_POINT('', (-8.735, 2.59318959719453E-16, 4.5));
#208 = CARTESIAN_POINT('', (-8.73499999999999, 8.735, 4.5));
#209 = CARTESIAN_POINT('', (5.0535249883926E-15, 8.73499999999999, 4.5));
#210 = CARTESIAN_POINT('', (8.735, 8.73499999999999, 4.5));
#211 = CARTESIAN_POINT('', (8.735, -1.25122662761661E-14, 4.5));
#212 = CARTESIAN_POINT('', (8.73499999999999, -8.73500000000001, 4.5));
#213 = CARTESIAN_POINT('', (-6.64833126843776E-15, -8.73500000000001, 4.5));
#214 = CARTESIAN_POINT('', (-8.73500000000001, -8.735, 4.5));
#215 = CARTESIAN_POINT('', (-8.735, 2.59318959719453E-16, 4.5));
#216 = ADVANCED_FACE('', (#217), #220, .T.);
#217 = FACE_OUTER_BOUND('', #218, .T.);
#218 = EDGE_LOOP('', (#219));
#219 = ORIENTED_EDGE('', *, *, #25, .T.);
#220 = B_SPLINE_SURFACE_WITH_KNOTS('', 1, 1, ((#221, #222), (#223, #224)), .UNSPECIFIED., .F., .F., .U., (2, 2), (2, 2), (54.506653796736, 78.706653796736), (43.1155231268446, 67.3155231268446), .UNSPECIFIED.);
#221 = CARTESIAN_POINT('', (-12.1, 12.1, -12.1));
#222 = CARTESIAN_POINT('', (-12.1, -12.1, -12.1));
#223 = CARTESIAN_POINT('', (12.1, 12.1, -12.1));
#224 = CARTESIAN_POINT('', (12.1, -12.1, -12.1));
#225 = DRAUGHTING_MODEL('', (#233, #341, #389, #394, #399, #404, #409, #414), #428);
#226 = PRESENTATION_STYLE_ASSIGNMENT((#227));
#227 = SURFACE_STYLE_USAGE(.POSITIVE., #228);
#228 = SURFACE_SIDE_STYLE('', (#229));
#229 = SURFACE_STYLE_FILL_AREA(#230);
#230 = FILL_AREA_STYLE('', (#231));
#231 = FILL_AREA_STYLE_COLOUR('', #232);
#232 = COLOUR_RGB('', 0.50196078431373, 0.50196078431373, 0.50196078431373);
#233 = STYLED_ITEM('', (#226), #1);
#234 = MANIFOLD_SOLID_BREP('CUT', #235);
#235 = CLOSED_SHELL('', (#236, #253, #292));
#236 = ADVANCED_FACE('', (#237), #248, .T.);
#237 = FACE_OUTER_BOUND('', #238, .T.);
#238 = EDGE_LOOP('', (#239));
#239 = ORIENTED_EDGE('', *, *, #240, .F.);
#240 = EDGE_CURVE('', #241, #241, #243, .T.);
#241 = VERTEX_POINT('', #242);
#242 = CARTESIAN_POINT('', (-12.5, 1.50631556295124E-15, -12.1));
#243 = CIRCLE('', #244, 12.5);
#244 = AXIS2_PLACEMENT_3D('', #245, #246, #247);
#245 = CARTESIAN_POINT('', (4.10782519111308E-15, -5.99520433297585E-15, -12.1));
#246 = DIRECTION('', (0., 0., -1.));
#247 = DIRECTION('', (-1., 6.00121591674167E-16, 0.));
#248 = B_SPLINE_SURFACE_WITH_KNOTS('', 1, 1, ((#249, #250), (#251, #252)), .UNSPECIFIED., .F., .F., .U., (2, 2), (2, 2), (6.9454364826301, 31.9454364826301), (6.9454364826301, 31.9454364826301), .UNSPECIFIED.);
#249 = CARTESIAN_POINT('', (12.5, -12.5, -12.1));
#250 = CARTESIAN_POINT('', (-12.5, -12.5, -12.1));
#251 = CARTESIAN_POINT('', (12.5, 12.5, -12.1));
#252 = CARTESIAN_POINT('', (-12.5, 12.5, -12.1));
#253 = ADVANCED_FACE('', (#254), #273, .T.);
#254 = FACE_OUTER_BOUND('', #255, .T.);
#255 = EDGE_LOOP('', (#256, #264, #265, #266));
#256 = ORIENTED_EDGE('', *, *, #257, .F.);
#257 = EDGE_CURVE('', #241, #258, #260, .T.);
#258 = VERTEX_POINT('', #259);
#259 = CARTESIAN_POINT('', (-12.5, 1.56754790290861E-15, -13.1));
#260 = LINE('', #261, #262);
#261 = CARTESIAN_POINT('', (-12.5, 1.50631556295124E-15, -12.1));
#262 = VECTOR('', #263, 1.);
#263 = DIRECTION('', (0., 6.12323399573699E-17, -1.));
#264 = ORIENTED_EDGE('', *, *, #240, .T.);
#265 = ORIENTED_EDGE('', *, *, #257, .T.);
#266 = ORIENTED_EDGE('', *, *, #267, .F.);
#267 = EDGE_CURVE('', #258, #258, #268, .T.);
#268 = CIRCLE('', #269, 12.5);
#269 = AXIS2_PLACEMENT_3D('', #270, #271, #272);
#270 = CARTESIAN_POINT('', (4.10782519111308E-15, -5.99520433297585E-15, -13.1));
#271 = DIRECTION('', (0., 0., -1.));
#272 = DIRECTION('', (-1., 6.05020178870756E-16, 0.));
#273 = (
   BOUNDED_SURFACE ()
   B_SPLINE_SURFACE (2, 1, ((#274, #275), (#276, #277), (#278, #279), (#280, #281), (#282, #283), (#284, #285), (#286, #287), (#288, #289), (#290, #291)), .UNSPECIFIED., .T., .F., .U.)
   B_SPLINE_SURFACE_WITH_KNOTS ((3, 2, 2, 2, 3), (2, 2), (0., 19.6349540849362, 39.2699081698724, 58.9048622548086, 78.5398163397448), (0., 1.), .UNSPECIFIED.)
   GEOMETRIC_REPRESENTATION_ITEM ()
   RATIONAL_B_SPLINE_SURFACE (((1., 1.), (0.707106781186548, 0.707106781186548), (1., 1.), (0.707106781186548, 0.707106781186548), (1., 1.), (0.707106781186548, 0.707106781186548), (1., 1.), (0.707106781186548, 0.707106781186548), (1., 1.)))
   REPRESENTATION_ITEM ('')
   SURFACE ()
);
#274 = CARTESIAN_POINT('', (-12.5, 1.50631556295124E-15, -12.1));
#275 = CARTESIAN_POINT('', (-12.5, 1.28427095802621E-15, -13.1));
#276 = CARTESIAN_POINT('', (-12.5, 12.5, -12.1));
#277 = CARTESIAN_POINT('', (-12.5, 12.5, -13.1));
#278 = CARTESIAN_POINT('', (-1.14646782837862E-15, 12.5, -12.1));
#279 = CARTESIAN_POINT('', (-1.14646782837862E-15, 12.5, -13.1));
#280 = CARTESIAN_POINT('', (12.5, 12.5, -12.1));
#281 = CARTESIAN_POINT('', (12.5, 12.5, -13.1));
#282 = CARTESIAN_POINT('', (12.5, 2.24493898523326E-15, -12.1));
#283 = CARTESIAN_POINT('', (12.5, 2.02289438030823E-15, -13.1));
#284 = CARTESIAN_POINT('', (12.5, -12.5, -12.1));
#285 = CARTESIAN_POINT('', (12.5, -12.5, -13.1));
#286 = CARTESIAN_POINT('', (1.12296409283759E-15, -12.5, -12.1));
#287 = CARTESIAN_POINT('', (1.12296409283759E-15, -12.5, -13.1));
#288 = CARTESIAN_POINT('', (-12.5, -12.5, -12.1));
#289 = CARTESIAN_POINT('', (-12.5, -12.5, -13.1));
#290 = CARTESIAN_POINT('', (-12.5, 1.50631556295124E-15, -12.1));
#291 = CARTESIAN_POINT('', (-12.5, 1.28427095802621E-15, -13.1));
#292 = ADVANCED_FACE('', (#293), #306, .T.);
#293 = FACE_OUTER_BOUND('', #294, .T.);
#294 = EDGE_LOOP('', (#295, #304, #305));
#295 = ORIENTED_EDGE('', *, *, #296, .F.);
#296 = EDGE_CURVE('', #258, #297, #299, .T.);
#297 = VERTEX_POINT('', #298);
#298 = CARTESIAN_POINT('', (5.84892642720179E-15, 1.56754790290861E-15, -25.6));
#299 = CIRCLE('', #300, 12.5);
#300 = AXIS2_PLACEMENT_3D('', #301, #302, #303);
#301 = CARTESIAN_POINT('', (-7.105427357601E-15, 8.02143653441511E-16, -13.1));
#302 = DIRECTION('', (-6.1232339957368E-17, -1., -6.1232339957368E-17));
#303 = DIRECTION('', (-1., 6.1232339957368E-17, 5.6843418860808E-16));
#304 = ORIENTED_EDGE('', *, *, #267, .T.);
#305 = ORIENTED_EDGE('', *, *, #296, .T.);
#306 = (
   BOUNDED_SURFACE ()
   B_SPLINE_SURFACE (2, 2, ((#307, #308, #309), (#310, #311, #312), (#313, #314, #315), (#316, #317, #318), (#319, #320, #321), (#322, #323, #324), (#325, #326, #327), (#328, #329, #330), (#331, #332, #333)), .UNSPECIFIED., .T., .F., .U.)
   B_SPLINE_SURFACE_WITH_KNOTS ((3, 2, 2, 2, 3), (3, 3), (0., 0.25, 0.5, 0.75, 1.), (0., 1.), .UNSPECIFIED.)
   GEOMETRIC_REPRESENTATION_ITEM ()
   RATIONAL_B_SPLINE_SURFACE (((1., 0.707106781186548, 1.), (0.707106781186548, 0.5, 0.707106781186548), (1., 0.707106781186548, 1.), (0.707106781186548, 0.5, 0.707106781186548), (1., 0.707106781186548, 1.), (0.707106781186548, 0.5, 0.707106781186548), (1., 0.707106781186548, 1.), (0.707106781186548, 0.5, 0.707106781186548), (1., 0.707106781186548, 1.)))
   REPRESENTATION_ITEM ('')
   SURFACE ()
);
#307 = CARTESIAN_POINT('', (-12.5, 1.56754790290861E-15, -13.1));
#308 = CARTESIAN_POINT('', (-12.5, 2.33295215237571E-15, -25.6));
#309 = CARTESIAN_POINT('', (5.84892642720179E-15, 1.56754790290861E-15, -25.6));
#310 = CARTESIAN_POINT('', (-12.5, 12.5, -13.1));
#311 = CARTESIAN_POINT('', (-12.5, 12.5, -25.6));
#312 = CARTESIAN_POINT('', (5.84892642720179E-15, 1.56754790290861E-15, -25.6));
#313 = CARTESIAN_POINT('', (6.90253292068385E-30, 12.5, -13.1));
#314 = CARTESIAN_POINT('', (-6.79000373393465E-15, 12.5, -25.6));
#315 = CARTESIAN_POINT('', (5.84892642720179E-15, 1.56754790290861E-15, -25.6));
#316 = CARTESIAN_POINT('', (12.5, 12.5, -13.1));
#317 = CARTESIAN_POINT('', (12.5, 12.5, -25.6));
#318 = CARTESIAN_POINT('', (5.84892642720179E-15, 1.56754790290861E-15, -25.6));
#319 = CARTESIAN_POINT('', (12.5, 1.5675479029086E-15, -13.1));
#320 = CARTESIAN_POINT('', (12.5, 1.23602459414445E-14, -25.6));
#321 = CARTESIAN_POINT('', (5.84892642720179E-15, 1.56754790290861E-15, -25.6));
#322 = CARTESIAN_POINT('', (12.5, -12.5, -13.1));
#323 = CARTESIAN_POINT('', (12.5, -12.5, -25.6));
#324 = CARTESIAN_POINT('', (5.84892642720179E-15, 1.56754790290861E-15, -25.6));
#325 = CARTESIAN_POINT('', (1.53080849893418E-15, -12.5, -13.1));
#326 = CARTESIAN_POINT('', (4.76809855406834E-15, -12.5, -25.6));
#327 = CARTESIAN_POINT('', (5.84892642720179E-15, 1.56754790290861E-15, -25.6));
#328 = CARTESIAN_POINT('', (-12.5, -12.5, -13.1));
#329 = CARTESIAN_POINT('', (-12.5, -12.5, -25.6));
#330 = CARTESIAN_POINT('', (5.84892642720179E-15, 1.56754790290861E-15, -25.6));
#331 = CARTESIAN_POINT('', (-12.5, 1.56754790290861E-15, -13.1));
#332 = CARTESIAN_POINT('', (-12.5, 2.33295215237571E-15, -25.6));
#333 = CARTESIAN_POINT('', (5.84892642720179E-15, 1.56754790290861E-15, -25.6));
#334 = PRESENTATION_STYLE_ASSIGNMENT((#335));
#335 = SURFACE_STYLE_USAGE(.POSITIVE., #336);
#336 = SURFACE_SIDE_STYLE('', (#337));
#337 = SURFACE_STYLE_FILL_AREA(#338);
#338 = FILL_AREA_STYLE('', (#339));
#339 = FILL_AREA_STYLE_COLOUR('', #340);
#340 = COLOUR_RGB('', 0.8, 0.8, 0.8);
#341 = STYLED_ITEM('', (#334), #234);
#342 = TRIMMED_CURVE('cutting part line', #343, (#347), (#348), .T., .CARTESIAN.);
#343 = LINE('', #344, #345);
#344 = CARTESIAN_POINT('', (-1.36103200276564E-31, -7.40911313484149E-16, -12.1));
#345 = VECTOR('', #346, 12.1);
#346 = DIRECTION('', (12.1, -2.22273394045245E-15, 0.));
#347 = CARTESIAN_POINT('', (-1.36103200276564E-31, -7.40911313484149E-16, -12.1));
#348 = CARTESIAN_POINT('', (12.1, -2.9636452539366E-15, -12.1));
#349 = TRIMMED_CURVE('cutting part line', #350, (#354), (#355), .T., .CARTESIAN.);
#350 = LINE('', #351, #352);
#351 = CARTESIAN_POINT('', (12.1, -2.9636452539366E-15, -12.1));
#352 = VECTOR('', #353, 0.4);
#353 = DIRECTION('', (0.4, -7.34788079488342E-17, 0.));
#354 = CARTESIAN_POINT('', (12.1, -2.9636452539366E-15, -12.1));
#355 = CARTESIAN_POINT('', (12.5, -3.03712406188543E-15, -12.1));
#356 = TRIMMED_CURVE('cutting part line', #357, (#361), (#362), .T., .CARTESIAN.);
#357 = LINE('', #358, #359);
#358 = CARTESIAN_POINT('', (12.5, -3.03712406188543E-15, -12.1));
#359 = VECTOR('', #360, 1.);
#360 = DIRECTION('', (0., -6.12323399573699E-17, -1.));
#361 = CARTESIAN_POINT('', (12.5, -3.03712406188543E-15, -12.1));
#362 = CARTESIAN_POINT('', (12.5, -3.0983564018428E-15, -13.1));
#363 = TRIMMED_CURVE('cutting part line', #364, (#369), (#370), .T., .CARTESIAN.);
#364 = CIRCLE('', #365, 12.5);
#365 = AXIS2_PLACEMENT_3D('', #366, #367, #368);
#366 = CARTESIAN_POINT('', (-1.77635683940025E-14, -8.02143653441507E-16, -13.1));
#367 = DIRECTION('', (1.83697019872103E-16, 1., -6.1232339957368E-17));
#368 = DIRECTION('', (1., -1.83697019872103E-16, -1.27897692436818E-15));
#369 = CARTESIAN_POINT('', (12.5, -3.0983564018428E-15, -13.1));
#370 = CARTESIAN_POINT('', (-1.35564727681974E-14, -1.56754790290861E-15, -25.6));
#371 = TRIMMED_CURVE('cutting part line', #372, (#376), (#377), .T., .CARTESIAN.);
#372 = LINE('', #373, #374);
#373 = CARTESIAN_POINT('', (-2.87953878271076E-31, -1.56754790290861E-15, -25.6));
#374 = VECTOR('', #375, 13.5);
#375 = DIRECTION('', (1.51850677994513E-31, 8.26636589424461E-16, 13.5));
#376 = CARTESIAN_POINT('', (-2.87953878271076E-31, -1.56754790290861E-15, -25.6));
#377 = CARTESIAN_POINT('', (-1.36103200276564E-31, -7.40911313484149E-16, -12.1));
#378 = COMPOSITE_CURVE('cutting part line', (#379, #380, #381, #382, #383), .U.);
#379 = COMPOSITE_CURVE_SEGMENT(.CONTINUOUS., .T., #342);
#380 = COMPOSITE_CURVE_SEGMENT(.CONTINUOUS., .T., #349);
#381 = COMPOSITE_CURVE_SEGMENT(.CONTINUOUS., .T., #356);
#382 = COMPOSITE_CURVE_SEGMENT(.CONTINUOUS., .T., #363);
#383 = COMPOSITE_CURVE_SEGMENT(.CONTINUOUS., .T., #371);
#384 = GEOMETRIC_SET('', (#378, #427));
#385 = PRESENTATION_STYLE_ASSIGNMENT((#386));
#386 = CURVE_STYLE('', #388, POSITIVE_LENGTH_MEASURE(1.E-6), #387);
#387 = COLOUR_RGB('', 0., 0., 1.);
#388 = DRAUGHTING_PRE_DEFINED_CURVE_FONT('continuous');
#389 = STYLED_ITEM('', (#385), #378);
#390 = PRESENTATION_STYLE_ASSIGNMENT((#391));
#391 = CURVE_STYLE('', #393, POSITIVE_LENGTH_MEASURE(1.E-6), #392);
#392 = COLOUR_RGB('', 0., 0., 1.);
#393 = DRAUGHTING_PRE_DEFINED_CURVE_FONT('continuous');
#394 = OVER_RIDING_STYLED_ITEM('', (#390), #342, #389);
#395 = PRESENTATION_STYLE_ASSIGNMENT((#396));
#396 = CURVE_STYLE('', #398, POSITIVE_LENGTH_MEASURE(1.E-6), #397);
#397 = COLOUR_RGB('', 0., 0., 1.);
#398 = DRAUGHTING_PRE_DEFINED_CURVE_FONT('continuous');
#399 = OVER_RIDING_STYLED_ITEM('', (#395), #349, #389);
#400 = PRESENTATION_STYLE_ASSIGNMENT((#401));
#401 = CURVE_STYLE('', #403, POSITIVE_LENGTH_MEASURE(1.E-6), #402);
#402 = COLOUR_RGB('', 0., 0., 1.);
#403 = DRAUGHTING_PRE_DEFINED_CURVE_FONT('continuous');
#404 = OVER_RIDING_STYLED_ITEM('', (#400), #356, #389);
#405 = PRESENTATION_STYLE_ASSIGNMENT((#406));
#406 = CURVE_STYLE('', #408, POSITIVE_LENGTH_MEASURE(1.E-6), #407);
#407 = COLOUR_RGB('', 0., 0., 1.);
#408 = DRAUGHTING_PRE_DEFINED_CURVE_FONT('continuous');
#409 = OVER_RIDING_STYLED_ITEM('', (#405), #363, #389);
#410 = PRESENTATION_STYLE_ASSIGNMENT((#411));
#411 = CURVE_STYLE('', #413, POSITIVE_LENGTH_MEASURE(1.E-6), #412);
#412 = COLOUR_RGB('', 0., 0., 1.);
#413 = DRAUGHTING_PRE_DEFINED_CURVE_FONT('continuous');
#414 = OVER_RIDING_STYLED_ITEM('', (#410), #371, #389);
#415 = AXIS2_PLACEMENT_3D('CIP', #416, #417, #418);
#416 = CARTESIAN_POINT('', (9.59846260903589E-32, 1.56754790290861E-15, -25.6));
#417 = DIRECTION('', (-3.74939945665465E-33, -6.12323399573677E-17, 1.));
#418 = DIRECTION('', (1., -6.12323399573677E-17, 0.));
#419 = AXIS2_PLACEMENT_3D('MCS', #420, #421, #422);
#420 = CARTESIAN_POINT('', (0., 0., 0.));
#421 = DIRECTION('', (0., 0., 1.));
#422 = DIRECTION('', (1., 0., 0.));
#423 = AXIS2_PLACEMENT_3D('PCS', #424, #425, #426);
#424 = CARTESIAN_POINT('', (0., 0., 0.));
#425 = DIRECTION('', (0., 0., 1.));
#426 = DIRECTION('', (1., 0., 0.));
#427 = CARTESIAN_POINT('CRP', (12.5, 0., -25.6));
#428 = (
   GEOMETRIC_REPRESENTATION_CONTEXT (3)
   GLOBAL_UNCERTAINTY_ASSIGNED_CONTEXT ((#430))
   GLOBAL_UNIT_ASSIGNED_CONTEXT ((#429, #431, #432))
   REPRESENTATION_CONTEXT ('', '3D')
);
#429 = (
   LENGTH_UNIT ()
   NAMED_UNIT (*)
   SI_UNIT (.MILLI., .METRE.)
);
#430 = UNCERTAINTY_MEASURE_WITH_UNIT(LENGTH_MEASURE(1.E-6), #429, 'DISTANCE_ACCURACY_VALUE', '');
#431 = (
   NAMED_UNIT (*)
   SI_UNIT ($, .STERADIAN.)
   SOLID_ANGLE_UNIT ()
);
#432 = (
   NAMED_UNIT (*)
   PLANE_ANGLE_UNIT ()
   SI_UNIT ($, .RADIAN.)
);
#433 = SHAPE_REPRESENTATION('', (), #428);
#434 = PRODUCT_DEFINITION_SHAPE('', '', #435);
#435 = PRODUCT_DEFINITION('', '', #438, #442);
#436 = APPLICATION_CONTEXT('configuration controlled 3D designs of mechanical parts and assemblies');
#437 = APPLICATION_PROTOCOL_DEFINITION('International Standard', 'automotive_design', 2002, #436);
#438 = PRODUCT_DEFINITION_FORMATION_WITH_SPECIFIED_SOURCE('', '', #439, .NOT_KNOWN.);
#439 = PRODUCT('EmptyName', 'EmptyName', '', (#440));
#440 = PRODUCT_CONTEXT('', #436, 'mechanical');
#441 = PRODUCT_RELATED_PRODUCT_CATEGORY('detail', '', (#439));
#442 = PRODUCT_DEFINITION_CONTEXT('part definition', #436, 'design');
#443 = SHAPE_DEFINITION_REPRESENTATION(#434, #433);
#444 = CONSTRUCTIVE_GEOMETRY_REPRESENTATION('supplemental geometry', (#415, #419, #423), #428);
#445 = CONSTRUCTIVE_GEOMETRY_REPRESENTATION_RELATIONSHIP('', '', #433, #444);
#446 = SHAPE_REPRESENTATION_RELATIONSHIP('', '', #433, #447);
#447 = SHAPE_REPRESENTATION('', (#384), #428);
#448 = SHAPE_REPRESENTATION_RELATIONSHIP('', '', #433, #449);
#449 = ADVANCED_BREP_SHAPE_REPRESENTATION('', (#1, #234), #428);
ENDSEC;
END-ISO-10303-21;
