ISO-10303-21;
HEADER;
FILE_DESCRIPTION(('STEP'), '1');
FILE_NAME('C:\\Users\\ds2002\\OneDrive - Sandvik\\HomeShare\\Documents\\Batchrepair\\CorSRT2\\NEW_MILBN_SLD\\Output2\\MOD000000000000000020082344000000.stp', '2018-11-23T12:38:59', (''), (''), 'Express v3.0.0.0', 'Express Tool', 'Unknown');
FILE_SCHEMA(('AUTOMOTIVE_DESIGN'));
ENDSEC;

DATA;
#1 = MANIFOLD_SOLID_BREP('NOCUT', #2);
#2 = CLOSED_SHELL('', (#3, #50, #70, #117, #164, #173, #185, #216));
#3 = ADVANCED_FACE('', (#4), #31, .T.);
#4 = FACE_OUTER_BOUND('', #5, .T.);
#5 = EDGE_LOOP('', (#6, #16, #23, #24));
#6 = ORIENTED_EDGE('', *, *, #7, .F.);
#7 = EDGE_CURVE('', #8, #10, #12, .T.);
#8 = VERTEX_POINT('', #9);
#9 = CARTESIAN_POINT('', (-5.85, 3.58209188750601E-16, 0.));
#10 = VERTEX_POINT('', #11);
#11 = CARTESIAN_POINT('', (-5.85, 8.48067908409542E-16, -8.));
#12 = LINE('', #13, #14);
#13 = CARTESIAN_POINT('', (-5.85, 3.58209188750601E-16, 0.));
#14 = VECTOR('', #15, 8.);
#15 = DIRECTION('', (0., 4.89858719658941E-16, -8.));
#16 = ORIENTED_EDGE('', *, *, #17, .T.);
#17 = EDGE_CURVE('', #8, #8, #18, .T.);
#18 = CIRCLE('', #19, 5.85);
#19 = AXIS2_PLACEMENT_3D('', #20, #21, #22);
#20 = CARTESIAN_POINT('', (6.10622663543836E-16, -2.88657986402541E-15, -1.66400347195057E-31));
#21 = DIRECTION('', (5.51891951700315E-33, 6.12323399573677E-17, -1.));
#22 = DIRECTION('', (-1., 5.54664795346326E-16, 2.84445037940269E-32));
#23 = ORIENTED_EDGE('', *, *, #7, .T.);
#24 = ORIENTED_EDGE('', *, *, #25, .F.);
#25 = EDGE_CURVE('', #10, #10, #26, .T.);
#26 = CIRCLE('', #27, 5.85);
#27 = AXIS2_PLACEMENT_3D('', #28, #29, #30);
#28 = CARTESIAN_POINT('', (6.66133814775094E-16, 7.7715611723761E-16, -8.));
#29 = DIRECTION('', (0., 0., -1.));
#30 = DIRECTION('', (-1., -2.32807686124867E-16, 0.));
#31 = (
   BOUNDED_SURFACE ()
   B_SPLINE_SURFACE (2, 1, ((#32, #33), (#34, #35), (#36, #37), (#38, #39), (#40, #41), (#42, #43), (#44, #45), (#46, #47), (#48, #49)), .UNSPECIFIED., .T., .F., .U.)
   B_SPLINE_SURFACE_WITH_KNOTS ((3, 2, 2, 2, 3), (2, 2), (0., 9.18915851175015, 18.3783170235003, 27.5674755352504, 36.7566340470006), (0., 1.), .UNSPECIFIED.)
   GEOMETRIC_REPRESENTATION_ITEM ()
   RATIONAL_B_SPLINE_SURFACE (((1., 1.), (0.707106781186548, 0.707106781186548), (1., 1.), (0.707106781186548, 0.707106781186548), (1., 1.), (0.707106781186548, 0.707106781186548), (1., 1.), (0.707106781186548, 0.707106781186548), (1., 1.)))
   REPRESENTATION_ITEM ('')
   SURFACE ()
);
#32 = CARTESIAN_POINT('', (-5.85, 3.58209188750601E-16, 4.37905770101505E-47));
#33 = CARTESIAN_POINT('', (-5.85, 1.02434300352569E-15, -8.));
#34 = CARTESIAN_POINT('', (-5.85, 5.85, 4.87110352054287E-16));
#35 = CARTESIAN_POINT('', (-5.85, 5.85, -8.));
#36 = CARTESIAN_POINT('', (3.91353616180368E-15, 5.85, 4.87110352054287E-16));
#37 = CARTESIAN_POINT('', (3.91353616180368E-15, 5.85, -8.));
#38 = CARTESIAN_POINT('', (5.85, 5.84999999999999, 4.87110352054286E-16));
#39 = CARTESIAN_POINT('', (5.85, 5.84999999999999, -8.));
#40 = CARTESIAN_POINT('', (5.85, -8.52357500825065E-15, -4.58036155703807E-31));
#41 = CARTESIAN_POINT('', (5.85, -7.85744119347556E-15, -8.));
#42 = CARTESIAN_POINT('', (5.84999999999999, -5.85000000000001, -4.87110352054287E-16));
#43 = CARTESIAN_POINT('', (5.84999999999999, -5.85000000000001, -8.));
#44 = CARTESIAN_POINT('', (-4.25182965769637E-15, -5.85, -4.87110352054287E-16));
#45 = CARTESIAN_POINT('', (-4.25182965769637E-15, -5.85, -8.));
#46 = CARTESIAN_POINT('', (-5.85, -5.85, -4.87110352054287E-16));
#47 = CARTESIAN_POINT('', (-5.85, -5.85, -8.));
#48 = CARTESIAN_POINT('', (-5.85, 3.58209188750601E-16, 4.37905770101505E-47));
#49 = CARTESIAN_POINT('', (-5.85, 1.02434300352569E-15, -8.));
#50 = ADVANCED_FACE('', (#51, #54), #65, .T.);
#51 = FACE_OUTER_BOUND('', #52, .T.);
#52 = EDGE_LOOP('', (#53));
#53 = ORIENTED_EDGE('', *, *, #17, .F.);
#54 = FACE_BOUND('', #55, .T.);
#55 = EDGE_LOOP('', (#56));
#56 = ORIENTED_EDGE('', *, *, #57, .T.);
#57 = EDGE_CURVE('', #58, #58, #60, .T.);
#58 = VERTEX_POINT('', #59);
#59 = CARTESIAN_POINT('', (-4.615, 2.82587248903252E-16, 0.));
#60 = CIRCLE('', #61, 4.615);
#61 = AXIS2_PLACEMENT_3D('', #62, #63, #64);
#62 = CARTESIAN_POINT('', (2.77555756156289E-16, 0., -1.84889274661175E-32));
#63 = DIRECTION('', (-2.56868683349132E-34, 6.12323399573677E-17, -1.));
#64 = DIRECTION('', (-1., 6.12323399573677E-17, 4.00626814000378E-33));
#65 = B_SPLINE_SURFACE_WITH_KNOTS('', 1, 1, ((#66, #67), (#68, #69)), .UNSPECIFIED., .F., .F., .U., (2, 2), (2, 2), (3.25046427387087, 14.9504642738709), (3.25046427387087, 14.9504642738709), .UNSPECIFIED.);
#66 = CARTESIAN_POINT('', (5.85, -5.85, -3.58209188750601E-16));
#67 = CARTESIAN_POINT('', (-5.85, -5.85, -3.58209188750601E-16));
#68 = CARTESIAN_POINT('', (5.85, 5.85, 3.582091887506E-16));
#69 = CARTESIAN_POINT('', (-5.85, 5.85, 3.582091887506E-16));
#70 = ADVANCED_FACE('', (#71), #98, .T.);
#71 = FACE_OUTER_BOUND('', #72, .T.);
#72 = EDGE_LOOP('', (#73, #83, #90, #91));
#73 = ORIENTED_EDGE('', *, *, #74, .T.);
#74 = EDGE_CURVE('', #75, #77, #79, .T.);
#75 = VERTEX_POINT('', #76);
#76 = CARTESIAN_POINT('', (-4.52, 1.23689326713883E-16, 2.5));
#77 = VERTEX_POINT('', #78);
#78 = CARTESIAN_POINT('', (-3.75, -3.70455656742074E-16, 9.8));
#79 = LINE('', #80, #81);
#80 = CARTESIAN_POINT('', (-4.52, 1.23689326713883E-16, 2.5));
#81 = VECTOR('', #82, 7.34049725836064);
#82 = DIRECTION('', (0.77, -4.94144983455957E-16, 7.3));
#83 = ORIENTED_EDGE('', *, *, #84, .T.);
#84 = EDGE_CURVE('', #77, #77, #85, .T.);
#85 = CIRCLE('', #86, 3.75);
#86 = AXIS2_PLACEMENT_3D('', #87, #88, #89);
#87 = CARTESIAN_POINT('', (4.57966997657877E-16, -1.88737914186277E-15, 9.8));
#88 = DIRECTION('', (-6.52171648119238E-31, -1.61223931492666E-15, -1.));
#89 = DIRECTION('', (-1., 4.04512929365518E-16, 0.));
#90 = ORIENTED_EDGE('', *, *, #74, .F.);
#91 = ORIENTED_EDGE('', *, *, #92, .F.);
#92 = EDGE_CURVE('', #75, #75, #93, .T.);
#93 = CIRCLE('', #94, 4.52);
#94 = AXIS2_PLACEMENT_3D('', #95, #96, #97);
#95 = CARTESIAN_POINT('', (9.43689570931383E-16, -1.55431223447522E-15, 2.5));
#96 = DIRECTION('', (0., 0., -1.));
#97 = DIRECTION('', (-1., 3.71239283448916E-16, 0.));
#98 = (
   BOUNDED_SURFACE ()
   B_SPLINE_SURFACE (1, 2, ((#99, #100, #101, #102, #103, #104, #105, #106, #107), (#108, #109, #110, #111, #112, #113, #114, #115, #116)), .UNSPECIFIED., .F., .T., .U.)
   B_SPLINE_SURFACE_WITH_KNOTS ((2, 2), (3, 2, 2, 2, 3), (0., 1.), (0., 0.25, 0.5, 0.75, 1.), .UNSPECIFIED.)
   GEOMETRIC_REPRESENTATION_ITEM ()
   RATIONAL_B_SPLINE_SURFACE (((1., 0.707106781186548, 1., 0.707106781186548, 1., 0.707106781186548, 1., 0.707106781186548, 1.), (1., 0.707106781186548, 1., 0.707106781186548, 1., 0.707106781186548, 1., 0.707106781186548, 1.)))
   REPRESENTATION_ITEM ('')
   SURFACE ()
);
#99 = CARTESIAN_POINT('', (-4.52, 1.22473317480929E-15, 2.5));
#100 = CARTESIAN_POINT('', (-4.52, 4.52, 2.5));
#101 = CARTESIAN_POINT('', (1.55858566174582E-15, 4.52, 2.5));
#102 = CARTESIAN_POINT('', (4.52, 4.52, 2.5));
#103 = CARTESIAN_POINT('', (4.52, -5.05900681959131E-18, 2.5));
#104 = CARTESIAN_POINT('', (4.52, -4.52, 2.5));
#105 = CARTESIAN_POINT('', (8.82333833331547E-16, -4.52, 2.5));
#106 = CARTESIAN_POINT('', (-4.52, -4.52, 2.5));
#107 = CARTESIAN_POINT('', (-4.52, 1.22473317480929E-15, 2.5));
#108 = CARTESIAN_POINT('', (-3.75, -3.70455656742074E-16, 9.8));
#109 = CARTESIAN_POINT('', (-3.75, 3.75, 9.8));
#110 = CARTESIAN_POINT('', (1.45383566397434E-15, 3.75, 9.8));
#111 = CARTESIAN_POINT('', (3.75, 3.75, 9.8));
#112 = CARTESIAN_POINT('', (3.75, -1.39074784282798E-15, 9.8));
#113 = CARTESIAN_POINT('', (3.75, -3.75, 9.8));
#114 = CARTESIAN_POINT('', (8.92786027568686E-16, -3.75, 9.8));
#115 = CARTESIAN_POINT('', (-3.75, -3.75, 9.8));
#116 = CARTESIAN_POINT('', (-3.75, -3.70455656742074E-16, 9.8));
#117 = ADVANCED_FACE('', (#118), #145, .T.);
#118 = FACE_OUTER_BOUND('', #119, .T.);
#119 = EDGE_LOOP('', (#120, #130, #137, #138));
#120 = ORIENTED_EDGE('', *, *, #121, .T.);
#121 = EDGE_CURVE('', #122, #124, #126, .T.);
#122 = VERTEX_POINT('', #123);
#123 = CARTESIAN_POINT('', (-2.75, -4.31687996699442E-16, 9.8));
#124 = VERTEX_POINT('', #125);
#125 = CARTESIAN_POINT('', (-2.75, -6.76617356528913E-16, 13.8));
#126 = LINE('', #127, #128);
#127 = CARTESIAN_POINT('', (-2.75, -4.31687996699442E-16, 9.8));
#128 = VECTOR('', #129, 4.);
#129 = DIRECTION('', (0., -2.44929359829471E-16, 4.));
#130 = ORIENTED_EDGE('', *, *, #131, .T.);
#131 = EDGE_CURVE('', #124, #124, #132, .T.);
#132 = CIRCLE('', #133, 2.75);
#133 = AXIS2_PLACEMENT_3D('', #134, #135, #136);
#134 = CARTESIAN_POINT('', (-3.88578058618805E-16, -7.21644966006352E-16, 13.8));
#135 = DIRECTION('', (0., 0., -1.));
#136 = DIRECTION('', (-1., 1.63736761736141E-17, 0.));
#137 = ORIENTED_EDGE('', *, *, #121, .F.);
#138 = ORIENTED_EDGE('', *, *, #139, .F.);
#139 = EDGE_CURVE('', #122, #122, #140, .T.);
#140 = CIRCLE('', #141, 2.75);
#141 = AXIS2_PLACEMENT_3D('', #142, #143, #144);
#142 = CARTESIAN_POINT('', (-3.95516952522712E-16, -4.44089209850063E-16, 9.8));
#143 = DIRECTION('', (-9.91424300539641E-33, -2.19850815671817E-15, -1.));
#144 = DIRECTION('', (-1., 4.50953205477113E-18, 0.));
#145 = (
   BOUNDED_SURFACE ()
   B_SPLINE_SURFACE (1, 2, ((#146, #147, #148, #149, #150, #151, #152, #153, #154), (#155, #156, #157, #158, #159, #160, #161, #162, #163)), .UNSPECIFIED., .F., .T., .U.)
   B_SPLINE_SURFACE_WITH_KNOTS ((2, 2), (3, 2, 2, 2, 3), (0., 1.), (0., 4.31968989868598, 8.63937979737195, 12.9590696960579, 17.2787595947439), .UNSPECIFIED.)
   GEOMETRIC_REPRESENTATION_ITEM ()
   RATIONAL_B_SPLINE_SURFACE (((1., 0.707106781186548, 1., 0.707106781186548, 1., 0.707106781186548, 1., 0.707106781186548, 1.), (1., 0.707106781186548, 1., 0.707106781186548, 1., 0.707106781186548, 1., 0.707106781186548, 1.)))
   REPRESENTATION_ITEM ('')
   SURFACE ()
);
#146 = CARTESIAN_POINT('', (-2.75, -2.88039297910108E-16, 9.8));
#147 = CARTESIAN_POINT('', (-2.75, 2.75, 9.8));
#148 = CARTESIAN_POINT('', (-5.11939384024127E-16, 2.75, 9.8));
#149 = CARTESIAN_POINT('', (2.75, 2.75, 9.8));
#150 = CARTESIAN_POINT('', (2.75, -1.15153967172462E-15, 9.8));
#151 = CARTESIAN_POINT('', (2.75, -2.75, 9.8));
#152 = CARTESIAN_POINT('', (-1.03866188807312E-15, -2.75, 9.8));
#153 = CARTESIAN_POINT('', (-2.75, -2.75, 9.8));
#154 = CARTESIAN_POINT('', (-2.75, -2.88039297910108E-16, 9.8));
#155 = CARTESIAN_POINT('', (-2.75, -6.76617356528913E-16, 13.8));
#156 = CARTESIAN_POINT('', (-2.75, 2.75, 13.8));
#157 = CARTESIAN_POINT('', (-5.11939384024127E-16, 2.75, 13.8));
#158 = CARTESIAN_POINT('', (2.75, 2.75, 13.8));
#159 = CARTESIAN_POINT('', (2.75, -1.54011773034343E-15, 13.8));
#160 = CARTESIAN_POINT('', (2.75, -2.75, 13.8));
#161 = CARTESIAN_POINT('', (-1.03866188807312E-15, -2.75, 13.8));
#162 = CARTESIAN_POINT('', (-2.75, -2.75, 13.8));
#163 = CARTESIAN_POINT('', (-2.75, -6.76617356528913E-16, 13.8));
#164 = ADVANCED_FACE('', (#165), #168, .T.);
#165 = FACE_OUTER_BOUND('', #166, .T.);
#166 = EDGE_LOOP('', (#167));
#167 = ORIENTED_EDGE('', *, *, #131, .F.);
#168 = B_SPLINE_SURFACE_WITH_KNOTS('', 1, 1, ((#169, #170), (#171, #172)), .UNSPECIFIED., .F., .F., .U., (2, 2), (2, 2), (1.52799602617861, 7.02799602617861), (1.52799602617861, 7.02799602617861), .UNSPECIFIED.);
#169 = CARTESIAN_POINT('', (2.75, -2.75, 13.8));
#170 = CARTESIAN_POINT('', (-2.75, -2.75, 13.8));
#171 = CARTESIAN_POINT('', (2.75, 2.75, 13.8));
#172 = CARTESIAN_POINT('', (-2.75, 2.75, 13.8));
#173 = ADVANCED_FACE('', (#174, #177), #180, .T.);
#174 = FACE_OUTER_BOUND('', #175, .T.);
#175 = EDGE_LOOP('', (#176));
#176 = ORIENTED_EDGE('', *, *, #84, .F.);
#177 = FACE_BOUND('', #178, .T.);
#178 = EDGE_LOOP('', (#179));
#179 = ORIENTED_EDGE('', *, *, #139, .T.);
#180 = B_SPLINE_SURFACE_WITH_KNOTS('', 1, 1, ((#181, #182), (#183, #184)), .UNSPECIFIED., .F., .F., .U., (2, 2), (2, 2), (2.08363094478902, 9.58363094478902), (2.08363094478902, 9.58363094478902), .UNSPECIFIED.);
#181 = CARTESIAN_POINT('', (3.75, -3.75, 9.8));
#182 = CARTESIAN_POINT('', (-3.75, -3.75, 9.8));
#183 = CARTESIAN_POINT('', (3.75, 3.75, 9.8));
#184 = CARTESIAN_POINT('', (-3.75, 3.75, 9.8));
#185 = ADVANCED_FACE('', (#186), #197, .T.);
#186 = FACE_OUTER_BOUND('', #187, .T.);
#187 = EDGE_LOOP('', (#188, #194, #195, #196));
#188 = ORIENTED_EDGE('', *, *, #189, .T.);
#189 = EDGE_CURVE('', #58, #75, #190, .T.);
#190 = LINE('', #191, #192);
#191 = CARTESIAN_POINT('', (-4.615, 2.82587248903252E-16, 0.));
#192 = VECTOR('', #193, 2.50180434886503);
#193 = DIRECTION('', (0.0950000000000006, -1.58897922189369E-16, 2.5));
#194 = ORIENTED_EDGE('', *, *, #92, .T.);
#195 = ORIENTED_EDGE('', *, *, #189, .F.);
#196 = ORIENTED_EDGE('', *, *, #57, .F.);
#197 = (
   BOUNDED_SURFACE ()
   B_SPLINE_SURFACE (1, 2, ((#198, #199, #200, #201, #202, #203, #204, #205, #206), (#207, #208, #209, #210, #211, #212, #213, #214, #215)), .UNSPECIFIED., .F., .T., .U.)
   B_SPLINE_SURFACE_WITH_KNOTS ((2, 2), (3, 2, 2, 2, 3), (0., 1.), (0., 0.25, 0.5, 0.75, 1.), .UNSPECIFIED.)
   GEOMETRIC_REPRESENTATION_ITEM ()
   RATIONAL_B_SPLINE_SURFACE (((1., 0.707106781186548, 1., 0.707106781186548, 1., 0.707106781186548, 1., 0.707106781186548, 1.), (1., 0.707106781186548, 1., 0.707106781186548, 1., 0.707106781186548, 1., 0.707106781186548, 1.)))
   REPRESENTATION_ITEM ('')
   SURFACE ()
);
#198 = CARTESIAN_POINT('', (-4.615, -2.43422426491601E-15, 0.));
#199 = CARTESIAN_POINT('', (-4.615, 4.615, -4.71378491795349E-15));
#200 = CARTESIAN_POINT('', (-1.09311034030497E-15, 4.615, -4.71378491795349E-15));
#201 = CARTESIAN_POINT('', (4.615, 4.615, -4.71378491795349E-15));
#202 = CARTESIAN_POINT('', (4.615, -1.44149333577811E-15, -5.77272161164081E-31));
#203 = CARTESIAN_POINT('', (4.615, -4.615, 4.71378491795349E-15));
#204 = CARTESIAN_POINT('', (4.64795086639432E-16, -4.615, 4.71378491795349E-15));
#205 = CARTESIAN_POINT('', (-4.615, -4.615, 4.71378491795349E-15));
#206 = CARTESIAN_POINT('', (-4.615, -2.43422426491601E-15, 0.));
#207 = CARTESIAN_POINT('', (-4.52, 1.23689326713883E-16, 2.5));
#208 = CARTESIAN_POINT('', (-4.52, 4.52, 2.5));
#209 = CARTESIAN_POINT('', (-1.08289263301699E-15, 4.52, 2.5));
#210 = CARTESIAN_POINT('', (4.52, 4.52, 2.5));
#211 = CARTESIAN_POINT('', (4.52, 1.09598484127581E-15, 2.5));
#212 = CARTESIAN_POINT('', (4.52, -4.52, 2.5));
#213 = CARTESIAN_POINT('', (4.42943234759548E-16, -4.52, 2.5));
#214 = CARTESIAN_POINT('', (-4.52, -4.52, 2.5));
#215 = CARTESIAN_POINT('', (-4.52, 1.23689326713883E-16, 2.5));
#216 = ADVANCED_FACE('', (#217), #220, .T.);
#217 = FACE_OUTER_BOUND('', #218, .T.);
#218 = EDGE_LOOP('', (#219));
#219 = ORIENTED_EDGE('', *, *, #25, .T.);
#220 = B_SPLINE_SURFACE_WITH_KNOTS('', 1, 1, ((#221, #222), (#223, #224)), .UNSPECIFIED., .F., .F., .U., (2, 2), (2, 2), (30.3921559771746, 42.0921559771746), (23.9045215695032, 35.6045215695032), .UNSPECIFIED.);
#221 = CARTESIAN_POINT('', (-5.85, 5.85, -8.));
#222 = CARTESIAN_POINT('', (-5.85, -5.85, -8.));
#223 = CARTESIAN_POINT('', (5.85, 5.85, -8.));
#224 = CARTESIAN_POINT('', (5.85, -5.85, -8.));
#225 = DRAUGHTING_MODEL('', (#233, #341, #389, #394, #399, #404, #409, #414), #428);
#226 = PRESENTATION_STYLE_ASSIGNMENT((#227));
#227 = SURFACE_STYLE_USAGE(.POSITIVE., #228);
#228 = SURFACE_SIDE_STYLE('', (#229));
#229 = SURFACE_STYLE_FILL_AREA(#230);
#230 = FILL_AREA_STYLE('', (#231));
#231 = FILL_AREA_STYLE_COLOUR('', #232);
#232 = COLOUR_RGB('', 0.50196078431373, 0.50196078431373, 0.50196078431373);
#233 = STYLED_ITEM('', (#226), #1);
#234 = MANIFOLD_SOLID_BREP('CUT', #235);
#235 = CLOSED_SHELL('', (#236, #253, #292));
#236 = ADVANCED_FACE('', (#237), #248, .T.);
#237 = FACE_OUTER_BOUND('', #238, .T.);
#238 = EDGE_LOOP('', (#239));
#239 = ORIENTED_EDGE('', *, *, #240, .F.);
#240 = EDGE_CURVE('', #241, #241, #243, .T.);
#241 = VERTEX_POINT('', #242);
#242 = CARTESIAN_POINT('', (-6., 8.57252759403147E-16, -8.));
#243 = CIRCLE('', #244, 6.);
#244 = AXIS2_PLACEMENT_3D('', #245, #246, #247);
#245 = CARTESIAN_POINT('', (-1.66533453693773E-15, 4.44089209850063E-16, -8.));
#246 = DIRECTION('', (0., 0., -1.));
#247 = DIRECTION('', (-1., 6.88605915921808E-17, 0.));
#248 = B_SPLINE_SURFACE_WITH_KNOTS('', 1, 1, ((#249, #250), (#251, #252)), .UNSPECIFIED., .F., .F., .U., (2, 2), (2, 2), (3.33380951166243, 15.3338095116624), (3.33380951166243, 15.3338095116624), .UNSPECIFIED.);
#249 = CARTESIAN_POINT('', (6., -6., -8.));
#250 = CARTESIAN_POINT('', (-6., -6., -8.));
#251 = CARTESIAN_POINT('', (6., 6., -8.));
#252 = CARTESIAN_POINT('', (-6., 6., -8.));
#253 = ADVANCED_FACE('', (#254), #273, .T.);
#254 = FACE_OUTER_BOUND('', #255, .T.);
#255 = EDGE_LOOP('', (#256, #264, #265, #266));
#256 = ORIENTED_EDGE('', *, *, #257, .F.);
#257 = EDGE_CURVE('', #241, #258, #260, .T.);
#258 = VERTEX_POINT('', #259);
#259 = CARTESIAN_POINT('', (-6., 8.87868929381831E-16, -8.5));
#260 = LINE('', #261, #262);
#261 = CARTESIAN_POINT('', (-6., 8.57252759403147E-16, -8.));
#262 = VECTOR('', #263, 0.5);
#263 = DIRECTION('', (0., 3.0616169978684E-17, -0.5));
#264 = ORIENTED_EDGE('', *, *, #240, .T.);
#265 = ORIENTED_EDGE('', *, *, #257, .T.);
#266 = ORIENTED_EDGE('', *, *, #267, .F.);
#267 = EDGE_CURVE('', #258, #258, #268, .T.);
#268 = CIRCLE('', #269, 6.);
#269 = AXIS2_PLACEMENT_3D('', #270, #271, #272);
#270 = CARTESIAN_POINT('', (-1.66533453693773E-15, 7.7715611723761E-16, -8.5));
#271 = DIRECTION('', (0., 0., -1.));
#272 = DIRECTION('', (-1., 1.84521353573702E-17, 0.));
#273 = (
   BOUNDED_SURFACE ()
   B_SPLINE_SURFACE (2, 1, ((#274, #275), (#276, #277), (#278, #279), (#280, #281), (#282, #283), (#284, #285), (#286, #287), (#288, #289), (#290, #291)), .UNSPECIFIED., .T., .F., .U.)
   B_SPLINE_SURFACE_WITH_KNOTS ((3, 2, 2, 2, 3), (2, 2), (0., 9.42477796076938, 18.8495559215388, 28.2743338823081, 37.6991118430775), (0., 1.), .UNSPECIFIED.)
   GEOMETRIC_REPRESENTATION_ITEM ()
   RATIONAL_B_SPLINE_SURFACE (((1., 1.), (0.707106781186548, 0.707106781186548), (1., 1.), (0.707106781186548, 0.707106781186548), (1., 1.), (0.707106781186548, 0.707106781186548), (1., 1.), (0.707106781186548, 0.707106781186548), (1., 1.)))
   REPRESENTATION_ITEM ('')
   SURFACE ()
);
#274 = CARTESIAN_POINT('', (-6., 8.57252759403147E-16, -8.));
#275 = CARTESIAN_POINT('', (-6., 1.19031966679069E-15, -8.5));
#276 = CARTESIAN_POINT('', (-6., 6., -7.99999999999999));
#277 = CARTESIAN_POINT('', (-6., 6., -8.5));
#278 = CARTESIAN_POINT('', (1.62783731989973E-15, 6., -8.));
#279 = CARTESIAN_POINT('', (1.62783731989973E-15, 6., -8.5));
#280 = CARTESIAN_POINT('', (6., 6., -8.));
#281 = CARTESIAN_POINT('', (6., 6., -8.5));
#282 = CARTESIAN_POINT('', (6., -1.23268770453989E-15, -8.));
#283 = CARTESIAN_POINT('', (6., -8.99620797152345E-16, -8.5));
#284 = CARTESIAN_POINT('', (6., -6., -8.));
#285 = CARTESIAN_POINT('', (6., -6., -8.5));
#286 = CARTESIAN_POINT('', (2.726849354451E-16, -6., -8.));
#287 = CARTESIAN_POINT('', (2.726849354451E-16, -6., -8.5));
#288 = CARTESIAN_POINT('', (-6., -6., -8.));
#289 = CARTESIAN_POINT('', (-6., -6., -8.5));
#290 = CARTESIAN_POINT('', (-6., 8.57252759403147E-16, -8.));
#291 = CARTESIAN_POINT('', (-6., 1.19031966679069E-15, -8.5));
#292 = ADVANCED_FACE('', (#293), #306, .T.);
#293 = FACE_OUTER_BOUND('', #294, .T.);
#294 = EDGE_LOOP('', (#295, #304, #305));
#295 = ORIENTED_EDGE('', *, *, #296, .F.);
#296 = EDGE_CURVE('', #258, #297, #299, .T.);
#297 = VERTEX_POINT('', #298);
#298 = CARTESIAN_POINT('', (1.10218211923262E-15, 8.87868929381831E-16, -14.5));
#299 = CIRCLE('', #300, 6.);
#300 = AXIS2_PLACEMENT_3D('', #301, #302, #303);
#301 = CARTESIAN_POINT('', (3.5527136788005E-15, 5.20474889637622E-16, -8.5));
#302 = DIRECTION('', (-6.12323399573682E-17, -1., -6.12323399573682E-17));
#303 = DIRECTION('', (-1., 6.12323399573682E-17, -2.96059473233375E-16));
#304 = ORIENTED_EDGE('', *, *, #267, .T.);
#305 = ORIENTED_EDGE('', *, *, #296, .T.);
#306 = (
   BOUNDED_SURFACE ()
   B_SPLINE_SURFACE (2, 2, ((#307, #308, #309), (#310, #311, #312), (#313, #314, #315), (#316, #317, #318), (#319, #320, #321), (#322, #323, #324), (#325, #326, #327), (#328, #329, #330), (#331, #332, #333)), .UNSPECIFIED., .T., .F., .U.)
   B_SPLINE_SURFACE_WITH_KNOTS ((3, 2, 2, 2, 3), (3, 3), (0., 0.25, 0.5, 0.75, 1.), (0., 1.), .UNSPECIFIED.)
   GEOMETRIC_REPRESENTATION_ITEM ()
   RATIONAL_B_SPLINE_SURFACE (((1., 0.707106781186548, 1.), (0.707106781186548, 0.5, 0.707106781186548), (1., 0.707106781186548, 1.), (0.707106781186548, 0.5, 0.707106781186548), (1., 0.707106781186548, 1.), (0.707106781186548, 0.5, 0.707106781186548), (1., 0.707106781186548, 1.), (0.707106781186548, 0.5, 0.707106781186548), (1., 0.707106781186548, 1.)))
   REPRESENTATION_ITEM ('')
   SURFACE ()
);
#307 = CARTESIAN_POINT('', (-6., 8.87868929381831E-16, -8.5));
#308 = CARTESIAN_POINT('', (-6., 1.25526296912604E-15, -14.5));
#309 = CARTESIAN_POINT('', (1.10218211923262E-15, 8.87868929381831E-16, -14.5));
#310 = CARTESIAN_POINT('', (-6., 6., -8.5));
#311 = CARTESIAN_POINT('', (-6., 6., -14.5));
#312 = CARTESIAN_POINT('', (1.10218211923262E-15, 8.87868929381831E-16, -14.5));
#313 = CARTESIAN_POINT('', (-1.77635683940025E-15, 6., -8.5));
#314 = CARTESIAN_POINT('', (-1.40896279965604E-15, 6., -14.5));
#315 = CARTESIAN_POINT('', (1.10218211923262E-15, 8.87868929381831E-16, -14.5));
#316 = CARTESIAN_POINT('', (6., 6., -8.5));
#317 = CARTESIAN_POINT('', (6., 6., -14.5));
#318 = CARTESIAN_POINT('', (1.10218211923262E-15, 8.87868929381831E-16, -14.5));
#319 = CARTESIAN_POINT('', (6., 8.87868929381825E-16, -8.5));
#320 = CARTESIAN_POINT('', (6., 5.20474889637616E-16, -14.5));
#321 = CARTESIAN_POINT('', (1.10218211923262E-15, 8.87868929381831E-16, -14.5));
#322 = CARTESIAN_POINT('', (6., -6., -8.5));
#323 = CARTESIAN_POINT('', (6., -6., -14.5));
#324 = CARTESIAN_POINT('', (1.10218211923262E-15, 8.87868929381831E-16, -14.5));
#325 = CARTESIAN_POINT('', (-1.04156875991184E-15, -6., -8.5));
#326 = CARTESIAN_POINT('', (-1.40896279965605E-15, -6., -14.5));
#327 = CARTESIAN_POINT('', (1.10218211923262E-15, 8.87868929381831E-16, -14.5));
#328 = CARTESIAN_POINT('', (-6., -6., -8.5));
#329 = CARTESIAN_POINT('', (-6., -6., -14.5));
#330 = CARTESIAN_POINT('', (1.10218211923262E-15, 8.87868929381831E-16, -14.5));
#331 = CARTESIAN_POINT('', (-6., 8.87868929381831E-16, -8.5));
#332 = CARTESIAN_POINT('', (-6., 1.25526296912604E-15, -14.5));
#333 = CARTESIAN_POINT('', (1.10218211923262E-15, 8.87868929381831E-16, -14.5));
#334 = PRESENTATION_STYLE_ASSIGNMENT((#335));
#335 = SURFACE_STYLE_USAGE(.POSITIVE., #336);
#336 = SURFACE_SIDE_STYLE('', (#337));
#337 = SURFACE_STYLE_FILL_AREA(#338);
#338 = FILL_AREA_STYLE('', (#339));
#339 = FILL_AREA_STYLE_COLOUR('', #340);
#340 = COLOUR_RGB('', 0.8, 0.8, 0.8);
#341 = STYLED_ITEM('', (#334), #234);
#342 = TRIMMED_CURVE('cutting part line', #343, (#347), (#348), .T., .CARTESIAN.);
#343 = LINE('', #344, #345);
#344 = CARTESIAN_POINT('', (-8.99855869597115E-32, -4.89858719658941E-16, -8.));
#345 = VECTOR('', #346, 5.85);
#346 = DIRECTION('', (5.85, -1.0746275662518E-15, 0.));
#347 = CARTESIAN_POINT('', (-8.99855869597115E-32, -4.89858719658941E-16, -8.));
#348 = CARTESIAN_POINT('', (5.85, -1.56448628591074E-15, -8.));
#349 = TRIMMED_CURVE('cutting part line', #350, (#354), (#355), .T., .CARTESIAN.);
#350 = LINE('', #351, #352);
#351 = CARTESIAN_POINT('', (5.85, -1.56448628591074E-15, -8.));
#352 = VECTOR('', #353, 0.15);
#353 = DIRECTION('', (0.15, -2.75545529808153E-17, 0.));
#354 = CARTESIAN_POINT('', (5.85, -1.56448628591074E-15, -8.));
#355 = CARTESIAN_POINT('', (6., -1.59204083889156E-15, -8.));
#356 = TRIMMED_CURVE('cutting part line', #357, (#361), (#362), .T., .CARTESIAN.);
#357 = LINE('', #358, #359);
#358 = CARTESIAN_POINT('', (6., -1.59204083889156E-15, -8.));
#359 = VECTOR('', #360, 0.5);
#360 = DIRECTION('', (0., -3.0616169978684E-17, -0.5));
#361 = CARTESIAN_POINT('', (6., -1.59204083889156E-15, -8.));
#362 = CARTESIAN_POINT('', (6., -1.62265700887024E-15, -8.5));
#363 = TRIMMED_CURVE('cutting part line', #364, (#369), (#370), .T., .CARTESIAN.);
#364 = CIRCLE('', #365, 6.00000000000001);
#365 = AXIS2_PLACEMENT_3D('', #366, #367, #368);
#366 = CARTESIAN_POINT('', (-1.4210854715202E-14, -5.20474889637618E-16, -8.49999999999999));
#367 = DIRECTION('', (1.83697019872104E-16, 1., -6.12323399573683E-17));
#368 = DIRECTION('', (1., -1.83697019872104E-16, -2.36847578586699E-15));
#369 = CARTESIAN_POINT('', (6., -1.62265700887024E-15, -8.5));
#370 = CARTESIAN_POINT('', (-6.73803331785675E-15, -8.8786892938183E-16, -14.5));
#371 = TRIMMED_CURVE('cutting part line', #372, (#376), (#377), .T., .CARTESIAN.);
#372 = LINE('', #373, #374);
#373 = CARTESIAN_POINT('', (-1.63098876364477E-31, -8.87868929381831E-16, -14.5));
#374 = VECTOR('', #375, 6.5);
#375 = DIRECTION('', (7.31132894047655E-32, 3.9801020972289E-16, 6.5));
#376 = CARTESIAN_POINT('', (-1.63098876364477E-31, -8.87868929381831E-16, -14.5));
#377 = CARTESIAN_POINT('', (-8.99855869597115E-32, -4.89858719658941E-16, -8.));
#378 = COMPOSITE_CURVE('cutting part line', (#379, #380, #381, #382, #383), .U.);
#379 = COMPOSITE_CURVE_SEGMENT(.CONTINUOUS., .T., #342);
#380 = COMPOSITE_CURVE_SEGMENT(.CONTINUOUS., .T., #349);
#381 = COMPOSITE_CURVE_SEGMENT(.CONTINUOUS., .T., #356);
#382 = COMPOSITE_CURVE_SEGMENT(.CONTINUOUS., .T., #363);
#383 = COMPOSITE_CURVE_SEGMENT(.CONTINUOUS., .T., #371);
#384 = GEOMETRIC_SET('', (#378, #427));
#385 = PRESENTATION_STYLE_ASSIGNMENT((#386));
#386 = CURVE_STYLE('', #388, POSITIVE_LENGTH_MEASURE(1.E-6), #387);
#387 = COLOUR_RGB('', 0., 0., 1.);
#388 = DRAUGHTING_PRE_DEFINED_CURVE_FONT('continuous');
#389 = STYLED_ITEM('', (#385), #378);
#390 = PRESENTATION_STYLE_ASSIGNMENT((#391));
#391 = CURVE_STYLE('', #393, POSITIVE_LENGTH_MEASURE(1.E-6), #392);
#392 = COLOUR_RGB('', 0., 0., 1.);
#393 = DRAUGHTING_PRE_DEFINED_CURVE_FONT('continuous');
#394 = OVER_RIDING_STYLED_ITEM('', (#390), #342, #389);
#395 = PRESENTATION_STYLE_ASSIGNMENT((#396));
#396 = CURVE_STYLE('', #398, POSITIVE_LENGTH_MEASURE(1.E-6), #397);
#397 = COLOUR_RGB('', 0., 0., 1.);
#398 = DRAUGHTING_PRE_DEFINED_CURVE_FONT('continuous');
#399 = OVER_RIDING_STYLED_ITEM('', (#395), #349, #389);
#400 = PRESENTATION_STYLE_ASSIGNMENT((#401));
#401 = CURVE_STYLE('', #403, POSITIVE_LENGTH_MEASURE(1.E-6), #402);
#402 = COLOUR_RGB('', 0., 0., 1.);
#403 = DRAUGHTING_PRE_DEFINED_CURVE_FONT('continuous');
#404 = OVER_RIDING_STYLED_ITEM('', (#400), #356, #389);
#405 = PRESENTATION_STYLE_ASSIGNMENT((#406));
#406 = CURVE_STYLE('', #408, POSITIVE_LENGTH_MEASURE(1.E-6), #407);
#407 = COLOUR_RGB('', 0., 0., 1.);
#408 = DRAUGHTING_PRE_DEFINED_CURVE_FONT('continuous');
#409 = OVER_RIDING_STYLED_ITEM('', (#405), #363, #389);
#410 = PRESENTATION_STYLE_ASSIGNMENT((#411));
#411 = CURVE_STYLE('', #413, POSITIVE_LENGTH_MEASURE(1.E-6), #412);
#412 = COLOUR_RGB('', 0., 0., 1.);
#413 = DRAUGHTING_PRE_DEFINED_CURVE_FONT('continuous');
#414 = OVER_RIDING_STYLED_ITEM('', (#410), #371, #389);
#415 = AXIS2_PLACEMENT_3D('CIP', #416, #417, #418);
#416 = CARTESIAN_POINT('', (5.43662921214923E-32, 8.87868929381831E-16, -14.5));
#417 = DIRECTION('', (-3.74939945665465E-33, -6.12323399573677E-17, 1.));
#418 = DIRECTION('', (1., -6.12323399573677E-17, 0.));
#419 = AXIS2_PLACEMENT_3D('MCS', #420, #421, #422);
#420 = CARTESIAN_POINT('', (0., 0., 0.));
#421 = DIRECTION('', (0., 0., 1.));
#422 = DIRECTION('', (1., 0., 0.));
#423 = AXIS2_PLACEMENT_3D('PCS', #424, #425, #426);
#424 = CARTESIAN_POINT('', (0., 0., 0.));
#425 = DIRECTION('', (0., 0., 1.));
#426 = DIRECTION('', (1., 0., 0.));
#427 = CARTESIAN_POINT('CRP', (6., 0., -14.5));
#428 = (
   GEOMETRIC_REPRESENTATION_CONTEXT (3)
   GLOBAL_UNCERTAINTY_ASSIGNED_CONTEXT ((#430))
   GLOBAL_UNIT_ASSIGNED_CONTEXT ((#429, #431, #432))
   REPRESENTATION_CONTEXT ('', '3D')
);
#429 = (
   LENGTH_UNIT ()
   NAMED_UNIT (*)
   SI_UNIT (.MILLI., .METRE.)
);
#430 = UNCERTAINTY_MEASURE_WITH_UNIT(LENGTH_MEASURE(1.E-6), #429, 'DISTANCE_ACCURACY_VALUE', '');
#431 = (
   NAMED_UNIT (*)
   SI_UNIT ($, .STERADIAN.)
   SOLID_ANGLE_UNIT ()
);
#432 = (
   NAMED_UNIT (*)
   PLANE_ANGLE_UNIT ()
   SI_UNIT ($, .RADIAN.)
);
#433 = SHAPE_REPRESENTATION('', (), #428);
#434 = PRODUCT_DEFINITION_SHAPE('', '', #435);
#435 = PRODUCT_DEFINITION('', '', #438, #442);
#436 = APPLICATION_CONTEXT('configuration controlled 3D designs of mechanical parts and assemblies');
#437 = APPLICATION_PROTOCOL_DEFINITION('International Standard', 'automotive_design', 2002, #436);
#438 = PRODUCT_DEFINITION_FORMATION_WITH_SPECIFIED_SOURCE('', '', #439, .NOT_KNOWN.);
#439 = PRODUCT('EmptyName', 'EmptyName', '', (#440));
#440 = PRODUCT_CONTEXT('', #436, 'mechanical');
#441 = PRODUCT_RELATED_PRODUCT_CATEGORY('detail', '', (#439));
#442 = PRODUCT_DEFINITION_CONTEXT('part definition', #436, 'design');
#443 = SHAPE_DEFINITION_REPRESENTATION(#434, #433);
#444 = CONSTRUCTIVE_GEOMETRY_REPRESENTATION('supplemental geometry', (#415, #419, #423), #428);
#445 = CONSTRUCTIVE_GEOMETRY_REPRESENTATION_RELATIONSHIP('', '', #433, #444);
#446 = SHAPE_REPRESENTATION_RELATIONSHIP('', '', #433, #447);
#447 = SHAPE_REPRESENTATION('', (#384), #428);
#448 = SHAPE_REPRESENTATION_RELATIONSHIP('', '', #433, #449);
#449 = ADVANCED_BREP_SHAPE_REPRESENTATION('', (#1, #234), #428);
ENDSEC;
END-ISO-10303-21;
