ISO-10303-21;
HEADER;
/* Generated by software containing ST-Developer
 * from STEP Tools, Inc. (www.steptools.com) 
 */
/* OPTION: using custom schema-name function */

FILE_DESCRIPTION(
/* description */ (''),
/* implementation_level */ '2;1');

FILE_NAME(
/* name */ '1574160210107.stp',
/* time_stamp */ '2019-11-19T16:13:43+06:00',
/* author */ (''),
/* organization */ ('SMS'),
/* preprocessor_version */ 'ST-DEVELOPER v16.7',
/* originating_system */ 'SIEMENS PLM Software NX 12.0',
/* authorisation */ '');

FILE_SCHEMA (('AUTOMOTIVE_DESIGN { 1 0 10303 214 3 1 1 1 }'));
ENDSEC;

DATA;
#10=CONSTRUCTIVE_GEOMETRY_REPRESENTATION_RELATIONSHIP(
'supplemental geometry','',#26,#11);
#11=CONSTRUCTIVE_GEOMETRY_REPRESENTATION('supplemental geometry',(#222,
#223,#224),#369);
#12=GEOMETRICALLY_BOUNDED_WIREFRAME_SHAPE_REPRESENTATION(
'201993786mod000_00-None',(#27),#369);
#13=SHAPE_REPRESENTATION_RELATIONSHIP('None',
'relationship between 201993786mod000_00-None and 201993786mod000_00-N
one',#26,#15);
#14=SHAPE_REPRESENTATION_RELATIONSHIP('None',
'relationship between 201993786mod000_00-None and 201993786mod000_00-N
one',#26,#12);
#15=ADVANCED_BREP_SHAPE_REPRESENTATION('201993786mod000_00-None',(#33),
#369);
#16=SHAPE_DEFINITION_REPRESENTATION(#17,#26);
#17=PRODUCT_DEFINITION_SHAPE('','',#18);
#18=PRODUCT_DEFINITION(' ','',#20,#19);
#19=PRODUCT_DEFINITION_CONTEXT('part definition',#25,'design');
#20=PRODUCT_DEFINITION_FORMATION_WITH_SPECIFIED_SOURCE(' ',' ',#22,
 .NOT_KNOWN.);
#21=PRODUCT_RELATED_PRODUCT_CATEGORY('part','',(#22));
#22=PRODUCT('201993786mod000_00','201993786mod000_00',' ',(#23));
#23=PRODUCT_CONTEXT(' ',#25,'mechanical');
#24=APPLICATION_PROTOCOL_DEFINITION('international standard',
'automotive_design',2010,#25);
#25=APPLICATION_CONTEXT(
'core data for automotive mechanical design processes');
#26=SHAPE_REPRESENTATION('201993786mod000_00-None',(#221),#369);
#27=GEOMETRIC_CURVE_SET('None',(#312,#313,#314));
#28=SURFACE_STYLE_USAGE(.BOTH.,#29);
#29=SURFACE_SIDE_STYLE('',(#30));
#30=SURFACE_STYLE_FILL_AREA(#31);
#31=FILL_AREA_STYLE('',(#32));
#32=FILL_AREA_STYLE_COLOUR('',#220);
#33=MANIFOLD_SOLID_BREP('NOCUT',#34);
#34=CLOSED_SHELL('',(#55,#56,#57,#58,#59,#60,#61,#62,#63,#64,#65,#66,#67));
#35=B_SPLINE_CURVE_WITH_KNOTS('',3,(#356,#357,#358,#359),.UNSPECIFIED.,
 .F.,.F.,(4,4),(0.,1.),.UNSPECIFIED.);
#36=B_SPLINE_CURVE_WITH_KNOTS('',3,(#360,#361,#362,#363),.UNSPECIFIED.,
 .F.,.F.,(4,4),(0.,1.),.UNSPECIFIED.);
#37=FACE_OUTER_BOUND('',#109,.T.);
#38=FACE_OUTER_BOUND('',#110,.T.);
#39=FACE_OUTER_BOUND('',#115,.T.);
#40=ELLIPSE('',#240,17.6776695296638,12.5);
#41=LINE('',#340,#44);
#42=LINE('',#345,#45);
#43=LINE('',#354,#46);
#44=VECTOR('',#286,1.);
#45=VECTOR('',#289,1.);
#46=VECTOR('',#300,1.);
#47=CYLINDRICAL_SURFACE('',#234,15.);
#48=CYLINDRICAL_SURFACE('',#241,12.5);
#49=CYLINDRICAL_SURFACE('',#244,10.0000000000001);
#50=CONICAL_SURFACE('',#232,14.5,44.9999999999998);
#51=CONICAL_SURFACE('',#236,15.,44.9999999999999);
#52=CONICAL_SURFACE('',#247,10.5000000000001,45.);
#53=CONICAL_SURFACE('',#248,10.0000000000001,45.);
#54=CONICAL_SURFACE('',#249,11.5,45.);
#55=ADVANCED_FACE('',(#73,#74),#68,.F.);
#56=ADVANCED_FACE('',(#75,#76),#69,.F.);
#57=ADVANCED_FACE('',(#77,#78),#50,.T.);
#58=ADVANCED_FACE('',(#79,#80),#47,.T.);
#59=ADVANCED_FACE('',(#81,#82),#51,.T.);
#60=ADVANCED_FACE('',(#83,#84),#70,.F.);
#61=ADVANCED_FACE('',(#85,#86),#48,.T.);
#62=ADVANCED_FACE('',(#87,#88),#49,.F.);
#63=ADVANCED_FACE('',(#37),#71,.F.);
#64=ADVANCED_FACE('',(#38),#72,.F.);
#65=ADVANCED_FACE('',(#89,#90),#52,.F.);
#66=ADVANCED_FACE('',(#91,#92),#53,.F.);
#67=ADVANCED_FACE('',(#39),#54,.T.);
#68=PLANE('',#227);
#69=PLANE('',#230);
#70=PLANE('',#238);
#71=PLANE('',#245);
#72=PLANE('',#246);
#73=FACE_BOUND('',#93,.T.);
#74=FACE_BOUND('',#94,.T.);
#75=FACE_BOUND('',#95,.T.);
#76=FACE_BOUND('',#96,.T.);
#77=FACE_BOUND('',#97,.T.);
#78=FACE_BOUND('',#98,.T.);
#79=FACE_BOUND('',#99,.T.);
#80=FACE_BOUND('',#100,.T.);
#81=FACE_BOUND('',#101,.T.);
#82=FACE_BOUND('',#102,.T.);
#83=FACE_BOUND('',#103,.T.);
#84=FACE_BOUND('',#104,.T.);
#85=FACE_BOUND('',#105,.T.);
#86=FACE_BOUND('',#106,.T.);
#87=FACE_BOUND('',#107,.T.);
#88=FACE_BOUND('',#108,.T.);
#89=FACE_BOUND('',#111,.T.);
#90=FACE_BOUND('',#112,.T.);
#91=FACE_BOUND('',#113,.T.);
#92=FACE_BOUND('',#114,.T.);
#93=EDGE_LOOP('',(#116));
#94=EDGE_LOOP('',(#117));
#95=EDGE_LOOP('',(#118));
#96=EDGE_LOOP('',(#119));
#97=EDGE_LOOP('',(#120));
#98=EDGE_LOOP('',(#121));
#99=EDGE_LOOP('',(#122));
#100=EDGE_LOOP('',(#123));
#101=EDGE_LOOP('',(#124));
#102=EDGE_LOOP('',(#125));
#103=EDGE_LOOP('',(#126));
#104=EDGE_LOOP('',(#127));
#105=EDGE_LOOP('',(#128,#129,#130,#131));
#106=EDGE_LOOP('',(#132));
#107=EDGE_LOOP('',(#133));
#108=EDGE_LOOP('',(#134));
#109=EDGE_LOOP('',(#135,#136));
#110=EDGE_LOOP('',(#137,#138,#139,#140,#141));
#111=EDGE_LOOP('',(#142));
#112=EDGE_LOOP('',(#143));
#113=EDGE_LOOP('',(#144));
#114=EDGE_LOOP('',(#145));
#115=EDGE_LOOP('',(#146,#147,#148,#149));
#116=ORIENTED_EDGE('',*,*,#164,.T.);
#117=ORIENTED_EDGE('',*,*,#165,.T.);
#118=ORIENTED_EDGE('',*,*,#166,.T.);
#119=ORIENTED_EDGE('',*,*,#167,.F.);
#120=ORIENTED_EDGE('',*,*,#168,.F.);
#121=ORIENTED_EDGE('',*,*,#167,.T.);
#122=ORIENTED_EDGE('',*,*,#169,.F.);
#123=ORIENTED_EDGE('',*,*,#168,.T.);
#124=ORIENTED_EDGE('',*,*,#170,.F.);
#125=ORIENTED_EDGE('',*,*,#169,.T.);
#126=ORIENTED_EDGE('',*,*,#171,.F.);
#127=ORIENTED_EDGE('',*,*,#170,.T.);
#128=ORIENTED_EDGE('',*,*,#172,.T.);
#129=ORIENTED_EDGE('',*,*,#173,.T.);
#130=ORIENTED_EDGE('',*,*,#174,.T.);
#131=ORIENTED_EDGE('',*,*,#175,.T.);
#132=ORIENTED_EDGE('',*,*,#171,.T.);
#133=ORIENTED_EDGE('',*,*,#176,.T.);
#134=ORIENTED_EDGE('',*,*,#177,.T.);
#135=ORIENTED_EDGE('',*,*,#178,.T.);
#136=ORIENTED_EDGE('',*,*,#175,.F.);
#137=ORIENTED_EDGE('',*,*,#179,.T.);
#138=ORIENTED_EDGE('',*,*,#180,.T.);
#139=ORIENTED_EDGE('',*,*,#172,.F.);
#140=ORIENTED_EDGE('',*,*,#178,.F.);
#141=ORIENTED_EDGE('',*,*,#174,.F.);
#142=ORIENTED_EDGE('',*,*,#177,.F.);
#143=ORIENTED_EDGE('',*,*,#166,.F.);
#144=ORIENTED_EDGE('',*,*,#165,.F.);
#145=ORIENTED_EDGE('',*,*,#176,.F.);
#146=ORIENTED_EDGE('',*,*,#179,.F.);
#147=ORIENTED_EDGE('',*,*,#173,.F.);
#148=ORIENTED_EDGE('',*,*,#180,.F.);
#149=ORIENTED_EDGE('',*,*,#164,.F.);
#150=VERTEX_POINT('',#319);
#151=VERTEX_POINT('',#321);
#152=VERTEX_POINT('',#324);
#153=VERTEX_POINT('',#326);
#154=VERTEX_POINT('',#329);
#155=VERTEX_POINT('',#332);
#156=VERTEX_POINT('',#335);
#157=VERTEX_POINT('',#338);
#158=VERTEX_POINT('',#341);
#159=VERTEX_POINT('',#342);
#160=VERTEX_POINT('',#344);
#161=VERTEX_POINT('',#346);
#162=VERTEX_POINT('',#350);
#163=VERTEX_POINT('',#352);
#164=EDGE_CURVE('',#150,#150,#181,.T.);
#165=EDGE_CURVE('',#151,#151,#182,.T.);
#166=EDGE_CURVE('',#152,#152,#183,.T.);
#167=EDGE_CURVE('',#153,#153,#184,.T.);
#168=EDGE_CURVE('',#154,#154,#185,.T.);
#169=EDGE_CURVE('',#155,#155,#186,.T.);
#170=EDGE_CURVE('',#156,#156,#187,.T.);
#171=EDGE_CURVE('',#157,#157,#188,.T.);
#172=EDGE_CURVE('',#158,#159,#41,.T.);
#173=EDGE_CURVE('',#159,#160,#189,.T.);
#174=EDGE_CURVE('',#160,#161,#42,.T.);
#175=EDGE_CURVE('',#161,#158,#40,.T.);
#176=EDGE_CURVE('',#162,#162,#190,.T.);
#177=EDGE_CURVE('',#163,#163,#191,.T.);
#178=EDGE_CURVE('',#161,#158,#43,.T.);
#179=EDGE_CURVE('',#160,#150,#35,.T.);
#180=EDGE_CURVE('',#150,#159,#36,.T.);
#181=CIRCLE('',#225,11.5);
#182=CIRCLE('',#226,11.0000000000001);
#183=CIRCLE('',#228,10.5000000000001);
#184=CIRCLE('',#229,14.5);
#185=CIRCLE('',#231,15.);
#186=CIRCLE('',#233,15.);
#187=CIRCLE('',#235,14.5);
#188=CIRCLE('',#237,12.5);
#189=CIRCLE('',#239,12.5);
#190=CIRCLE('',#242,10.0000000000001);
#191=CIRCLE('',#243,10.0000000000001);
#192=CURVE_STYLE('',#195,POSITIVE_LENGTH_MEASURE(0.18),#219);
#193=CURVE_STYLE('',#196,POSITIVE_LENGTH_MEASURE(0.18),#219);
#194=CURVE_STYLE('',#197,POSITIVE_LENGTH_MEASURE(0.18),#219);
#195=DRAUGHTING_PRE_DEFINED_CURVE_FONT('continuous');
#196=DRAUGHTING_PRE_DEFINED_CURVE_FONT('continuous');
#197=DRAUGHTING_PRE_DEFINED_CURVE_FONT('continuous');
#198=PRESENTATION_LAYER_ASSIGNMENT('1','Layer 1',(#312,#313,#314,#222,#223,
#224,#33));
#199=STYLED_ITEM('',(#206),#312);
#200=STYLED_ITEM('',(#207),#313);
#201=STYLED_ITEM('',(#208),#314);
#202=STYLED_ITEM('',(#209),#222);
#203=STYLED_ITEM('',(#210),#223);
#204=STYLED_ITEM('',(#211),#224);
#205=STYLED_ITEM('',(#212),#33);
#206=PRESENTATION_STYLE_ASSIGNMENT((#213));
#207=PRESENTATION_STYLE_ASSIGNMENT((#214));
#208=PRESENTATION_STYLE_ASSIGNMENT((#215));
#209=PRESENTATION_STYLE_ASSIGNMENT((#192));
#210=PRESENTATION_STYLE_ASSIGNMENT((#193));
#211=PRESENTATION_STYLE_ASSIGNMENT((#194));
#212=PRESENTATION_STYLE_ASSIGNMENT((#28));
#213=POINT_STYLE('',#216,POSITIVE_LENGTH_MEASURE(3.),#219);
#214=POINT_STYLE('',#217,POSITIVE_LENGTH_MEASURE(3.),#219);
#215=POINT_STYLE('',#218,POSITIVE_LENGTH_MEASURE(3.),#219);
#216=PRE_DEFINED_POINT_MARKER_SYMBOL('plus');
#217=PRE_DEFINED_POINT_MARKER_SYMBOL('plus');
#218=PRE_DEFINED_POINT_MARKER_SYMBOL('plus');
#219=COLOUR_RGB('Medium Maroon',0.6,0.4,0.4);
#220=COLOUR_RGB('Medium Gray',0.501960784313725,0.501960784313725,0.501960784313725);
#221=AXIS2_PLACEMENT_3D('',#311,#250,#251);
#222=AXIS2_PLACEMENT_3D('PCS',#315,#252,#253);
#223=AXIS2_PLACEMENT_3D('MCS',#316,#254,#255);
#224=AXIS2_PLACEMENT_3D('CSW',#317,#256,#257);
#225=AXIS2_PLACEMENT_3D('',#318,#258,#259);
#226=AXIS2_PLACEMENT_3D('',#320,#260,#261);
#227=AXIS2_PLACEMENT_3D('',#322,#262,#263);
#228=AXIS2_PLACEMENT_3D('',#323,#264,#265);
#229=AXIS2_PLACEMENT_3D('',#325,#266,#267);
#230=AXIS2_PLACEMENT_3D('',#327,#268,#269);
#231=AXIS2_PLACEMENT_3D('',#328,#270,#271);
#232=AXIS2_PLACEMENT_3D('',#330,#272,#273);
#233=AXIS2_PLACEMENT_3D('',#331,#274,#275);
#234=AXIS2_PLACEMENT_3D('',#333,#276,#277);
#235=AXIS2_PLACEMENT_3D('',#334,#278,#279);
#236=AXIS2_PLACEMENT_3D('',#336,#280,#281);
#237=AXIS2_PLACEMENT_3D('',#337,#282,#283);
#238=AXIS2_PLACEMENT_3D('',#339,#284,#285);
#239=AXIS2_PLACEMENT_3D('',#343,#287,#288);
#240=AXIS2_PLACEMENT_3D('',#347,#290,#291);
#241=AXIS2_PLACEMENT_3D('',#348,#292,#293);
#242=AXIS2_PLACEMENT_3D('',#349,#294,#295);
#243=AXIS2_PLACEMENT_3D('',#351,#296,#297);
#244=AXIS2_PLACEMENT_3D('',#353,#298,#299);
#245=AXIS2_PLACEMENT_3D('',#355,#301,#302);
#246=AXIS2_PLACEMENT_3D('',#364,#303,#304);
#247=AXIS2_PLACEMENT_3D('',#365,#305,#306);
#248=AXIS2_PLACEMENT_3D('',#366,#307,#308);
#249=AXIS2_PLACEMENT_3D('',#367,#309,#310);
#250=DIRECTION('',(0.,0.,1.));
#251=DIRECTION('',(1.,0.,0.));
#252=DIRECTION('',(0.,0.,1.));
#253=DIRECTION('',(1.,0.,0.));
#254=DIRECTION('',(0.,0.,1.));
#255=DIRECTION('',(1.,0.,0.));
#256=DIRECTION('',(0.,0.,1.));
#257=DIRECTION('',(1.,0.,0.));
#258=DIRECTION('',(0.,0.,1.));
#259=DIRECTION('',(0.,-1.,0.));
#260=DIRECTION('',(0.,0.,-1.));
#261=DIRECTION('',(0.,-1.,0.));
#262=DIRECTION('',(0.,0.,-1.));
#263=DIRECTION('',(0.,-1.,0.));
#264=DIRECTION('',(0.,0.,1.));
#265=DIRECTION('',(0.,1.,0.));
#266=DIRECTION('',(0.,0.,1.));
#267=DIRECTION('',(0.,1.,0.));
#268=DIRECTION('',(0.,0.,1.));
#269=DIRECTION('',(0.,1.,0.));
#270=DIRECTION('',(0.,0.,1.));
#271=DIRECTION('',(0.,1.,0.));
#272=DIRECTION('',(0.,0.,1.));
#273=DIRECTION('',(0.,1.,6.83971799300865E-18));
#274=DIRECTION('',(0.,0.,1.));
#275=DIRECTION('',(0.,1.,0.));
#276=DIRECTION('',(0.,0.,1.));
#277=DIRECTION('',(0.,1.,0.));
#278=DIRECTION('',(0.,0.,1.));
#279=DIRECTION('',(0.,1.,0.));
#280=DIRECTION('',(0.,0.,-1.));
#281=DIRECTION('',(0.,-1.,5.4690789390402E-17));
#282=DIRECTION('',(0.,0.,1.));
#283=DIRECTION('',(0.,1.,0.));
#284=DIRECTION('',(0.,0.,-1.));
#285=DIRECTION('',(0.,-1.,0.));
#286=DIRECTION('',(0.,0.,1.));
#287=DIRECTION('',(0.,0.,-1.));
#288=DIRECTION('',(0.,-1.,0.));
#289=DIRECTION('',(0.,0.,-1.));
#290=DIRECTION('',(0.,0.707106781186552,-0.707106781186543));
#291=DIRECTION('',(0.,0.707106781186543,0.707106781186552));
#292=DIRECTION('',(0.,0.,1.));
#293=DIRECTION('',(0.,1.,0.));
#294=DIRECTION('',(0.,0.,1.));
#295=DIRECTION('',(0.,-1.,0.));
#296=DIRECTION('',(0.,0.,-1.));
#297=DIRECTION('',(0.,1.,0.));
#298=DIRECTION('',(0.,0.,1.));
#299=DIRECTION('',(0.,1.,0.));
#300=DIRECTION('',(-1.,0.,0.));
#301=DIRECTION('',(0.,0.707106781186552,-0.707106781186543));
#302=DIRECTION('',(0.,-0.707106781186543,-0.707106781186552));
#303=DIRECTION('',(0.,1.,0.));
#304=DIRECTION('',(0.,0.,-1.));
#305=DIRECTION('',(0.,0.,-1.));
#306=DIRECTION('',(0.,-1.,-1.03001888726975E-16));
#307=DIRECTION('',(0.,0.,1.));
#308=DIRECTION('',(0.,1.,-5.49615358725325E-17));
#309=DIRECTION('',(0.,0.,-1.));
#310=DIRECTION('',(0.,-1.,5.48800308761817E-17));
#311=CARTESIAN_POINT('',(0.,0.,0.));
#312=CARTESIAN_POINT('PCS',(0.,0.,0.));
#313=CARTESIAN_POINT('MCS',(0.,0.,0.));
#314=CARTESIAN_POINT('CSW',(0.,0.,-5.));
#315=CARTESIAN_POINT('',(0.,0.,0.));
#316=CARTESIAN_POINT('',(0.,0.,0.));
#317=CARTESIAN_POINT('',(0.,0.,-5.));
#318=CARTESIAN_POINT('',(0.,0.,56.));
#319=CARTESIAN_POINT('',(0.,-11.5,56.));
#320=CARTESIAN_POINT('',(0.,0.,56.));
#321=CARTESIAN_POINT('',(0.,-11.0000000000001,56.));
#322=CARTESIAN_POINT('',(0.,-10.0000000000001,56.));
#323=CARTESIAN_POINT('',(0.,0.,-5.00000000000001));
#324=CARTESIAN_POINT('',(0.,10.5000000000001,-5.00000000000001));
#325=CARTESIAN_POINT('',(0.,0.,-5.00000000000001));
#326=CARTESIAN_POINT('',(0.,14.5,-5.00000000000001));
#327=CARTESIAN_POINT('',(0.,-10.,-5.00000000000001));
#328=CARTESIAN_POINT('',(0.,0.,-4.50000000000001));
#329=CARTESIAN_POINT('',(0.,15.,-4.50000000000001));
#330=CARTESIAN_POINT('',(0.,0.,-5.00000000000001));
#331=CARTESIAN_POINT('',(0.,0.,-0.5));
#332=CARTESIAN_POINT('',(0.,15.,-0.5));
#333=CARTESIAN_POINT('',(0.,0.,56.));
#334=CARTESIAN_POINT('',(0.,0.,0.));
#335=CARTESIAN_POINT('',(0.,14.5,0.));
#336=CARTESIAN_POINT('',(0.,0.,-0.5));
#337=CARTESIAN_POINT('',(0.,0.,0.));
#338=CARTESIAN_POINT('',(0.,12.5,0.));
#339=CARTESIAN_POINT('',(0.,-14.5,0.));
#340=CARTESIAN_POINT('',(-4.89897948556636,-11.5,56.));
#341=CARTESIAN_POINT('',(-4.89897948556636,-11.5,8.00000000000001));
#342=CARTESIAN_POINT('',(-4.89897948556636,-11.5,55.));
#343=CARTESIAN_POINT('',(0.,0.,55.));
#344=CARTESIAN_POINT('',(4.89897948556636,-11.5,55.));
#345=CARTESIAN_POINT('',(4.89897948556636,-11.5,56.));
#346=CARTESIAN_POINT('',(4.89897948556636,-11.5,8.00000000000001));
#347=CARTESIAN_POINT('',(0.,0.,19.5000000000002));
#348=CARTESIAN_POINT('',(0.,0.,56.));
#349=CARTESIAN_POINT('',(0.,0.,55.));
#350=CARTESIAN_POINT('',(0.,-10.0000000000001,55.));
#351=CARTESIAN_POINT('',(0.,0.,-4.50000000000001));
#352=CARTESIAN_POINT('',(0.,10.0000000000001,-4.50000000000001));
#353=CARTESIAN_POINT('',(0.,0.,56.));
#354=CARTESIAN_POINT('',(-5.,-11.5,8.00000000000001));
#355=CARTESIAN_POINT('',(-5.,-12.5,7.));
#356=CARTESIAN_POINT('',(4.89897948556636,-11.5,55.));
#357=CARTESIAN_POINT('',(3.32394750075207,-11.5,55.6172839506173));
#358=CARTESIAN_POINT('',(1.70103454359943,-11.5,56.));
#359=CARTESIAN_POINT('',(6.82442267953209E-16,-11.5,56.));
#360=CARTESIAN_POINT('',(0.,-11.5,56.));
#361=CARTESIAN_POINT('',(-1.69212489417286,-11.5,56.));
#362=CARTESIAN_POINT('',(-3.32840053499446,-11.5,55.6155387247451));
#363=CARTESIAN_POINT('',(-4.89897948556636,-11.5,55.));
#364=CARTESIAN_POINT('',(-5.,-11.5,8.00000000000001));
#365=CARTESIAN_POINT('',(0.,0.,-5.00000000000001));
#366=CARTESIAN_POINT('',(0.,0.,55.));
#367=CARTESIAN_POINT('',(0.,0.,56.));
#368=MECHANICAL_DESIGN_GEOMETRIC_PRESENTATION_REPRESENTATION('',(#199,#200,
#201,#202,#203,#204,#205),#369);
#369=(
GEOMETRIC_REPRESENTATION_CONTEXT(3)
GLOBAL_UNCERTAINTY_ASSIGNED_CONTEXT((#370))
GLOBAL_UNIT_ASSIGNED_CONTEXT((#376,#372,#371))
REPRESENTATION_CONTEXT('1574160210107','TOP_LEVEL_ASSEMBLY_PART')
);
#370=UNCERTAINTY_MEASURE_WITH_UNIT(LENGTH_MEASURE(0.0508),#376,
'DISTANCE_ACCURACY_VALUE','Maximum Tolerance applied to model');
#371=(
NAMED_UNIT(*)
SI_UNIT($,.STERADIAN.)
SOLID_ANGLE_UNIT()
);
#372=(
CONVERSION_BASED_UNIT('DEGREE',#374)
NAMED_UNIT(#373)
PLANE_ANGLE_UNIT()
);
#373=DIMENSIONAL_EXPONENTS(0.,0.,0.,0.,0.,0.,0.);
#374=PLANE_ANGLE_MEASURE_WITH_UNIT(PLANE_ANGLE_MEASURE(0.0174532925),#375);
#375=(
NAMED_UNIT(*)
PLANE_ANGLE_UNIT()
SI_UNIT($,.RADIAN.)
);
#376=(
LENGTH_UNIT()
NAMED_UNIT(*)
SI_UNIT(.MILLI.,.METRE.)
);
ENDSEC;
END-ISO-10303-21;
