ISO-10303-21;
HEADER;
/* Generated by software containing ST-Developer
 * from STEP Tools, Inc. (www.steptools.com) 
 */
/* OPTION: using custom schema-name function */

FILE_DESCRIPTION(
/* description */ (''),
/* implementation_level */ '2;1');

FILE_NAME(
/* name */ '1574159805868.stp',
/* time_stamp */ '2019-11-19T16:06:59+06:00',
/* author */ (''),
/* organization */ ('SMS'),
/* preprocessor_version */ 'ST-DEVELOPER v16.7',
/* originating_system */ 'SIEMENS PLM Software NX 12.0',
/* authorisation */ '');

FILE_SCHEMA (('AUTOMOTIVE_DESIGN { 1 0 10303 214 3 1 1 1 }'));
ENDSEC;

DATA;
#10=CONSTRUCTIVE_GEOMETRY_REPRESENTATION_RELATIONSHIP(
'supplemental geometry','',#26,#11);
#11=CONSTRUCTIVE_GEOMETRY_REPRESENTATION('supplemental geometry',(#228,
#229,#230),#378);
#12=GEOMETRICALLY_BOUNDED_WIREFRAME_SHAPE_REPRESENTATION(
'201993469mod000_00-None',(#27),#378);
#13=SHAPE_REPRESENTATION_RELATIONSHIP('None',
'relationship between 201993469mod000_00-None and 201993469mod000_00-N
one',#26,#15);
#14=SHAPE_REPRESENTATION_RELATIONSHIP('None',
'relationship between 201993469mod000_00-None and 201993469mod000_00-N
one',#26,#12);
#15=ADVANCED_BREP_SHAPE_REPRESENTATION('201993469mod000_00-None',(#33),
#378);
#16=SHAPE_DEFINITION_REPRESENTATION(#17,#26);
#17=PRODUCT_DEFINITION_SHAPE('','',#18);
#18=PRODUCT_DEFINITION(' ','',#20,#19);
#19=PRODUCT_DEFINITION_CONTEXT('part definition',#25,'design');
#20=PRODUCT_DEFINITION_FORMATION_WITH_SPECIFIED_SOURCE(' ',' ',#22,
 .NOT_KNOWN.);
#21=PRODUCT_RELATED_PRODUCT_CATEGORY('part','',(#22));
#22=PRODUCT('201993469mod000_00','201993469mod000_00',' ',(#23));
#23=PRODUCT_CONTEXT(' ',#25,'mechanical');
#24=APPLICATION_PROTOCOL_DEFINITION('international standard',
'automotive_design',2010,#25);
#25=APPLICATION_CONTEXT(
'core data for automotive mechanical design processes');
#26=SHAPE_REPRESENTATION('201993469mod000_00-None',(#227),#378);
#27=GEOMETRIC_CURVE_SET('None',(#319,#320,#321));
#28=SURFACE_STYLE_USAGE(.BOTH.,#29);
#29=SURFACE_SIDE_STYLE('',(#30));
#30=SURFACE_STYLE_FILL_AREA(#31);
#31=FILL_AREA_STYLE('',(#32));
#32=FILL_AREA_STYLE_COLOUR('',#226);
#33=MANIFOLD_SOLID_BREP('NOCUT',#34);
#34=CLOSED_SHELL('',(#50,#51,#52,#53,#54,#55,#56,#57,#58,#59,#60,#61,#62));
#35=PLANE('',#238);
#36=PLANE('',#246);
#37=PLANE('',#253);
#38=PLANE('',#254);
#39=PLANE('',#255);
#40=CONICAL_SURFACE('',#236,8.,45.);
#41=CONICAL_SURFACE('',#240,6.5,45.);
#42=CONICAL_SURFACE('',#244,5.99999999999999,44.9999999999998);
#43=CONICAL_SURFACE('',#248,9.5,45.);
#44=CONICAL_SURFACE('',#252,10.,45.);
#45=FACE_OUTER_BOUND('',#97,.T.);
#46=FACE_OUTER_BOUND('',#116,.T.);
#47=FACE_OUTER_BOUND('',#117,.T.);
#48=B_SPLINE_CURVE_WITH_KNOTS('',3,(#336,#337,#338,#339),.UNSPECIFIED.,
 .F.,.F.,(4,4),(0.,1.),.UNSPECIFIED.);
#49=B_SPLINE_CURVE_WITH_KNOTS('',3,(#341,#342,#343,#344),.UNSPECIFIED.,
 .F.,.F.,(4,4),(0.,1.),.UNSPECIFIED.);
#50=ADVANCED_FACE('',(#75,#76),#63,.T.);
#51=ADVANCED_FACE('',(#45),#40,.T.);
#52=ADVANCED_FACE('',(#77,#78),#35,.F.);
#53=ADVANCED_FACE('',(#79,#80),#41,.F.);
#54=ADVANCED_FACE('',(#81,#82),#64,.F.);
#55=ADVANCED_FACE('',(#83,#84),#42,.F.);
#56=ADVANCED_FACE('',(#85,#86),#36,.F.);
#57=ADVANCED_FACE('',(#87,#88),#43,.T.);
#58=ADVANCED_FACE('',(#89,#90),#65,.T.);
#59=ADVANCED_FACE('',(#91,#92),#44,.T.);
#60=ADVANCED_FACE('',(#93,#94),#37,.F.);
#61=ADVANCED_FACE('',(#46),#38,.T.);
#62=ADVANCED_FACE('',(#47),#39,.T.);
#63=CYLINDRICAL_SURFACE('',#234,8.);
#64=CYLINDRICAL_SURFACE('',#242,6.);
#65=CYLINDRICAL_SURFACE('',#250,10.);
#66=ELLIPSE('',#232,11.3137084989848,8.);
#67=LINE('',#327,#71);
#68=LINE('',#332,#72);
#69=LINE('',#350,#73);
#70=LINE('',#374,#74);
#71=VECTOR('',#266,1.);
#72=VECTOR('',#269,1.);
#73=VECTOR('',#280,1.);
#74=VECTOR('',#313,1.);
#75=FACE_BOUND('',#95,.T.);
#76=FACE_BOUND('',#96,.T.);
#77=FACE_BOUND('',#98,.T.);
#78=FACE_BOUND('',#99,.T.);
#79=FACE_BOUND('',#100,.T.);
#80=FACE_BOUND('',#101,.T.);
#81=FACE_BOUND('',#102,.T.);
#82=FACE_BOUND('',#103,.T.);
#83=FACE_BOUND('',#104,.T.);
#84=FACE_BOUND('',#105,.T.);
#85=FACE_BOUND('',#106,.T.);
#86=FACE_BOUND('',#107,.T.);
#87=FACE_BOUND('',#108,.T.);
#88=FACE_BOUND('',#109,.T.);
#89=FACE_BOUND('',#110,.T.);
#90=FACE_BOUND('',#111,.T.);
#91=FACE_BOUND('',#112,.T.);
#92=FACE_BOUND('',#113,.T.);
#93=FACE_BOUND('',#114,.T.);
#94=FACE_BOUND('',#115,.T.);
#95=EDGE_LOOP('',(#118));
#96=EDGE_LOOP('',(#119,#120,#121,#122));
#97=EDGE_LOOP('',(#123,#124,#125,#126));
#98=EDGE_LOOP('',(#127));
#99=EDGE_LOOP('',(#128,#129));
#100=EDGE_LOOP('',(#130));
#101=EDGE_LOOP('',(#131));
#102=EDGE_LOOP('',(#132));
#103=EDGE_LOOP('',(#133));
#104=EDGE_LOOP('',(#134));
#105=EDGE_LOOP('',(#135));
#106=EDGE_LOOP('',(#136));
#107=EDGE_LOOP('',(#137));
#108=EDGE_LOOP('',(#138));
#109=EDGE_LOOP('',(#139));
#110=EDGE_LOOP('',(#140));
#111=EDGE_LOOP('',(#141));
#112=EDGE_LOOP('',(#142));
#113=EDGE_LOOP('',(#143));
#114=EDGE_LOOP('',(#144));
#115=EDGE_LOOP('',(#145));
#116=EDGE_LOOP('',(#146,#147));
#117=EDGE_LOOP('',(#148,#149,#150,#151,#152,#153));
#118=ORIENTED_EDGE('',*,*,#169,.T.);
#119=ORIENTED_EDGE('',*,*,#170,.F.);
#120=ORIENTED_EDGE('',*,*,#171,.F.);
#121=ORIENTED_EDGE('',*,*,#172,.F.);
#122=ORIENTED_EDGE('',*,*,#173,.F.);
#123=ORIENTED_EDGE('',*,*,#174,.F.);
#124=ORIENTED_EDGE('',*,*,#173,.T.);
#125=ORIENTED_EDGE('',*,*,#175,.F.);
#126=ORIENTED_EDGE('',*,*,#176,.F.);
#127=ORIENTED_EDGE('',*,*,#177,.F.);
#128=ORIENTED_EDGE('',*,*,#176,.T.);
#129=ORIENTED_EDGE('',*,*,#178,.T.);
#130=ORIENTED_EDGE('',*,*,#179,.F.);
#131=ORIENTED_EDGE('',*,*,#177,.T.);
#132=ORIENTED_EDGE('',*,*,#180,.F.);
#133=ORIENTED_EDGE('',*,*,#179,.T.);
#134=ORIENTED_EDGE('',*,*,#181,.F.);
#135=ORIENTED_EDGE('',*,*,#180,.T.);
#136=ORIENTED_EDGE('',*,*,#182,.F.);
#137=ORIENTED_EDGE('',*,*,#181,.T.);
#138=ORIENTED_EDGE('',*,*,#183,.F.);
#139=ORIENTED_EDGE('',*,*,#182,.T.);
#140=ORIENTED_EDGE('',*,*,#184,.F.);
#141=ORIENTED_EDGE('',*,*,#183,.T.);
#142=ORIENTED_EDGE('',*,*,#185,.F.);
#143=ORIENTED_EDGE('',*,*,#184,.T.);
#144=ORIENTED_EDGE('',*,*,#169,.F.);
#145=ORIENTED_EDGE('',*,*,#185,.T.);
#146=ORIENTED_EDGE('',*,*,#171,.T.);
#147=ORIENTED_EDGE('',*,*,#186,.T.);
#148=ORIENTED_EDGE('',*,*,#170,.T.);
#149=ORIENTED_EDGE('',*,*,#174,.T.);
#150=ORIENTED_EDGE('',*,*,#178,.F.);
#151=ORIENTED_EDGE('',*,*,#175,.T.);
#152=ORIENTED_EDGE('',*,*,#172,.T.);
#153=ORIENTED_EDGE('',*,*,#186,.F.);
#154=VERTEX_POINT('',#326);
#155=VERTEX_POINT('',#328);
#156=VERTEX_POINT('',#329);
#157=VERTEX_POINT('',#331);
#158=VERTEX_POINT('',#333);
#159=VERTEX_POINT('',#340);
#160=VERTEX_POINT('',#345);
#161=VERTEX_POINT('',#349);
#162=VERTEX_POINT('',#353);
#163=VERTEX_POINT('',#356);
#164=VERTEX_POINT('',#359);
#165=VERTEX_POINT('',#362);
#166=VERTEX_POINT('',#365);
#167=VERTEX_POINT('',#368);
#168=VERTEX_POINT('',#371);
#169=EDGE_CURVE('',#154,#154,#187,.T.);
#170=EDGE_CURVE('',#155,#156,#67,.T.);
#171=EDGE_CURVE('',#157,#155,#66,.T.);
#172=EDGE_CURVE('',#158,#157,#68,.T.);
#173=EDGE_CURVE('',#156,#158,#188,.T.);
#174=EDGE_CURVE('',#156,#159,#48,.T.);
#175=EDGE_CURVE('',#160,#158,#49,.T.);
#176=EDGE_CURVE('',#159,#160,#189,.T.);
#177=EDGE_CURVE('',#161,#161,#190,.T.);
#178=EDGE_CURVE('',#160,#159,#69,.T.);
#179=EDGE_CURVE('',#162,#162,#191,.T.);
#180=EDGE_CURVE('',#163,#163,#192,.T.);
#181=EDGE_CURVE('',#164,#164,#193,.T.);
#182=EDGE_CURVE('',#165,#165,#194,.T.);
#183=EDGE_CURVE('',#166,#166,#195,.T.);
#184=EDGE_CURVE('',#167,#167,#196,.T.);
#185=EDGE_CURVE('',#168,#168,#197,.T.);
#186=EDGE_CURVE('',#155,#157,#70,.T.);
#187=CIRCLE('',#231,8.);
#188=CIRCLE('',#233,8.);
#189=CIRCLE('',#235,7.5);
#190=CIRCLE('',#237,6.5);
#191=CIRCLE('',#239,6.);
#192=CIRCLE('',#241,5.99999999999999);
#193=CIRCLE('',#243,6.49999999999999);
#194=CIRCLE('',#245,9.5);
#195=CIRCLE('',#247,10.);
#196=CIRCLE('',#249,10.);
#197=CIRCLE('',#251,9.5);
#198=CURVE_STYLE('',#201,POSITIVE_LENGTH_MEASURE(0.18),#225);
#199=CURVE_STYLE('',#202,POSITIVE_LENGTH_MEASURE(0.18),#225);
#200=CURVE_STYLE('',#203,POSITIVE_LENGTH_MEASURE(0.18),#225);
#201=DRAUGHTING_PRE_DEFINED_CURVE_FONT('continuous');
#202=DRAUGHTING_PRE_DEFINED_CURVE_FONT('continuous');
#203=DRAUGHTING_PRE_DEFINED_CURVE_FONT('continuous');
#204=PRESENTATION_LAYER_ASSIGNMENT('1','Layer 1',(#319,#320,#321,#228,#229,
#230,#33));
#205=STYLED_ITEM('',(#212),#319);
#206=STYLED_ITEM('',(#213),#320);
#207=STYLED_ITEM('',(#214),#321);
#208=STYLED_ITEM('',(#215),#228);
#209=STYLED_ITEM('',(#216),#229);
#210=STYLED_ITEM('',(#217),#230);
#211=STYLED_ITEM('',(#218),#33);
#212=PRESENTATION_STYLE_ASSIGNMENT((#219));
#213=PRESENTATION_STYLE_ASSIGNMENT((#220));
#214=PRESENTATION_STYLE_ASSIGNMENT((#221));
#215=PRESENTATION_STYLE_ASSIGNMENT((#198));
#216=PRESENTATION_STYLE_ASSIGNMENT((#199));
#217=PRESENTATION_STYLE_ASSIGNMENT((#200));
#218=PRESENTATION_STYLE_ASSIGNMENT((#28));
#219=POINT_STYLE('',#222,POSITIVE_LENGTH_MEASURE(3.),#225);
#220=POINT_STYLE('',#223,POSITIVE_LENGTH_MEASURE(3.),#225);
#221=POINT_STYLE('',#224,POSITIVE_LENGTH_MEASURE(3.),#225);
#222=PRE_DEFINED_POINT_MARKER_SYMBOL('plus');
#223=PRE_DEFINED_POINT_MARKER_SYMBOL('plus');
#224=PRE_DEFINED_POINT_MARKER_SYMBOL('plus');
#225=COLOUR_RGB('Medium Maroon',0.6,0.4,0.4);
#226=COLOUR_RGB('Medium Gray',0.501960784313725,0.501960784313725,0.501960784313725);
#227=AXIS2_PLACEMENT_3D('',#318,#256,#257);
#228=AXIS2_PLACEMENT_3D('PCS',#322,#258,#259);
#229=AXIS2_PLACEMENT_3D('MCS',#323,#260,#261);
#230=AXIS2_PLACEMENT_3D('CSW',#324,#262,#263);
#231=AXIS2_PLACEMENT_3D('',#325,#264,#265);
#232=AXIS2_PLACEMENT_3D('',#330,#267,#268);
#233=AXIS2_PLACEMENT_3D('',#334,#270,#271);
#234=AXIS2_PLACEMENT_3D('',#335,#272,#273);
#235=AXIS2_PLACEMENT_3D('',#346,#274,#275);
#236=AXIS2_PLACEMENT_3D('',#347,#276,#277);
#237=AXIS2_PLACEMENT_3D('',#348,#278,#279);
#238=AXIS2_PLACEMENT_3D('',#351,#281,#282);
#239=AXIS2_PLACEMENT_3D('',#352,#283,#284);
#240=AXIS2_PLACEMENT_3D('',#354,#285,#286);
#241=AXIS2_PLACEMENT_3D('',#355,#287,#288);
#242=AXIS2_PLACEMENT_3D('',#357,#289,#290);
#243=AXIS2_PLACEMENT_3D('',#358,#291,#292);
#244=AXIS2_PLACEMENT_3D('',#360,#293,#294);
#245=AXIS2_PLACEMENT_3D('',#361,#295,#296);
#246=AXIS2_PLACEMENT_3D('',#363,#297,#298);
#247=AXIS2_PLACEMENT_3D('',#364,#299,#300);
#248=AXIS2_PLACEMENT_3D('',#366,#301,#302);
#249=AXIS2_PLACEMENT_3D('',#367,#303,#304);
#250=AXIS2_PLACEMENT_3D('',#369,#305,#306);
#251=AXIS2_PLACEMENT_3D('',#370,#307,#308);
#252=AXIS2_PLACEMENT_3D('',#372,#309,#310);
#253=AXIS2_PLACEMENT_3D('',#373,#311,#312);
#254=AXIS2_PLACEMENT_3D('',#375,#314,#315);
#255=AXIS2_PLACEMENT_3D('',#376,#316,#317);
#256=DIRECTION('',(0.,0.,1.));
#257=DIRECTION('',(1.,0.,0.));
#258=DIRECTION('',(0.,0.,1.));
#259=DIRECTION('',(1.,0.,0.));
#260=DIRECTION('',(0.,0.,1.));
#261=DIRECTION('',(1.,0.,0.));
#262=DIRECTION('',(0.,0.,1.));
#263=DIRECTION('',(1.,0.,0.));
#264=DIRECTION('',(0.,0.,1.));
#265=DIRECTION('',(1.,0.,0.));
#266=DIRECTION('',(0.,0.,1.));
#267=DIRECTION('',(0.,-0.707106781186548,0.707106781186547));
#268=DIRECTION('',(0.,0.707106781186547,0.707106781186548));
#269=DIRECTION('',(0.,0.,-1.));
#270=DIRECTION('',(0.,0.,1.));
#271=DIRECTION('',(1.,0.,0.));
#272=DIRECTION('',(0.,0.,1.));
#273=DIRECTION('',(-1.,0.,0.));
#274=DIRECTION('',(0.,0.,1.));
#275=DIRECTION('',(1.,0.,0.));
#276=DIRECTION('',(0.,0.,-1.));
#277=DIRECTION('',(1.,0.,-1.37676466347366E-17));
#278=DIRECTION('',(0.,0.,1.));
#279=DIRECTION('',(1.,0.,0.));
#280=DIRECTION('',(1.,0.,0.));
#281=DIRECTION('',(0.,0.,-1.));
#282=DIRECTION('',(1.,0.,0.));
#283=DIRECTION('',(0.,0.,1.));
#284=DIRECTION('',(1.,0.,0.));
#285=DIRECTION('',(0.,0.,1.));
#286=DIRECTION('',(-1.,0.,-6.8940823685119E-17));
#287=DIRECTION('',(0.,0.,1.));
#288=DIRECTION('',(1.,0.,0.));
#289=DIRECTION('',(0.,0.,1.));
#290=DIRECTION('',(-1.,0.,0.));
#291=DIRECTION('',(0.,0.,1.));
#292=DIRECTION('',(1.,0.,0.));
#293=DIRECTION('',(0.,0.,-1.));
#294=DIRECTION('',(1.,0.,3.10387898286111E-17));
#295=DIRECTION('',(0.,0.,1.));
#296=DIRECTION('',(1.,0.,0.));
#297=DIRECTION('',(0.,0.,1.));
#298=DIRECTION('',(-1.,0.,0.));
#299=DIRECTION('',(0.,0.,1.));
#300=DIRECTION('',(1.,0.,0.));
#301=DIRECTION('',(0.,0.,1.));
#302=DIRECTION('',(-1.,0.,-4.29599672109165E-18));
#303=DIRECTION('',(0.,0.,1.));
#304=DIRECTION('',(1.,0.,0.));
#305=DIRECTION('',(0.,0.,1.));
#306=DIRECTION('',(-1.,0.,0.));
#307=DIRECTION('',(0.,0.,1.));
#308=DIRECTION('',(1.,0.,0.));
#309=DIRECTION('',(0.,0.,-1.));
#310=DIRECTION('',(1.,0.,5.45321488735284E-17));
#311=DIRECTION('',(0.,0.,-1.));
#312=DIRECTION('',(1.,0.,0.));
#313=DIRECTION('',(-1.,0.,0.));
#314=DIRECTION('',(0.,-0.707106781186548,0.707106781186547));
#315=DIRECTION('',(0.,0.707106781186547,0.707106781186548));
#316=DIRECTION('',(0.,-1.,-4.70201363225292E-15));
#317=DIRECTION('',(0.,-4.70196798163514E-15,1.));
#318=CARTESIAN_POINT('',(0.,0.,0.));
#319=CARTESIAN_POINT('PCS',(0.,0.,0.));
#320=CARTESIAN_POINT('MCS',(0.,0.,0.));
#321=CARTESIAN_POINT('CSW',(0.,0.,-5.));
#322=CARTESIAN_POINT('',(0.,0.,0.));
#323=CARTESIAN_POINT('',(0.,0.,0.));
#324=CARTESIAN_POINT('',(0.,0.,-5.));
#325=CARTESIAN_POINT('',(0.,0.,0.));
#326=CARTESIAN_POINT('',(8.,0.,0.));
#327=CARTESIAN_POINT('',(3.87298334620782,-6.99999999999978,-3.29140954257694E-14));
#328=CARTESIAN_POINT('',(3.87298334620775,-6.99999999999981,6.99999999999999));
#329=CARTESIAN_POINT('',(3.87298334620763,-6.99999999999988,44.5));
#330=CARTESIAN_POINT('',(0.,0.,13.9999999999998));
#331=CARTESIAN_POINT('',(-3.87298334620775,-6.99999999999981,6.99999999999999));
#332=CARTESIAN_POINT('',(-3.87298334620782,-6.99999999999978,-3.29140954257694E-14));
#333=CARTESIAN_POINT('',(-3.87298334620763,-6.99999999999988,44.5));
#334=CARTESIAN_POINT('',(0.,0.,44.5));
#335=CARTESIAN_POINT('',(0.,0.,0.));
#336=CARTESIAN_POINT('',(3.87298334620763,-6.99999999999988,44.5));
#337=CARTESIAN_POINT('',(3.48837407973742,-6.99999999999988,44.6861981604795));
#338=CARTESIAN_POINT('',(3.09475984136681,-6.99999999999999,44.8556138810492));
#339=CARTESIAN_POINT('',(2.69258240356722,-6.99999999999999,45.));
#340=CARTESIAN_POINT('',(2.69258240356722,-6.99999999999999,45.));
#341=CARTESIAN_POINT('',(-2.69258240356728,-6.99999999999999,45.));
#342=CARTESIAN_POINT('',(-3.09475984136679,-6.99999999999999,44.8556138810492));
#343=CARTESIAN_POINT('',(-3.4883740797373,-6.99999999999999,44.6861981604795));
#344=CARTESIAN_POINT('',(-3.87298334620744,-6.99999999999999,44.5));
#345=CARTESIAN_POINT('',(-2.69258240356728,-6.99999999999999,45.));
#346=CARTESIAN_POINT('',(0.,0.,45.));
#347=CARTESIAN_POINT('',(0.,0.,44.5));
#348=CARTESIAN_POINT('',(0.,0.,45.));
#349=CARTESIAN_POINT('',(6.5,0.,45.));
#350=CARTESIAN_POINT('',(-37.,-6.99999999999999,45.));
#351=CARTESIAN_POINT('',(0.,-7.,45.));
#352=CARTESIAN_POINT('',(0.,0.,44.5));
#353=CARTESIAN_POINT('',(6.,0.,44.5));
#354=CARTESIAN_POINT('',(0.,0.,45.));
#355=CARTESIAN_POINT('',(0.,0.,-4.49999999999998));
#356=CARTESIAN_POINT('',(5.99999999999999,0.,-4.49999999999998));
#357=CARTESIAN_POINT('',(0.,0.,0.));
#358=CARTESIAN_POINT('',(0.,0.,-4.99999999999998));
#359=CARTESIAN_POINT('',(6.49999999999999,0.,-4.99999999999998));
#360=CARTESIAN_POINT('',(0.,0.,-4.49999999999998));
#361=CARTESIAN_POINT('',(0.,0.,-5.));
#362=CARTESIAN_POINT('',(9.5,0.,-5.));
#363=CARTESIAN_POINT('',(0.,-6.49999999999999,-4.99999999999999));
#364=CARTESIAN_POINT('',(0.,0.,-4.5));
#365=CARTESIAN_POINT('',(10.,0.,-4.5));
#366=CARTESIAN_POINT('',(0.,0.,-5.));
#367=CARTESIAN_POINT('',(0.,0.,-0.5));
#368=CARTESIAN_POINT('',(10.,0.,-0.5));
#369=CARTESIAN_POINT('',(0.,0.,0.));
#370=CARTESIAN_POINT('',(0.,0.,0.));
#371=CARTESIAN_POINT('',(9.5,0.,0.));
#372=CARTESIAN_POINT('',(0.,0.,-0.5));
#373=CARTESIAN_POINT('',(0.,-9.5,0.));
#374=CARTESIAN_POINT('',(-37.,-6.99999999999981,6.99999999999999));
#375=CARTESIAN_POINT('',(-37.,-6.99999999999981,6.99999999999999));
#376=CARTESIAN_POINT('',(-37.,-6.99999999999999,45.));
#377=MECHANICAL_DESIGN_GEOMETRIC_PRESENTATION_REPRESENTATION('',(#205,#206,
#207,#208,#209,#210,#211),#378);
#378=(
GEOMETRIC_REPRESENTATION_CONTEXT(3)
GLOBAL_UNCERTAINTY_ASSIGNED_CONTEXT((#379))
GLOBAL_UNIT_ASSIGNED_CONTEXT((#385,#381,#380))
REPRESENTATION_CONTEXT('1574159805868','TOP_LEVEL_ASSEMBLY_PART')
);
#379=UNCERTAINTY_MEASURE_WITH_UNIT(LENGTH_MEASURE(0.0508),#385,
'DISTANCE_ACCURACY_VALUE','Maximum Tolerance applied to model');
#380=(
NAMED_UNIT(*)
SI_UNIT($,.STERADIAN.)
SOLID_ANGLE_UNIT()
);
#381=(
CONVERSION_BASED_UNIT('DEGREE',#383)
NAMED_UNIT(#382)
PLANE_ANGLE_UNIT()
);
#382=DIMENSIONAL_EXPONENTS(0.,0.,0.,0.,0.,0.,0.);
#383=PLANE_ANGLE_MEASURE_WITH_UNIT(PLANE_ANGLE_MEASURE(0.0174532925),#384);
#384=(
NAMED_UNIT(*)
PLANE_ANGLE_UNIT()
SI_UNIT($,.RADIAN.)
);
#385=(
LENGTH_UNIT()
NAMED_UNIT(*)
SI_UNIT(.MILLI.,.METRE.)
);
ENDSEC;
END-ISO-10303-21;
