ISO-10303-21;
HEADER;
/* Generated by software containing ST-Developer
 * from STEP Tools, Inc. (www.steptools.com) 
 */
/* OPTION: using custom schema-name function */

FILE_DESCRIPTION(
/* description */ (''),
/* implementation_level */ '2;1');

FILE_NAME(
/* name */ '1574159698590.stp',
/* time_stamp */ '2019-11-19T16:05:13+06:00',
/* author */ (''),
/* organization */ ('SMS'),
/* preprocessor_version */ 'ST-DEVELOPER v16.7',
/* originating_system */ 'SIEMENS PLM Software NX 12.0',
/* authorisation */ '');

FILE_SCHEMA (('AUTOMOTIVE_DESIGN { 1 0 10303 214 3 1 1 1 }'));
ENDSEC;

DATA;
#10=CONSTRUCTIVE_GEOMETRY_REPRESENTATION_RELATIONSHIP(
'supplemental geometry','',#26,#11);
#11=CONSTRUCTIVE_GEOMETRY_REPRESENTATION('supplemental geometry',(#253,
#254,#255),#423);
#12=GEOMETRICALLY_BOUNDED_WIREFRAME_SHAPE_REPRESENTATION(
'201993454mod000_00-None',(#27),#423);
#13=SHAPE_REPRESENTATION_RELATIONSHIP('None',
'relationship between 201993454mod000_00-None and 201993454mod000_00-N
one',#26,#15);
#14=SHAPE_REPRESENTATION_RELATIONSHIP('None',
'relationship between 201993454mod000_00-None and 201993454mod000_00-N
one',#26,#12);
#15=ADVANCED_BREP_SHAPE_REPRESENTATION('201993454mod000_00-None',(#33),
#423);
#16=SHAPE_DEFINITION_REPRESENTATION(#17,#26);
#17=PRODUCT_DEFINITION_SHAPE('','',#18);
#18=PRODUCT_DEFINITION(' ','',#20,#19);
#19=PRODUCT_DEFINITION_CONTEXT('part definition',#25,'design');
#20=PRODUCT_DEFINITION_FORMATION_WITH_SPECIFIED_SOURCE(' ',' ',#22,
 .NOT_KNOWN.);
#21=PRODUCT_RELATED_PRODUCT_CATEGORY('part','',(#22));
#22=PRODUCT('201993454mod000_00','201993454mod000_00',' ',(#23));
#23=PRODUCT_CONTEXT(' ',#25,'mechanical');
#24=APPLICATION_PROTOCOL_DEFINITION('international standard',
'automotive_design',2010,#25);
#25=APPLICATION_CONTEXT(
'core data for automotive mechanical design processes');
#26=SHAPE_REPRESENTATION('201993454mod000_00-None',(#252),#423);
#27=GEOMETRIC_CURVE_SET('None',(#357,#358,#359));
#28=SURFACE_STYLE_USAGE(.BOTH.,#29);
#29=SURFACE_SIDE_STYLE('',(#30));
#30=SURFACE_STYLE_FILL_AREA(#31);
#31=FILL_AREA_STYLE('',(#32));
#32=FILL_AREA_STYLE_COLOUR('',#251);
#33=MANIFOLD_SOLID_BREP('NOCUT',#34);
#34=CLOSED_SHELL('',(#52,#53,#54,#55,#56,#57,#58,#59,#60,#61,#62,#63,#64,
#65,#66));
#35=PLANE('',#263);
#36=PLANE('',#274);
#37=PLANE('',#281);
#38=PLANE('',#282);
#39=PLANE('',#283);
#40=CONICAL_SURFACE('',#261,8.,45.);
#41=CONICAL_SURFACE('',#268,6.,44.9999999999994);
#42=CONICAL_SURFACE('',#272,5.,44.9999999999999);
#43=CONICAL_SURFACE('',#276,9.5,45.);
#44=CONICAL_SURFACE('',#280,10.,45.);
#45=CONICAL_SURFACE('',#284,6.,45.);
#46=FACE_OUTER_BOUND('',#106,.T.);
#47=FACE_OUTER_BOUND('',#107,.T.);
#48=FACE_OUTER_BOUND('',#126,.T.);
#49=FACE_OUTER_BOUND('',#127,.T.);
#50=B_SPLINE_CURVE_WITH_KNOTS('',3,(#374,#375,#376,#377),.UNSPECIFIED.,
 .F.,.F.,(4,4),(0.,1.),.UNSPECIFIED.);
#51=B_SPLINE_CURVE_WITH_KNOTS('',3,(#379,#380,#381,#382),.UNSPECIFIED.,
 .F.,.F.,(4,4),(0.,1.),.UNSPECIFIED.);
#52=ADVANCED_FACE('',(#82,#83),#67,.T.);
#53=ADVANCED_FACE('',(#46),#40,.T.);
#54=ADVANCED_FACE('',(#47),#35,.F.);
#55=ADVANCED_FACE('',(#84,#85),#68,.F.);
#56=ADVANCED_FACE('',(#86,#87),#41,.F.);
#57=ADVANCED_FACE('',(#88,#89),#69,.F.);
#58=ADVANCED_FACE('',(#90,#91),#42,.F.);
#59=ADVANCED_FACE('',(#92,#93),#36,.F.);
#60=ADVANCED_FACE('',(#94,#95),#43,.T.);
#61=ADVANCED_FACE('',(#96,#97),#70,.T.);
#62=ADVANCED_FACE('',(#98,#99),#44,.T.);
#63=ADVANCED_FACE('',(#100,#101),#37,.F.);
#64=ADVANCED_FACE('',(#48),#38,.T.);
#65=ADVANCED_FACE('',(#49),#39,.T.);
#66=ADVANCED_FACE('',(#102,#103),#45,.F.);
#67=CYLINDRICAL_SURFACE('',#259,8.);
#68=CYLINDRICAL_SURFACE('',#266,6.);
#69=CYLINDRICAL_SURFACE('',#270,5.00000000000002);
#70=CYLINDRICAL_SURFACE('',#278,10.);
#71=ELLIPSE('',#257,11.3137084989848,8.);
#72=LINE('',#365,#77);
#73=LINE('',#370,#78);
#74=LINE('',#386,#79);
#75=LINE('',#389,#80);
#76=LINE('',#418,#81);
#77=VECTOR('',#295,1.);
#78=VECTOR('',#298,1.);
#79=VECTOR('',#307,1.);
#80=VECTOR('',#310,1.);
#81=VECTOR('',#349,1.);
#82=FACE_BOUND('',#104,.T.);
#83=FACE_BOUND('',#105,.T.);
#84=FACE_BOUND('',#108,.T.);
#85=FACE_BOUND('',#109,.T.);
#86=FACE_BOUND('',#110,.T.);
#87=FACE_BOUND('',#111,.T.);
#88=FACE_BOUND('',#112,.T.);
#89=FACE_BOUND('',#113,.T.);
#90=FACE_BOUND('',#114,.T.);
#91=FACE_BOUND('',#115,.T.);
#92=FACE_BOUND('',#116,.T.);
#93=FACE_BOUND('',#117,.T.);
#94=FACE_BOUND('',#118,.T.);
#95=FACE_BOUND('',#119,.T.);
#96=FACE_BOUND('',#120,.T.);
#97=FACE_BOUND('',#121,.T.);
#98=FACE_BOUND('',#122,.T.);
#99=FACE_BOUND('',#123,.T.);
#100=FACE_BOUND('',#124,.T.);
#101=FACE_BOUND('',#125,.T.);
#102=FACE_BOUND('',#128,.T.);
#103=FACE_BOUND('',#129,.T.);
#104=EDGE_LOOP('',(#130));
#105=EDGE_LOOP('',(#131,#132,#133,#134));
#106=EDGE_LOOP('',(#135,#136,#137,#138));
#107=EDGE_LOOP('',(#139,#140,#141,#142));
#108=EDGE_LOOP('',(#143));
#109=EDGE_LOOP('',(#144));
#110=EDGE_LOOP('',(#145));
#111=EDGE_LOOP('',(#146));
#112=EDGE_LOOP('',(#147));
#113=EDGE_LOOP('',(#148));
#114=EDGE_LOOP('',(#149));
#115=EDGE_LOOP('',(#150));
#116=EDGE_LOOP('',(#151));
#117=EDGE_LOOP('',(#152));
#118=EDGE_LOOP('',(#153));
#119=EDGE_LOOP('',(#154));
#120=EDGE_LOOP('',(#155));
#121=EDGE_LOOP('',(#156));
#122=EDGE_LOOP('',(#157));
#123=EDGE_LOOP('',(#158));
#124=EDGE_LOOP('',(#159));
#125=EDGE_LOOP('',(#160));
#126=EDGE_LOOP('',(#161,#162));
#127=EDGE_LOOP('',(#163,#164,#165,#166,#167,#168,#169));
#128=EDGE_LOOP('',(#170));
#129=EDGE_LOOP('',(#171));
#130=ORIENTED_EDGE('',*,*,#189,.T.);
#131=ORIENTED_EDGE('',*,*,#190,.F.);
#132=ORIENTED_EDGE('',*,*,#191,.F.);
#133=ORIENTED_EDGE('',*,*,#192,.F.);
#134=ORIENTED_EDGE('',*,*,#193,.F.);
#135=ORIENTED_EDGE('',*,*,#194,.F.);
#136=ORIENTED_EDGE('',*,*,#193,.T.);
#137=ORIENTED_EDGE('',*,*,#195,.F.);
#138=ORIENTED_EDGE('',*,*,#196,.F.);
#139=ORIENTED_EDGE('',*,*,#197,.T.);
#140=ORIENTED_EDGE('',*,*,#198,.T.);
#141=ORIENTED_EDGE('',*,*,#199,.T.);
#142=ORIENTED_EDGE('',*,*,#196,.T.);
#143=ORIENTED_EDGE('',*,*,#200,.T.);
#144=ORIENTED_EDGE('',*,*,#201,.F.);
#145=ORIENTED_EDGE('',*,*,#202,.F.);
#146=ORIENTED_EDGE('',*,*,#201,.T.);
#147=ORIENTED_EDGE('',*,*,#203,.F.);
#148=ORIENTED_EDGE('',*,*,#202,.T.);
#149=ORIENTED_EDGE('',*,*,#204,.F.);
#150=ORIENTED_EDGE('',*,*,#203,.T.);
#151=ORIENTED_EDGE('',*,*,#205,.F.);
#152=ORIENTED_EDGE('',*,*,#204,.T.);
#153=ORIENTED_EDGE('',*,*,#206,.F.);
#154=ORIENTED_EDGE('',*,*,#205,.T.);
#155=ORIENTED_EDGE('',*,*,#207,.F.);
#156=ORIENTED_EDGE('',*,*,#206,.T.);
#157=ORIENTED_EDGE('',*,*,#208,.F.);
#158=ORIENTED_EDGE('',*,*,#207,.T.);
#159=ORIENTED_EDGE('',*,*,#189,.F.);
#160=ORIENTED_EDGE('',*,*,#208,.T.);
#161=ORIENTED_EDGE('',*,*,#191,.T.);
#162=ORIENTED_EDGE('',*,*,#209,.T.);
#163=ORIENTED_EDGE('',*,*,#190,.T.);
#164=ORIENTED_EDGE('',*,*,#194,.T.);
#165=ORIENTED_EDGE('',*,*,#199,.F.);
#166=ORIENTED_EDGE('',*,*,#197,.F.);
#167=ORIENTED_EDGE('',*,*,#195,.T.);
#168=ORIENTED_EDGE('',*,*,#192,.T.);
#169=ORIENTED_EDGE('',*,*,#209,.F.);
#170=ORIENTED_EDGE('',*,*,#198,.F.);
#171=ORIENTED_EDGE('',*,*,#200,.F.);
#172=VERTEX_POINT('',#364);
#173=VERTEX_POINT('',#366);
#174=VERTEX_POINT('',#367);
#175=VERTEX_POINT('',#369);
#176=VERTEX_POINT('',#371);
#177=VERTEX_POINT('',#378);
#178=VERTEX_POINT('',#383);
#179=VERTEX_POINT('',#387);
#180=VERTEX_POINT('',#392);
#181=VERTEX_POINT('',#394);
#182=VERTEX_POINT('',#397);
#183=VERTEX_POINT('',#400);
#184=VERTEX_POINT('',#403);
#185=VERTEX_POINT('',#406);
#186=VERTEX_POINT('',#409);
#187=VERTEX_POINT('',#412);
#188=VERTEX_POINT('',#415);
#189=EDGE_CURVE('',#172,#172,#210,.T.);
#190=EDGE_CURVE('',#173,#174,#72,.T.);
#191=EDGE_CURVE('',#175,#173,#71,.T.);
#192=EDGE_CURVE('',#176,#175,#73,.T.);
#193=EDGE_CURVE('',#174,#176,#211,.T.);
#194=EDGE_CURVE('',#174,#177,#50,.T.);
#195=EDGE_CURVE('',#178,#176,#51,.T.);
#196=EDGE_CURVE('',#177,#178,#212,.T.);
#197=EDGE_CURVE('',#178,#179,#74,.T.);
#198=EDGE_CURVE('',#179,#179,#213,.T.);
#199=EDGE_CURVE('',#179,#177,#75,.T.);
#200=EDGE_CURVE('',#180,#180,#214,.T.);
#201=EDGE_CURVE('',#181,#181,#215,.T.);
#202=EDGE_CURVE('',#182,#182,#216,.T.);
#203=EDGE_CURVE('',#183,#183,#217,.T.);
#204=EDGE_CURVE('',#184,#184,#218,.T.);
#205=EDGE_CURVE('',#185,#185,#219,.T.);
#206=EDGE_CURVE('',#186,#186,#220,.T.);
#207=EDGE_CURVE('',#187,#187,#221,.T.);
#208=EDGE_CURVE('',#188,#188,#222,.T.);
#209=EDGE_CURVE('',#173,#175,#76,.T.);
#210=CIRCLE('',#256,8.);
#211=CIRCLE('',#258,8.);
#212=CIRCLE('',#260,7.5);
#213=CIRCLE('',#262,7.);
#214=CIRCLE('',#264,6.);
#215=CIRCLE('',#265,6.);
#216=CIRCLE('',#267,5.00000000000004);
#217=CIRCLE('',#269,5.);
#218=CIRCLE('',#271,5.5);
#219=CIRCLE('',#273,9.5);
#220=CIRCLE('',#275,10.);
#221=CIRCLE('',#277,10.);
#222=CIRCLE('',#279,9.5);
#223=CURVE_STYLE('',#226,POSITIVE_LENGTH_MEASURE(0.18),#250);
#224=CURVE_STYLE('',#227,POSITIVE_LENGTH_MEASURE(0.18),#250);
#225=CURVE_STYLE('',#228,POSITIVE_LENGTH_MEASURE(0.18),#250);
#226=DRAUGHTING_PRE_DEFINED_CURVE_FONT('continuous');
#227=DRAUGHTING_PRE_DEFINED_CURVE_FONT('continuous');
#228=DRAUGHTING_PRE_DEFINED_CURVE_FONT('continuous');
#229=PRESENTATION_LAYER_ASSIGNMENT('1','Layer 1',(#357,#358,#359,#253,#254,
#255,#33));
#230=STYLED_ITEM('',(#237),#357);
#231=STYLED_ITEM('',(#238),#358);
#232=STYLED_ITEM('',(#239),#359);
#233=STYLED_ITEM('',(#240),#253);
#234=STYLED_ITEM('',(#241),#254);
#235=STYLED_ITEM('',(#242),#255);
#236=STYLED_ITEM('',(#243),#33);
#237=PRESENTATION_STYLE_ASSIGNMENT((#244));
#238=PRESENTATION_STYLE_ASSIGNMENT((#245));
#239=PRESENTATION_STYLE_ASSIGNMENT((#246));
#240=PRESENTATION_STYLE_ASSIGNMENT((#223));
#241=PRESENTATION_STYLE_ASSIGNMENT((#224));
#242=PRESENTATION_STYLE_ASSIGNMENT((#225));
#243=PRESENTATION_STYLE_ASSIGNMENT((#28));
#244=POINT_STYLE('',#247,POSITIVE_LENGTH_MEASURE(3.),#250);
#245=POINT_STYLE('',#248,POSITIVE_LENGTH_MEASURE(3.),#250);
#246=POINT_STYLE('',#249,POSITIVE_LENGTH_MEASURE(3.),#250);
#247=PRE_DEFINED_POINT_MARKER_SYMBOL('plus');
#248=PRE_DEFINED_POINT_MARKER_SYMBOL('plus');
#249=PRE_DEFINED_POINT_MARKER_SYMBOL('plus');
#250=COLOUR_RGB('Medium Maroon',0.6,0.4,0.4);
#251=COLOUR_RGB('Medium Gray',0.501960784313725,0.501960784313725,0.501960784313725);
#252=AXIS2_PLACEMENT_3D('',#356,#285,#286);
#253=AXIS2_PLACEMENT_3D('PCS',#360,#287,#288);
#254=AXIS2_PLACEMENT_3D('MCS',#361,#289,#290);
#255=AXIS2_PLACEMENT_3D('CSW',#362,#291,#292);
#256=AXIS2_PLACEMENT_3D('',#363,#293,#294);
#257=AXIS2_PLACEMENT_3D('',#368,#296,#297);
#258=AXIS2_PLACEMENT_3D('',#372,#299,#300);
#259=AXIS2_PLACEMENT_3D('',#373,#301,#302);
#260=AXIS2_PLACEMENT_3D('',#384,#303,#304);
#261=AXIS2_PLACEMENT_3D('',#385,#305,#306);
#262=AXIS2_PLACEMENT_3D('',#388,#308,#309);
#263=AXIS2_PLACEMENT_3D('',#390,#311,#312);
#264=AXIS2_PLACEMENT_3D('',#391,#313,#314);
#265=AXIS2_PLACEMENT_3D('',#393,#315,#316);
#266=AXIS2_PLACEMENT_3D('',#395,#317,#318);
#267=AXIS2_PLACEMENT_3D('',#396,#319,#320);
#268=AXIS2_PLACEMENT_3D('',#398,#321,#322);
#269=AXIS2_PLACEMENT_3D('',#399,#323,#324);
#270=AXIS2_PLACEMENT_3D('',#401,#325,#326);
#271=AXIS2_PLACEMENT_3D('',#402,#327,#328);
#272=AXIS2_PLACEMENT_3D('',#404,#329,#330);
#273=AXIS2_PLACEMENT_3D('',#405,#331,#332);
#274=AXIS2_PLACEMENT_3D('',#407,#333,#334);
#275=AXIS2_PLACEMENT_3D('',#408,#335,#336);
#276=AXIS2_PLACEMENT_3D('',#410,#337,#338);
#277=AXIS2_PLACEMENT_3D('',#411,#339,#340);
#278=AXIS2_PLACEMENT_3D('',#413,#341,#342);
#279=AXIS2_PLACEMENT_3D('',#414,#343,#344);
#280=AXIS2_PLACEMENT_3D('',#416,#345,#346);
#281=AXIS2_PLACEMENT_3D('',#417,#347,#348);
#282=AXIS2_PLACEMENT_3D('',#419,#350,#351);
#283=AXIS2_PLACEMENT_3D('',#420,#352,#353);
#284=AXIS2_PLACEMENT_3D('',#421,#354,#355);
#285=DIRECTION('',(0.,0.,1.));
#286=DIRECTION('',(1.,0.,0.));
#287=DIRECTION('',(0.,0.,1.));
#288=DIRECTION('',(1.,0.,0.));
#289=DIRECTION('',(0.,0.,1.));
#290=DIRECTION('',(1.,0.,0.));
#291=DIRECTION('',(0.,0.,1.));
#292=DIRECTION('',(1.,0.,0.));
#293=DIRECTION('',(0.,0.,1.));
#294=DIRECTION('',(1.,0.,0.));
#295=DIRECTION('',(0.,0.,1.));
#296=DIRECTION('',(0.,-0.707106781186548,0.707106781186547));
#297=DIRECTION('',(0.,0.707106781186547,0.707106781186548));
#298=DIRECTION('',(0.,0.,-1.));
#299=DIRECTION('',(0.,0.,1.));
#300=DIRECTION('',(1.,0.,0.));
#301=DIRECTION('',(0.,0.,1.));
#302=DIRECTION('',(-1.,0.,0.));
#303=DIRECTION('',(0.,0.,1.));
#304=DIRECTION('',(1.,0.,0.));
#305=DIRECTION('',(0.,0.,-1.));
#306=DIRECTION('',(1.,0.,-1.37676466347366E-17));
#307=DIRECTION('',(1.,0.,0.));
#308=DIRECTION('',(0.,0.,-1.));
#309=DIRECTION('',(-1.,0.,0.));
#310=DIRECTION('',(1.,0.,0.));
#311=DIRECTION('',(0.,0.,-1.));
#312=DIRECTION('',(1.,0.,0.));
#313=DIRECTION('',(0.,0.,1.));
#314=DIRECTION('',(-1.,0.,0.));
#315=DIRECTION('',(0.,0.,1.));
#316=DIRECTION('',(1.,0.,0.));
#317=DIRECTION('',(0.,0.,1.));
#318=DIRECTION('',(-1.,0.,0.));
#319=DIRECTION('',(0.,0.,1.));
#320=DIRECTION('',(1.,0.,0.));
#321=DIRECTION('',(0.,0.,1.));
#322=DIRECTION('',(-1.,0.,-7.58725973588281E-17));
#323=DIRECTION('',(0.,0.,1.));
#324=DIRECTION('',(1.,0.,0.));
#325=DIRECTION('',(0.,0.,1.));
#326=DIRECTION('',(-1.,0.,0.));
#327=DIRECTION('',(0.,0.,1.));
#328=DIRECTION('',(1.,0.,0.));
#329=DIRECTION('',(0.,0.,-1.));
#330=DIRECTION('',(1.,0.,3.10696741965996E-17));
#331=DIRECTION('',(0.,0.,1.));
#332=DIRECTION('',(1.,0.,0.));
#333=DIRECTION('',(0.,0.,1.));
#334=DIRECTION('',(-1.,0.,0.));
#335=DIRECTION('',(0.,0.,1.));
#336=DIRECTION('',(1.,0.,0.));
#337=DIRECTION('',(0.,0.,1.));
#338=DIRECTION('',(-1.,0.,-4.29599672109165E-18));
#339=DIRECTION('',(0.,0.,1.));
#340=DIRECTION('',(1.,0.,0.));
#341=DIRECTION('',(0.,0.,1.));
#342=DIRECTION('',(-1.,0.,0.));
#343=DIRECTION('',(0.,0.,1.));
#344=DIRECTION('',(1.,0.,0.));
#345=DIRECTION('',(0.,0.,-1.));
#346=DIRECTION('',(1.,0.,5.45321488735284E-17));
#347=DIRECTION('',(0.,0.,-1.));
#348=DIRECTION('',(1.,0.,0.));
#349=DIRECTION('',(-1.,0.,0.));
#350=DIRECTION('',(0.,-0.707106781186548,0.707106781186547));
#351=DIRECTION('',(0.,0.707106781186547,0.707106781186548));
#352=DIRECTION('',(0.,-1.,-4.70201363225292E-15));
#353=DIRECTION('',(0.,-4.70196798163514E-15,1.));
#354=DIRECTION('',(0.,0.,1.));
#355=DIRECTION('',(-1.,0.,4.13850531048145E-17));
#356=CARTESIAN_POINT('',(0.,0.,0.));
#357=CARTESIAN_POINT('PCS',(0.,0.,0.));
#358=CARTESIAN_POINT('MCS',(0.,0.,0.));
#359=CARTESIAN_POINT('CSW',(0.,0.,-5.));
#360=CARTESIAN_POINT('',(0.,0.,0.));
#361=CARTESIAN_POINT('',(0.,0.,0.));
#362=CARTESIAN_POINT('',(0.,0.,-5.));
#363=CARTESIAN_POINT('',(0.,0.,0.));
#364=CARTESIAN_POINT('',(8.,0.,0.));
#365=CARTESIAN_POINT('',(3.87298334620782,-6.99999999999978,-3.29140954257694E-14));
#366=CARTESIAN_POINT('',(3.87298334620775,-6.99999999999981,6.99999999999999));
#367=CARTESIAN_POINT('',(3.87298334620763,-6.99999999999988,44.5));
#368=CARTESIAN_POINT('',(0.,0.,13.9999999999998));
#369=CARTESIAN_POINT('',(-3.87298334620775,-6.99999999999981,6.99999999999999));
#370=CARTESIAN_POINT('',(-3.87298334620782,-6.99999999999978,-3.29140954257694E-14));
#371=CARTESIAN_POINT('',(-3.87298334620763,-6.99999999999988,44.5));
#372=CARTESIAN_POINT('',(0.,0.,44.5));
#373=CARTESIAN_POINT('',(0.,0.,0.));
#374=CARTESIAN_POINT('',(3.87298334620763,-6.99999999999988,44.5));
#375=CARTESIAN_POINT('',(3.48837407973742,-6.99999999999988,44.6861981604795));
#376=CARTESIAN_POINT('',(3.09475984136681,-6.99999999999999,44.8556138810492));
#377=CARTESIAN_POINT('',(2.69258240356722,-6.99999999999999,45.));
#378=CARTESIAN_POINT('',(2.69258240356722,-6.99999999999999,45.));
#379=CARTESIAN_POINT('',(-2.69258240356728,-6.99999999999999,45.));
#380=CARTESIAN_POINT('',(-3.09475984136679,-6.99999999999999,44.8556138810492));
#381=CARTESIAN_POINT('',(-3.4883740797373,-6.99999999999999,44.6861981604795));
#382=CARTESIAN_POINT('',(-3.87298334620744,-6.99999999999999,44.5));
#383=CARTESIAN_POINT('',(-2.69258240356728,-6.99999999999999,45.));
#384=CARTESIAN_POINT('',(0.,0.,45.));
#385=CARTESIAN_POINT('',(0.,0.,44.5));
#386=CARTESIAN_POINT('',(-37.,-6.99999999999999,45.));
#387=CARTESIAN_POINT('',(0.,-6.99999999999999,45.));
#388=CARTESIAN_POINT('',(0.,0.,45.));
#389=CARTESIAN_POINT('',(-37.,-6.99999999999999,45.));
#390=CARTESIAN_POINT('',(0.,-7.,45.));
#391=CARTESIAN_POINT('',(0.,0.,44.));
#392=CARTESIAN_POINT('',(-6.,0.,44.));
#393=CARTESIAN_POINT('',(0.,0.,41.));
#394=CARTESIAN_POINT('',(6.,0.,41.));
#395=CARTESIAN_POINT('',(0.,0.,0.));
#396=CARTESIAN_POINT('',(0.,0.,40.));
#397=CARTESIAN_POINT('',(5.00000000000004,0.,40.));
#398=CARTESIAN_POINT('',(0.,0.,41.));
#399=CARTESIAN_POINT('',(0.,0.,-4.49999999999998));
#400=CARTESIAN_POINT('',(5.,0.,-4.49999999999998));
#401=CARTESIAN_POINT('',(0.,0.,0.));
#402=CARTESIAN_POINT('',(0.,0.,-4.99999999999998));
#403=CARTESIAN_POINT('',(5.5,0.,-4.99999999999998));
#404=CARTESIAN_POINT('',(0.,0.,-4.49999999999998));
#405=CARTESIAN_POINT('',(0.,0.,-5.));
#406=CARTESIAN_POINT('',(9.5,0.,-5.));
#407=CARTESIAN_POINT('',(0.,-5.5,-4.99999999999999));
#408=CARTESIAN_POINT('',(0.,0.,-4.5));
#409=CARTESIAN_POINT('',(10.,0.,-4.5));
#410=CARTESIAN_POINT('',(0.,0.,-5.));
#411=CARTESIAN_POINT('',(0.,0.,-0.5));
#412=CARTESIAN_POINT('',(10.,0.,-0.5));
#413=CARTESIAN_POINT('',(0.,0.,0.));
#414=CARTESIAN_POINT('',(0.,0.,0.));
#415=CARTESIAN_POINT('',(9.5,0.,0.));
#416=CARTESIAN_POINT('',(0.,0.,-0.5));
#417=CARTESIAN_POINT('',(0.,-9.5,0.));
#418=CARTESIAN_POINT('',(-37.,-6.99999999999981,6.99999999999999));
#419=CARTESIAN_POINT('',(-37.,-6.99999999999981,6.99999999999999));
#420=CARTESIAN_POINT('',(-37.,-6.99999999999999,45.));
#421=CARTESIAN_POINT('',(0.,0.,44.));
#422=MECHANICAL_DESIGN_GEOMETRIC_PRESENTATION_REPRESENTATION('',(#230,#231,
#232,#233,#234,#235,#236),#423);
#423=(
GEOMETRIC_REPRESENTATION_CONTEXT(3)
GLOBAL_UNCERTAINTY_ASSIGNED_CONTEXT((#424))
GLOBAL_UNIT_ASSIGNED_CONTEXT((#430,#426,#425))
REPRESENTATION_CONTEXT('1574159698590','TOP_LEVEL_ASSEMBLY_PART')
);
#424=UNCERTAINTY_MEASURE_WITH_UNIT(LENGTH_MEASURE(0.0508),#430,
'DISTANCE_ACCURACY_VALUE','Maximum Tolerance applied to model');
#425=(
NAMED_UNIT(*)
SI_UNIT($,.STERADIAN.)
SOLID_ANGLE_UNIT()
);
#426=(
CONVERSION_BASED_UNIT('DEGREE',#428)
NAMED_UNIT(#427)
PLANE_ANGLE_UNIT()
);
#427=DIMENSIONAL_EXPONENTS(0.,0.,0.,0.,0.,0.,0.);
#428=PLANE_ANGLE_MEASURE_WITH_UNIT(PLANE_ANGLE_MEASURE(0.0174532925),#429);
#429=(
NAMED_UNIT(*)
PLANE_ANGLE_UNIT()
SI_UNIT($,.RADIAN.)
);
#430=(
LENGTH_UNIT()
NAMED_UNIT(*)
SI_UNIT(.MILLI.,.METRE.)
);
ENDSEC;
END-ISO-10303-21;
