ISO-10303-21;
HEADER;
/* Generated by software containing ST-Developer
 * from STEP Tools, Inc. (www.steptools.com) 
 */
/* OPTION: using custom schema-name function */

FILE_DESCRIPTION(
/* description */ (''),
/* implementation_level */ '2;1');

FILE_NAME(
/* name */ '1574156524681.stp',
/* time_stamp */ '2019-11-19T15:12:17+06:00',
/* author */ (''),
/* organization */ ('SMS'),
/* preprocessor_version */ 'ST-DEVELOPER v16.7',
/* originating_system */ 'SIEMENS PLM Software NX 12.0',
/* authorisation */ '');

FILE_SCHEMA (('AUTOMOTIVE_DESIGN { 1 0 10303 214 3 1 1 1 }'));
ENDSEC;

DATA;
#10=CONSTRUCTIVE_GEOMETRY_REPRESENTATION_RELATIONSHIP(
'supplemental geometry','',#26,#11);
#11=CONSTRUCTIVE_GEOMETRY_REPRESENTATION('supplemental geometry',(#270,
#271,#272),#473);
#12=GEOMETRICALLY_BOUNDED_WIREFRAME_SHAPE_REPRESENTATION(
'201993366mod000_00-None',(#27),#473);
#13=SHAPE_REPRESENTATION_RELATIONSHIP('None',
'relationship between 201993366mod000_00-None and 201993366mod000_00-N
one',#26,#15);
#14=SHAPE_REPRESENTATION_RELATIONSHIP('None',
'relationship between 201993366mod000_00-None and 201993366mod000_00-N
one',#26,#12);
#15=ADVANCED_BREP_SHAPE_REPRESENTATION('201993366mod000_00-None',(#33),
#473);
#16=SHAPE_DEFINITION_REPRESENTATION(#17,#26);
#17=PRODUCT_DEFINITION_SHAPE('','',#18);
#18=PRODUCT_DEFINITION(' ','',#20,#19);
#19=PRODUCT_DEFINITION_CONTEXT('part definition',#25,'design');
#20=PRODUCT_DEFINITION_FORMATION_WITH_SPECIFIED_SOURCE(' ',' ',#22,
 .NOT_KNOWN.);
#21=PRODUCT_RELATED_PRODUCT_CATEGORY('part','',(#22));
#22=PRODUCT('201993366mod000_00','201993366mod000_00',' ',(#23));
#23=PRODUCT_CONTEXT(' ',#25,'mechanical');
#24=APPLICATION_PROTOCOL_DEFINITION('international standard',
'automotive_design',2010,#25);
#25=APPLICATION_CONTEXT(
'core data for automotive mechanical design processes');
#26=SHAPE_REPRESENTATION('201993366mod000_00-None',(#269),#473);
#27=GEOMETRIC_CURVE_SET('None',(#381,#382,#383));
#28=SURFACE_STYLE_USAGE(.BOTH.,#29);
#29=SURFACE_SIDE_STYLE('',(#30));
#30=SURFACE_STYLE_FILL_AREA(#31);
#31=FILL_AREA_STYLE('',(#32));
#32=FILL_AREA_STYLE_COLOUR('',#268);
#33=MANIFOLD_SOLID_BREP('NOCUT',#34);
#34=CLOSED_SHELL('',(#53,#54,#55,#56,#57,#58,#59,#60,#61,#62,#63,#64,#65,
#66,#67,#68));
#35=FACE_OUTER_BOUND('',#133,.T.);
#36=FACE_OUTER_BOUND('',#134,.T.);
#37=FACE_OUTER_BOUND('',#135,.T.);
#38=PLANE('',#283);
#39=PLANE('',#291);
#40=PLANE('',#301);
#41=PLANE('',#302);
#42=CONICAL_SURFACE('',#281,7.,45.);
#43=CONICAL_SURFACE('',#285,10.,45.);
#44=CONICAL_SURFACE('',#289,9.5,44.9999999999999);
#45=CONICAL_SURFACE('',#296,5.02047799674371,29.2534592293349);
#46=CONICAL_SURFACE('',#299,6.02047799674372,45.0000000000002);
#47=CONICAL_SURFACE('',#303,8.,45.);
#48=CONICAL_SURFACE('',#304,2.50000000000003,45.);
#49=B_SPLINE_CURVE_WITH_KNOTS('',3,(#407,#408,#409,#410),.UNSPECIFIED.,
 .F.,.F.,(4,4),(0.,1.),.UNSPECIFIED.);
#50=B_SPLINE_CURVE_WITH_KNOTS('',3,(#438,#439,#440,#441,#442,#443,#444,
#445,#446,#447,#448,#449,#450,#451,#452,#453,#454,#455),.UNSPECIFIED.,.T.,
 .F.,(2,2,2,2,2,2,2,2,2,2,2),(-0.125,0.,0.125,0.25,0.375,0.5,0.625,0.75,
0.875,1.,1.125),.UNSPECIFIED.);
#51=B_SPLINE_CURVE_WITH_KNOTS('',3,(#459,#460,#461,#462),.UNSPECIFIED.,
 .F.,.F.,(4,4),(0.,1.),.UNSPECIFIED.);
#52=B_SPLINE_CURVE_WITH_KNOTS('',3,(#463,#464,#465,#466),.UNSPECIFIED.,
 .F.,.F.,(4,4),(0.,1.),.UNSPECIFIED.);
#53=ADVANCED_FACE('',(#83,#84),#69,.T.);
#54=ADVANCED_FACE('',(#85,#86),#42,.F.);
#55=ADVANCED_FACE('',(#87,#88),#38,.T.);
#56=ADVANCED_FACE('',(#89,#90),#43,.T.);
#57=ADVANCED_FACE('',(#91,#92),#70,.T.);
#58=ADVANCED_FACE('',(#93,#94),#44,.T.);
#59=ADVANCED_FACE('',(#95,#96),#39,.T.);
#60=ADVANCED_FACE('',(#97,#98),#71,.F.);
#61=ADVANCED_FACE('',(#99,#100),#45,.F.);
#62=ADVANCED_FACE('',(#101,#102),#72,.F.);
#63=ADVANCED_FACE('',(#103,#104),#46,.F.);
#64=ADVANCED_FACE('',(#105,#106),#73,.F.);
#65=ADVANCED_FACE('',(#35),#40,.T.);
#66=ADVANCED_FACE('',(#36),#41,.T.);
#67=ADVANCED_FACE('',(#37),#47,.T.);
#68=ADVANCED_FACE('',(#107,#108),#48,.F.);
#69=CYLINDRICAL_SURFACE('',#278,8.);
#70=CYLINDRICAL_SURFACE('',#287,10.);
#71=CYLINDRICAL_SURFACE('',#294,2.50000000000003);
#72=CYLINDRICAL_SURFACE('',#298,5.02047799674371);
#73=CYLINDRICAL_SURFACE('',#300,6.);
#74=ELLIPSE('',#275,11.3137084989848,8.);
#75=ELLIPSE('',#276,11.3137084989848,8.);
#76=ELLIPSE('',#277,11.3137084989848,8.);
#77=LINE('',#389,#80);
#78=LINE('',#394,#81);
#79=LINE('',#467,#82);
#80=VECTOR('',#315,1.);
#81=VECTOR('',#318,1.);
#82=VECTOR('',#371,1.);
#83=FACE_BOUND('',#109,.T.);
#84=FACE_BOUND('',#110,.T.);
#85=FACE_BOUND('',#111,.T.);
#86=FACE_BOUND('',#112,.T.);
#87=FACE_BOUND('',#113,.T.);
#88=FACE_BOUND('',#114,.T.);
#89=FACE_BOUND('',#115,.T.);
#90=FACE_BOUND('',#116,.T.);
#91=FACE_BOUND('',#117,.T.);
#92=FACE_BOUND('',#118,.T.);
#93=FACE_BOUND('',#119,.T.);
#94=FACE_BOUND('',#120,.T.);
#95=FACE_BOUND('',#121,.T.);
#96=FACE_BOUND('',#122,.T.);
#97=FACE_BOUND('',#123,.T.);
#98=FACE_BOUND('',#124,.T.);
#99=FACE_BOUND('',#125,.T.);
#100=FACE_BOUND('',#126,.T.);
#101=FACE_BOUND('',#127,.T.);
#102=FACE_BOUND('',#128,.T.);
#103=FACE_BOUND('',#129,.T.);
#104=FACE_BOUND('',#130,.T.);
#105=FACE_BOUND('',#131,.T.);
#106=FACE_BOUND('',#132,.T.);
#107=FACE_BOUND('',#136,.T.);
#108=FACE_BOUND('',#137,.T.);
#109=EDGE_LOOP('',(#138));
#110=EDGE_LOOP('',(#139,#140,#141,#142,#143,#144));
#111=EDGE_LOOP('',(#145));
#112=EDGE_LOOP('',(#146,#147));
#113=EDGE_LOOP('',(#148));
#114=EDGE_LOOP('',(#149));
#115=EDGE_LOOP('',(#150));
#116=EDGE_LOOP('',(#151));
#117=EDGE_LOOP('',(#152));
#118=EDGE_LOOP('',(#153));
#119=EDGE_LOOP('',(#154));
#120=EDGE_LOOP('',(#155));
#121=EDGE_LOOP('',(#156));
#122=EDGE_LOOP('',(#157));
#123=EDGE_LOOP('',(#158));
#124=EDGE_LOOP('',(#159));
#125=EDGE_LOOP('',(#160));
#126=EDGE_LOOP('',(#161));
#127=EDGE_LOOP('',(#162));
#128=EDGE_LOOP('',(#163));
#129=EDGE_LOOP('',(#164));
#130=EDGE_LOOP('',(#165));
#131=EDGE_LOOP('',(#166));
#132=EDGE_LOOP('',(#167));
#133=EDGE_LOOP('',(#168,#169,#170,#171,#172,#173));
#134=EDGE_LOOP('',(#174,#175,#176,#177));
#135=EDGE_LOOP('',(#178,#179,#180,#181));
#136=EDGE_LOOP('',(#182));
#137=EDGE_LOOP('',(#183));
#138=ORIENTED_EDGE('',*,*,#204,.F.);
#139=ORIENTED_EDGE('',*,*,#205,.T.);
#140=ORIENTED_EDGE('',*,*,#206,.T.);
#141=ORIENTED_EDGE('',*,*,#207,.T.);
#142=ORIENTED_EDGE('',*,*,#208,.F.);
#143=ORIENTED_EDGE('',*,*,#209,.F.);
#144=ORIENTED_EDGE('',*,*,#210,.F.);
#145=ORIENTED_EDGE('',*,*,#211,.F.);
#146=ORIENTED_EDGE('',*,*,#212,.F.);
#147=ORIENTED_EDGE('',*,*,#213,.F.);
#148=ORIENTED_EDGE('',*,*,#204,.T.);
#149=ORIENTED_EDGE('',*,*,#214,.F.);
#150=ORIENTED_EDGE('',*,*,#214,.T.);
#151=ORIENTED_EDGE('',*,*,#215,.F.);
#152=ORIENTED_EDGE('',*,*,#215,.T.);
#153=ORIENTED_EDGE('',*,*,#216,.F.);
#154=ORIENTED_EDGE('',*,*,#216,.T.);
#155=ORIENTED_EDGE('',*,*,#217,.F.);
#156=ORIENTED_EDGE('',*,*,#218,.T.);
#157=ORIENTED_EDGE('',*,*,#217,.T.);
#158=ORIENTED_EDGE('',*,*,#219,.T.);
#159=ORIENTED_EDGE('',*,*,#220,.T.);
#160=ORIENTED_EDGE('',*,*,#220,.F.);
#161=ORIENTED_EDGE('',*,*,#221,.T.);
#162=ORIENTED_EDGE('',*,*,#221,.F.);
#163=ORIENTED_EDGE('',*,*,#222,.T.);
#164=ORIENTED_EDGE('',*,*,#222,.F.);
#165=ORIENTED_EDGE('',*,*,#223,.T.);
#166=ORIENTED_EDGE('',*,*,#211,.T.);
#167=ORIENTED_EDGE('',*,*,#223,.F.);
#168=ORIENTED_EDGE('',*,*,#207,.F.);
#169=ORIENTED_EDGE('',*,*,#224,.T.);
#170=ORIENTED_EDGE('',*,*,#213,.T.);
#171=ORIENTED_EDGE('',*,*,#225,.T.);
#172=ORIENTED_EDGE('',*,*,#205,.F.);
#173=ORIENTED_EDGE('',*,*,#226,.F.);
#174=ORIENTED_EDGE('',*,*,#209,.T.);
#175=ORIENTED_EDGE('',*,*,#208,.T.);
#176=ORIENTED_EDGE('',*,*,#226,.T.);
#177=ORIENTED_EDGE('',*,*,#210,.T.);
#178=ORIENTED_EDGE('',*,*,#225,.F.);
#179=ORIENTED_EDGE('',*,*,#212,.T.);
#180=ORIENTED_EDGE('',*,*,#224,.F.);
#181=ORIENTED_EDGE('',*,*,#206,.F.);
#182=ORIENTED_EDGE('',*,*,#218,.F.);
#183=ORIENTED_EDGE('',*,*,#219,.F.);
#184=VERTEX_POINT('',#388);
#185=VERTEX_POINT('',#390);
#186=VERTEX_POINT('',#391);
#187=VERTEX_POINT('',#393);
#188=VERTEX_POINT('',#395);
#189=VERTEX_POINT('',#397);
#190=VERTEX_POINT('',#399);
#191=VERTEX_POINT('',#403);
#192=VERTEX_POINT('',#405);
#193=VERTEX_POINT('',#406);
#194=VERTEX_POINT('',#413);
#195=VERTEX_POINT('',#416);
#196=VERTEX_POINT('',#419);
#197=VERTEX_POINT('',#422);
#198=VERTEX_POINT('',#425);
#199=VERTEX_POINT('',#428);
#200=VERTEX_POINT('',#430);
#201=VERTEX_POINT('',#433);
#202=VERTEX_POINT('',#436);
#203=VERTEX_POINT('',#456);
#204=EDGE_CURVE('',#184,#184,#227,.T.);
#205=EDGE_CURVE('',#185,#186,#77,.T.);
#206=EDGE_CURVE('',#186,#187,#228,.T.);
#207=EDGE_CURVE('',#187,#188,#78,.T.);
#208=EDGE_CURVE('',#189,#188,#74,.T.);
#209=EDGE_CURVE('',#190,#189,#75,.T.);
#210=EDGE_CURVE('',#185,#190,#76,.T.);
#211=EDGE_CURVE('',#191,#191,#229,.T.);
#212=EDGE_CURVE('',#192,#193,#230,.T.);
#213=EDGE_CURVE('',#193,#192,#49,.T.);
#214=EDGE_CURVE('',#194,#194,#231,.T.);
#215=EDGE_CURVE('',#195,#195,#232,.T.);
#216=EDGE_CURVE('',#196,#196,#233,.T.);
#217=EDGE_CURVE('',#197,#197,#234,.T.);
#218=EDGE_CURVE('',#198,#198,#235,.T.);
#219=EDGE_CURVE('',#199,#199,#236,.T.);
#220=EDGE_CURVE('',#200,#200,#237,.T.);
#221=EDGE_CURVE('',#201,#201,#238,.T.);
#222=EDGE_CURVE('',#202,#202,#239,.T.);
#223=EDGE_CURVE('',#203,#203,#50,.T.);
#224=EDGE_CURVE('',#187,#193,#51,.T.);
#225=EDGE_CURVE('',#192,#186,#52,.T.);
#226=EDGE_CURVE('',#188,#185,#79,.T.);
#227=CIRCLE('',#273,8.);
#228=CIRCLE('',#274,8.);
#229=CIRCLE('',#279,6.);
#230=CIRCLE('',#280,7.);
#231=CIRCLE('',#282,9.5);
#232=CIRCLE('',#284,10.);
#233=CIRCLE('',#286,10.);
#234=CIRCLE('',#288,9.5);
#235=CIRCLE('',#290,3.00000000000003);
#236=CIRCLE('',#292,2.50000000000003);
#237=CIRCLE('',#293,2.50000000000007);
#238=CIRCLE('',#295,5.02047799674371);
#239=CIRCLE('',#297,5.02047799674372);
#240=CURVE_STYLE('',#243,POSITIVE_LENGTH_MEASURE(0.18),#267);
#241=CURVE_STYLE('',#244,POSITIVE_LENGTH_MEASURE(0.18),#267);
#242=CURVE_STYLE('',#245,POSITIVE_LENGTH_MEASURE(0.18),#267);
#243=DRAUGHTING_PRE_DEFINED_CURVE_FONT('continuous');
#244=DRAUGHTING_PRE_DEFINED_CURVE_FONT('continuous');
#245=DRAUGHTING_PRE_DEFINED_CURVE_FONT('continuous');
#246=PRESENTATION_LAYER_ASSIGNMENT('1','Layer 1',(#381,#382,#383,#270,#271,
#272,#33));
#247=STYLED_ITEM('',(#254),#381);
#248=STYLED_ITEM('',(#255),#382);
#249=STYLED_ITEM('',(#256),#383);
#250=STYLED_ITEM('',(#257),#270);
#251=STYLED_ITEM('',(#258),#271);
#252=STYLED_ITEM('',(#259),#272);
#253=STYLED_ITEM('',(#260),#33);
#254=PRESENTATION_STYLE_ASSIGNMENT((#261));
#255=PRESENTATION_STYLE_ASSIGNMENT((#262));
#256=PRESENTATION_STYLE_ASSIGNMENT((#263));
#257=PRESENTATION_STYLE_ASSIGNMENT((#240));
#258=PRESENTATION_STYLE_ASSIGNMENT((#241));
#259=PRESENTATION_STYLE_ASSIGNMENT((#242));
#260=PRESENTATION_STYLE_ASSIGNMENT((#28));
#261=POINT_STYLE('',#264,POSITIVE_LENGTH_MEASURE(3.),#267);
#262=POINT_STYLE('',#265,POSITIVE_LENGTH_MEASURE(3.),#267);
#263=POINT_STYLE('',#266,POSITIVE_LENGTH_MEASURE(3.),#267);
#264=PRE_DEFINED_POINT_MARKER_SYMBOL('plus');
#265=PRE_DEFINED_POINT_MARKER_SYMBOL('plus');
#266=PRE_DEFINED_POINT_MARKER_SYMBOL('plus');
#267=COLOUR_RGB('Medium Maroon',0.6,0.4,0.4);
#268=COLOUR_RGB('Medium Gray',0.501960784313725,0.501960784313725,0.501960784313725);
#269=AXIS2_PLACEMENT_3D('',#380,#305,#306);
#270=AXIS2_PLACEMENT_3D('PCS',#384,#307,#308);
#271=AXIS2_PLACEMENT_3D('MCS',#385,#309,#310);
#272=AXIS2_PLACEMENT_3D('CSW',#386,#311,#312);
#273=AXIS2_PLACEMENT_3D('',#387,#313,#314);
#274=AXIS2_PLACEMENT_3D('',#392,#316,#317);
#275=AXIS2_PLACEMENT_3D('',#396,#319,#320);
#276=AXIS2_PLACEMENT_3D('',#398,#321,#322);
#277=AXIS2_PLACEMENT_3D('',#400,#323,#324);
#278=AXIS2_PLACEMENT_3D('',#401,#325,#326);
#279=AXIS2_PLACEMENT_3D('',#402,#327,#328);
#280=AXIS2_PLACEMENT_3D('',#404,#329,#330);
#281=AXIS2_PLACEMENT_3D('',#411,#331,#332);
#282=AXIS2_PLACEMENT_3D('',#412,#333,#334);
#283=AXIS2_PLACEMENT_3D('',#414,#335,#336);
#284=AXIS2_PLACEMENT_3D('',#415,#337,#338);
#285=AXIS2_PLACEMENT_3D('',#417,#339,#340);
#286=AXIS2_PLACEMENT_3D('',#418,#341,#342);
#287=AXIS2_PLACEMENT_3D('',#420,#343,#344);
#288=AXIS2_PLACEMENT_3D('',#421,#345,#346);
#289=AXIS2_PLACEMENT_3D('',#423,#347,#348);
#290=AXIS2_PLACEMENT_3D('',#424,#349,#350);
#291=AXIS2_PLACEMENT_3D('',#426,#351,#352);
#292=AXIS2_PLACEMENT_3D('',#427,#353,#354);
#293=AXIS2_PLACEMENT_3D('',#429,#355,#356);
#294=AXIS2_PLACEMENT_3D('',#431,#357,#358);
#295=AXIS2_PLACEMENT_3D('',#432,#359,#360);
#296=AXIS2_PLACEMENT_3D('',#434,#361,#362);
#297=AXIS2_PLACEMENT_3D('',#435,#363,#364);
#298=AXIS2_PLACEMENT_3D('',#437,#365,#366);
#299=AXIS2_PLACEMENT_3D('',#457,#367,#368);
#300=AXIS2_PLACEMENT_3D('',#458,#369,#370);
#301=AXIS2_PLACEMENT_3D('',#468,#372,#373);
#302=AXIS2_PLACEMENT_3D('',#469,#374,#375);
#303=AXIS2_PLACEMENT_3D('',#470,#376,#377);
#304=AXIS2_PLACEMENT_3D('',#471,#378,#379);
#305=DIRECTION('',(0.,0.,1.));
#306=DIRECTION('',(1.,0.,0.));
#307=DIRECTION('',(0.,0.,1.));
#308=DIRECTION('',(1.,0.,0.));
#309=DIRECTION('',(0.,0.,1.));
#310=DIRECTION('',(1.,0.,0.));
#311=DIRECTION('',(0.,0.,1.));
#312=DIRECTION('',(1.,0.,0.));
#313=DIRECTION('',(0.,0.,-1.));
#314=DIRECTION('',(1.,0.,0.));
#315=DIRECTION('',(0.,0.,1.));
#316=DIRECTION('',(0.,0.,-1.));
#317=DIRECTION('',(1.,0.,0.));
#318=DIRECTION('',(0.,0.,-1.));
#319=DIRECTION('',(0.,-0.707106781186548,0.707106781186547));
#320=DIRECTION('',(0.,-0.707106781186547,-0.707106781186548));
#321=DIRECTION('',(0.,-0.707106781186548,0.707106781186547));
#322=DIRECTION('',(0.,-0.707106781186547,-0.707106781186548));
#323=DIRECTION('',(0.,-0.707106781186548,0.707106781186547));
#324=DIRECTION('',(0.,-0.707106781186547,-0.707106781186548));
#325=DIRECTION('',(0.,0.,-1.));
#326=DIRECTION('',(-1.,0.,0.));
#327=DIRECTION('',(0.,0.,1.));
#328=DIRECTION('',(-1.,0.,0.));
#329=DIRECTION('',(0.,0.,-1.));
#330=DIRECTION('',(-1.,0.,0.));
#331=DIRECTION('',(0.,0.,1.));
#332=DIRECTION('',(1.,0.,-6.89065928888503E-17));
#333=DIRECTION('',(0.,0.,-1.));
#334=DIRECTION('',(1.,0.,0.));
#335=DIRECTION('',(0.,0.,1.));
#336=DIRECTION('',(1.,0.,0.));
#337=DIRECTION('',(0.,0.,-1.));
#338=DIRECTION('',(1.,0.,0.));
#339=DIRECTION('',(0.,0.,-1.));
#340=DIRECTION('',(-1.,0.,5.45321488735284E-17));
#341=DIRECTION('',(0.,0.,-1.));
#342=DIRECTION('',(1.,0.,0.));
#343=DIRECTION('',(0.,0.,-1.));
#344=DIRECTION('',(-1.,0.,0.));
#345=DIRECTION('',(0.,0.,-1.));
#346=DIRECTION('',(1.,0.,0.));
#347=DIRECTION('',(0.,0.,1.));
#348=DIRECTION('',(1.,0.,1.63247875401483E-17));
#349=DIRECTION('',(0.,0.,1.));
#350=DIRECTION('',(-1.,0.,0.));
#351=DIRECTION('',(0.,0.,-1.));
#352=DIRECTION('',(-1.,0.,0.));
#353=DIRECTION('',(0.,0.,-1.));
#354=DIRECTION('',(-1.,0.,0.));
#355=DIRECTION('',(0.,0.,1.));
#356=DIRECTION('',(1.,0.,0.));
#357=DIRECTION('',(0.,0.,-1.));
#358=DIRECTION('',(-1.,0.,0.));
#359=DIRECTION('',(0.,0.,1.));
#360=DIRECTION('',(1.,0.,0.));
#361=DIRECTION('',(0.,0.,1.));
#362=DIRECTION('',(1.,0.,4.91138989547214E-17));
#363=DIRECTION('',(0.,0.,1.));
#364=DIRECTION('',(1.,0.,0.));
#365=DIRECTION('',(0.,0.,-1.));
#366=DIRECTION('',(-1.,0.,0.));
#367=DIRECTION('',(0.,0.,1.));
#368=DIRECTION('',(1.,0.,-8.27684213870999E-17));
#369=DIRECTION('',(0.,0.,-1.));
#370=DIRECTION('',(-1.,0.,0.));
#371=DIRECTION('',(-1.,0.,0.));
#372=DIRECTION('',(0.,-1.,0.));
#373=DIRECTION('',(1.,0.,0.));
#374=DIRECTION('',(0.,-0.707106781186548,0.707106781186547));
#375=DIRECTION('',(0.,-0.707106781186547,-0.707106781186548));
#376=DIRECTION('',(0.,0.,-1.));
#377=DIRECTION('',(-1.,0.,4.13029399042097E-17));
#378=DIRECTION('',(0.,0.,-1.));
#379=DIRECTION('',(-1.,0.,6.92158992908452E-17));
#380=CARTESIAN_POINT('',(0.,0.,0.));
#381=CARTESIAN_POINT('PCS',(0.,0.,0.));
#382=CARTESIAN_POINT('MCS',(0.,0.,0.));
#383=CARTESIAN_POINT('CSW',(1.05430982812427E-13,0.,-5.));
#384=CARTESIAN_POINT('',(0.,0.,0.));
#385=CARTESIAN_POINT('',(0.,0.,0.));
#386=CARTESIAN_POINT('',(1.05430982812427E-13,0.,-5.));
#387=CARTESIAN_POINT('',(1.05430982812427E-13,0.,0.));
#388=CARTESIAN_POINT('',(8.00000000000011,0.,0.));
#389=CARTESIAN_POINT('',(-3.87667982256786,-6.9979535260885,45.));
#390=CARTESIAN_POINT('',(-3.87667982256786,-6.9979535260885,8.00000000000001));
#391=CARTESIAN_POINT('',(-3.87667982256786,-6.9979535260885,44.));
#392=CARTESIAN_POINT('',(1.05430982812427E-13,0.,44.));
#393=CARTESIAN_POINT('',(3.87667982256807,-6.9979535260885,44.));
#394=CARTESIAN_POINT('',(3.87667982256807,-6.9979535260885,45.));
#395=CARTESIAN_POINT('',(3.87667982256806,-6.9979535260885,8.00000000000001));
#396=CARTESIAN_POINT('',(1.05430982812427E-13,0.,14.9979535260885));
#397=CARTESIAN_POINT('',(0.180940306533651,-7.99795352608851,7.));
#398=CARTESIAN_POINT('',(1.05430982812427E-13,0.,14.9979535260885));
#399=CARTESIAN_POINT('',(-0.180940306533454,-7.99795352608851,7.));
#400=CARTESIAN_POINT('',(1.05430982812427E-13,0.,14.9979535260885));
#401=CARTESIAN_POINT('',(1.05430982812427E-13,0.,45.));
#402=CARTESIAN_POINT('',(1.05430982812427E-13,0.,44.));
#403=CARTESIAN_POINT('',(-5.99999999999989,0.,44.));
#404=CARTESIAN_POINT('',(1.05430982812427E-13,0.,45.));
#405=CARTESIAN_POINT('',(-0.169252612108588,-6.9979535260885,45.));
#406=CARTESIAN_POINT('',(0.169252612108654,-6.9979535260885,45.));
#407=CARTESIAN_POINT('',(0.169252612108654,-6.9979535260885,45.));
#408=CARTESIAN_POINT('',(0.056417537369609,-6.9979535260885,44.9972717669804));
#409=CARTESIAN_POINT('',(-0.056417537369424,-6.9979535260885,44.9972717669804));
#410=CARTESIAN_POINT('',(-0.169252612108445,-6.9979535260885,45.));
#411=CARTESIAN_POINT('',(1.05430982812427E-13,0.,45.));
#412=CARTESIAN_POINT('',(1.05430982812427E-13,0.,0.));
#413=CARTESIAN_POINT('',(9.5000000000001,0.,0.));
#414=CARTESIAN_POINT('',(1.05430982812427E-13,-9.5,0.));
#415=CARTESIAN_POINT('',(1.05430982812427E-13,0.,-0.5));
#416=CARTESIAN_POINT('',(10.0000000000001,0.,-0.5));
#417=CARTESIAN_POINT('',(1.05430982812427E-13,0.,-0.5));
#418=CARTESIAN_POINT('',(1.05430982812427E-13,0.,-4.50000000000002));
#419=CARTESIAN_POINT('',(10.0000000000001,0.,-4.50000000000002));
#420=CARTESIAN_POINT('',(1.05430982812427E-13,0.,45.));
#421=CARTESIAN_POINT('',(1.05430982812427E-13,0.,-5.00000000000002));
#422=CARTESIAN_POINT('',(9.50000000000011,0.,-5.00000000000002));
#423=CARTESIAN_POINT('',(1.05430982812427E-13,0.,-5.00000000000002));
#424=CARTESIAN_POINT('',(1.05430982812427E-13,0.,-5.00000000000002));
#425=CARTESIAN_POINT('',(-2.99999999999993,0.,-5.00000000000002));
#426=CARTESIAN_POINT('',(1.05430982812427E-13,-2.5,-5.00000000000002));
#427=CARTESIAN_POINT('',(1.05430982812427E-13,0.,-4.50000000000002));
#428=CARTESIAN_POINT('',(-2.49999999999992,0.,-4.50000000000002));
#429=CARTESIAN_POINT('',(1.05430982812427E-13,0.,25.5));
#430=CARTESIAN_POINT('',(2.50000000000017,0.,25.5));
#431=CARTESIAN_POINT('',(1.05430982812427E-13,0.,45.));
#432=CARTESIAN_POINT('',(1.05430982812427E-13,0.,30.));
#433=CARTESIAN_POINT('',(5.02047799674382,0.,30.));
#434=CARTESIAN_POINT('',(1.05430982812427E-13,0.,30.));
#435=CARTESIAN_POINT('',(1.05430982812427E-13,0.,34.));
#436=CARTESIAN_POINT('',(5.02047799674382,0.,34.));
#437=CARTESIAN_POINT('',(1.05430982812427E-13,0.,45.));
#438=CARTESIAN_POINT('',(-1.57347689030022,-6.01023899837186,34.9897610016281));
#439=CARTESIAN_POINT('',(1.57347689030043,-6.01023899837186,34.9897610016281));
#440=CARTESIAN_POINT('',(3.13726457312901,-5.36249693147227,34.9897610016281));
#441=CARTESIAN_POINT('',(5.36249693147237,-3.13726457312891,34.9897610016282));
#442=CARTESIAN_POINT('',(6.01023899837196,-1.57347689030033,34.9897610016282));
#443=CARTESIAN_POINT('',(6.01023899837196,1.57347689030032,34.9897610016281));
#444=CARTESIAN_POINT('',(5.36249693147237,3.1372645731289,34.9897610016282));
#445=CARTESIAN_POINT('',(3.13726457312901,5.36249693147226,34.9897610016281));
#446=CARTESIAN_POINT('',(1.57347689030043,6.01023899837186,34.9897610016282));
#447=CARTESIAN_POINT('',(-1.57347689030022,6.01023899837186,34.9897610016282));
#448=CARTESIAN_POINT('',(-3.13726457312879,5.36249693147227,34.9897610016282));
#449=CARTESIAN_POINT('',(-5.36249693147216,3.13726457312891,34.9897610016282));
#450=CARTESIAN_POINT('',(-6.01023899837175,1.57347689030033,34.9897610016282));
#451=CARTESIAN_POINT('',(-6.01023899837176,-1.57347689030032,34.9897610016282));
#452=CARTESIAN_POINT('',(-5.36249693147217,-3.1372645731289,34.9897610016282));
#453=CARTESIAN_POINT('',(-3.1372645731288,-5.36249693147226,34.9897610016282));
#454=CARTESIAN_POINT('',(-1.57347689030022,-6.01023899837186,34.9897610016281));
#455=CARTESIAN_POINT('',(1.57347689030043,-6.01023899837186,34.9897610016281));
#456=CARTESIAN_POINT('',(1.04694627338366E-13,-6.00511949918593,34.9948805008141));
#457=CARTESIAN_POINT('',(1.05430982812427E-13,0.,35.));
#458=CARTESIAN_POINT('',(1.05430982812427E-13,0.,45.));
#459=CARTESIAN_POINT('',(3.87667982256807,-6.9979535260885,44.));
#460=CARTESIAN_POINT('',(2.71172553190104,-6.9979535260885,44.5645193491054));
#461=CARTESIAN_POINT('',(1.4705868434088,-6.9979535260885,44.9685351117323));
#462=CARTESIAN_POINT('',(0.169252612108574,-6.9979535260885,45.));
#463=CARTESIAN_POINT('',(-0.169252612108364,-6.9979535260885,45.));
#464=CARTESIAN_POINT('',(-1.46990444871299,-6.9979535260885,44.9685516113159));
#465=CARTESIAN_POINT('',(-2.71027020558216,-6.9979535260885,44.5652245783772));
#466=CARTESIAN_POINT('',(-3.87667982256786,-6.9979535260885,44.));
#467=CARTESIAN_POINT('',(-24.9999999999999,-6.9979535260885,8.00000000000001));
#468=CARTESIAN_POINT('',(-24.9999999999999,-6.9979535260885,45.));
#469=CARTESIAN_POINT('',(-24.9999999999999,-6.9979535260885,8.00000000000001));
#470=CARTESIAN_POINT('',(1.05430982812427E-13,0.,44.));
#471=CARTESIAN_POINT('',(1.05430982812427E-13,0.,-4.50000000000002));
#472=MECHANICAL_DESIGN_GEOMETRIC_PRESENTATION_REPRESENTATION('',(#247,#248,
#249,#250,#251,#252,#253),#473);
#473=(
GEOMETRIC_REPRESENTATION_CONTEXT(3)
GLOBAL_UNCERTAINTY_ASSIGNED_CONTEXT((#474))
GLOBAL_UNIT_ASSIGNED_CONTEXT((#480,#476,#475))
REPRESENTATION_CONTEXT('1574156524681','TOP_LEVEL_ASSEMBLY_PART')
);
#474=UNCERTAINTY_MEASURE_WITH_UNIT(LENGTH_MEASURE(0.0508),#480,
'DISTANCE_ACCURACY_VALUE','Maximum Tolerance applied to model');
#475=(
NAMED_UNIT(*)
SI_UNIT($,.STERADIAN.)
SOLID_ANGLE_UNIT()
);
#476=(
CONVERSION_BASED_UNIT('DEGREE',#478)
NAMED_UNIT(#477)
PLANE_ANGLE_UNIT()
);
#477=DIMENSIONAL_EXPONENTS(0.,0.,0.,0.,0.,0.,0.);
#478=PLANE_ANGLE_MEASURE_WITH_UNIT(PLANE_ANGLE_MEASURE(0.0174532925),#479);
#479=(
NAMED_UNIT(*)
PLANE_ANGLE_UNIT()
SI_UNIT($,.RADIAN.)
);
#480=(
LENGTH_UNIT()
NAMED_UNIT(*)
SI_UNIT(.MILLI.,.METRE.)
);
ENDSEC;
END-ISO-10303-21;
