ISO-10303-21;
HEADER;
/* Generated by software containing ST-Developer
 * from STEP Tools, Inc. (www.steptools.com) 
 */
/* OPTION: using custom schema-name function */

FILE_DESCRIPTION(
/* description */ (''),
/* implementation_level */ '2;1');

FILE_NAME(
/* name */ 'aaa321245_a.stp',
/* time_stamp */ '2018-07-03T11:36:21+02:00',
/* author */ (''),
/* organization */ ('SMS'),
/* preprocessor_version */ 'ST-DEVELOPER v15',
/* originating_system */ 'SIEMENS PLM Software NX 8.5',
/* authorisation */ '');

FILE_SCHEMA (('AUTOMOTIVE_DESIGN { 1 0 10303 214 3 1 1 1 }'));
ENDSEC;

DATA;
#10=CONSTRUCTIVE_GEOMETRY_REPRESENTATION_RELATIONSHIP(
'supplemental geometry','',#26,#11);
#11=CONSTRUCTIVE_GEOMETRY_REPRESENTATION('supplemental geometry',(#231,
#232),#425);
#12=GEOMETRICALLY_BOUNDED_WIREFRAME_SHAPE_REPRESENTATION(
'AAA321245_A-None',(#27),#425);
#13=SHAPE_REPRESENTATION_RELATIONSHIP('None',
'relationship between AAA321245_A-None and AAA321245_A-None',#26,#15);
#14=SHAPE_REPRESENTATION_RELATIONSHIP('None',
'relationship between AAA321245_A-None and AAA321245_A-None',#26,#12);
#15=ADVANCED_BREP_SHAPE_REPRESENTATION('AAA321245_A-None',(#33),#425);
#16=SHAPE_DEFINITION_REPRESENTATION(#17,#26);
#17=PRODUCT_DEFINITION_SHAPE('','',#18);
#18=PRODUCT_DEFINITION(' ','',#20,#19);
#19=PRODUCT_DEFINITION_CONTEXT('part definition',#25,'design');
#20=PRODUCT_DEFINITION_FORMATION_WITH_SPECIFIED_SOURCE(' ',' ',#22,
 .NOT_KNOWN.);
#21=PRODUCT_RELATED_PRODUCT_CATEGORY('part','',(#22));
#22=PRODUCT('AAA321245_A','AAA321245_A','MASTER_INSERT',(#23));
#23=PRODUCT_CONTEXT(' ',#25,'mechanical');
#24=APPLICATION_PROTOCOL_DEFINITION('international standard',
'automotive_design',2010,#25);
#25=APPLICATION_CONTEXT(
'core data for automotive mechanical design processes');
#26=SHAPE_REPRESENTATION('AAA321245_A-None',(#230),#425);
#27=GEOMETRIC_CURVE_SET('None',(#310,#311,#210));
#28=SURFACE_STYLE_USAGE(.BOTH.,#29);
#29=SURFACE_SIDE_STYLE('',(#30));
#30=SURFACE_STYLE_FILL_AREA(#31);
#31=FILL_AREA_STYLE('',(#32));
#32=FILL_AREA_STYLE_COLOUR('',#229);
#33=MANIFOLD_SOLID_BREP('',#34);
#34=CLOSED_SHELL('',(#47,#48,#49,#50,#51,#52,#53,#54,#55,#56));
#35=CONICAL_SURFACE('',#236,1.93947980722443E-015,11.);
#36=CONICAL_SURFACE('',#241,1.93947980722443E-015,11.);
#37=CONICAL_SURFACE('',#245,1.93947980722443E-015,11.);
#38=CONICAL_SURFACE('',#248,1.93947980722443E-015,11.);
#39=CIRCLE('',#234,1.2);
#40=CIRCLE('',#235,0.42247876344913);
#41=CIRCLE('',#239,1.2);
#42=CIRCLE('',#240,0.42247876344913);
#43=CIRCLE('',#243,1.2);
#44=CIRCLE('',#244,0.42247876344913);
#45=CIRCLE('',#246,1.2);
#46=CIRCLE('',#247,0.42247876344913);
#47=ADVANCED_FACE('',(#63),#57,.T.);
#48=ADVANCED_FACE('',(#64),#35,.T.);
#49=ADVANCED_FACE('',(#65),#58,.T.);
#50=ADVANCED_FACE('',(#66),#59,.T.);
#51=ADVANCED_FACE('',(#67),#36,.T.);
#52=ADVANCED_FACE('',(#68),#60,.T.);
#53=ADVANCED_FACE('',(#69),#37,.T.);
#54=ADVANCED_FACE('',(#70),#38,.T.);
#55=ADVANCED_FACE('',(#71),#61,.F.);
#56=ADVANCED_FACE('',(#72),#62,.T.);
#57=PLANE('',#233);
#58=PLANE('',#237);
#59=PLANE('',#238);
#60=PLANE('',#242);
#61=PLANE('',#249);
#62=PLANE('',#250);
#63=FACE_OUTER_BOUND('',#73,.T.);
#64=FACE_OUTER_BOUND('',#74,.T.);
#65=FACE_OUTER_BOUND('',#75,.T.);
#66=FACE_OUTER_BOUND('',#76,.T.);
#67=FACE_OUTER_BOUND('',#77,.T.);
#68=FACE_OUTER_BOUND('',#78,.T.);
#69=FACE_OUTER_BOUND('',#79,.T.);
#70=FACE_OUTER_BOUND('',#80,.T.);
#71=FACE_OUTER_BOUND('',#81,.T.);
#72=FACE_OUTER_BOUND('',#82,.T.);
#73=EDGE_LOOP('',(#83,#84,#85,#86));
#74=EDGE_LOOP('',(#87,#88,#89,#90));
#75=EDGE_LOOP('',(#91,#92,#93,#94));
#76=EDGE_LOOP('',(#95,#96,#97,#98));
#77=EDGE_LOOP('',(#99,#100,#101,#102));
#78=EDGE_LOOP('',(#103,#104,#105,#106));
#79=EDGE_LOOP('',(#107,#108,#109,#110));
#80=EDGE_LOOP('',(#111,#112,#113,#114));
#81=EDGE_LOOP('',(#115,#116,#117,#118,#119,#120,#121,#122));
#82=EDGE_LOOP('',(#123,#124,#125,#126,#127,#128,#129,#130));
#83=ORIENTED_EDGE('',*,*,#147,.T.);
#84=ORIENTED_EDGE('',*,*,#148,.T.);
#85=ORIENTED_EDGE('',*,*,#149,.F.);
#86=ORIENTED_EDGE('',*,*,#150,.F.);
#87=ORIENTED_EDGE('',*,*,#151,.F.);
#88=ORIENTED_EDGE('',*,*,#152,.F.);
#89=ORIENTED_EDGE('',*,*,#153,.T.);
#90=ORIENTED_EDGE('',*,*,#149,.T.);
#91=ORIENTED_EDGE('',*,*,#152,.T.);
#92=ORIENTED_EDGE('',*,*,#154,.T.);
#93=ORIENTED_EDGE('',*,*,#155,.F.);
#94=ORIENTED_EDGE('',*,*,#156,.F.);
#95=ORIENTED_EDGE('',*,*,#157,.T.);
#96=ORIENTED_EDGE('',*,*,#158,.T.);
#97=ORIENTED_EDGE('',*,*,#159,.F.);
#98=ORIENTED_EDGE('',*,*,#160,.F.);
#99=ORIENTED_EDGE('',*,*,#161,.F.);
#100=ORIENTED_EDGE('',*,*,#147,.F.);
#101=ORIENTED_EDGE('',*,*,#162,.T.);
#102=ORIENTED_EDGE('',*,*,#159,.T.);
#103=ORIENTED_EDGE('',*,*,#163,.T.);
#104=ORIENTED_EDGE('',*,*,#164,.T.);
#105=ORIENTED_EDGE('',*,*,#165,.F.);
#106=ORIENTED_EDGE('',*,*,#166,.F.);
#107=ORIENTED_EDGE('',*,*,#167,.F.);
#108=ORIENTED_EDGE('',*,*,#157,.F.);
#109=ORIENTED_EDGE('',*,*,#168,.T.);
#110=ORIENTED_EDGE('',*,*,#165,.T.);
#111=ORIENTED_EDGE('',*,*,#169,.F.);
#112=ORIENTED_EDGE('',*,*,#163,.F.);
#113=ORIENTED_EDGE('',*,*,#170,.T.);
#114=ORIENTED_EDGE('',*,*,#155,.T.);
#115=ORIENTED_EDGE('',*,*,#160,.T.);
#116=ORIENTED_EDGE('',*,*,#162,.F.);
#117=ORIENTED_EDGE('',*,*,#150,.T.);
#118=ORIENTED_EDGE('',*,*,#153,.F.);
#119=ORIENTED_EDGE('',*,*,#156,.T.);
#120=ORIENTED_EDGE('',*,*,#170,.F.);
#121=ORIENTED_EDGE('',*,*,#166,.T.);
#122=ORIENTED_EDGE('',*,*,#168,.F.);
#123=ORIENTED_EDGE('',*,*,#158,.F.);
#124=ORIENTED_EDGE('',*,*,#167,.T.);
#125=ORIENTED_EDGE('',*,*,#164,.F.);
#126=ORIENTED_EDGE('',*,*,#169,.T.);
#127=ORIENTED_EDGE('',*,*,#154,.F.);
#128=ORIENTED_EDGE('',*,*,#151,.T.);
#129=ORIENTED_EDGE('',*,*,#148,.F.);
#130=ORIENTED_EDGE('',*,*,#161,.T.);
#131=VERTEX_POINT('',#375);
#132=VERTEX_POINT('',#376);
#133=VERTEX_POINT('',#378);
#134=VERTEX_POINT('',#380);
#135=VERTEX_POINT('',#384);
#136=VERTEX_POINT('',#386);
#137=VERTEX_POINT('',#390);
#138=VERTEX_POINT('',#392);
#139=VERTEX_POINT('',#396);
#140=VERTEX_POINT('',#397);
#141=VERTEX_POINT('',#399);
#142=VERTEX_POINT('',#401);
#143=VERTEX_POINT('',#408);
#144=VERTEX_POINT('',#409);
#145=VERTEX_POINT('',#411);
#146=VERTEX_POINT('',#413);
#147=EDGE_CURVE('',#131,#132,#171,.T.);
#148=EDGE_CURVE('',#132,#133,#172,.T.);
#149=EDGE_CURVE('',#134,#133,#173,.T.);
#150=EDGE_CURVE('',#131,#134,#174,.T.);
#151=EDGE_CURVE('',#135,#133,#39,.T.);
#152=EDGE_CURVE('',#136,#135,#175,.T.);
#153=EDGE_CURVE('',#136,#134,#40,.T.);
#154=EDGE_CURVE('',#135,#137,#176,.T.);
#155=EDGE_CURVE('',#138,#137,#177,.T.);
#156=EDGE_CURVE('',#136,#138,#178,.T.);
#157=EDGE_CURVE('',#139,#140,#179,.T.);
#158=EDGE_CURVE('',#140,#141,#180,.T.);
#159=EDGE_CURVE('',#142,#141,#181,.T.);
#160=EDGE_CURVE('',#139,#142,#182,.T.);
#161=EDGE_CURVE('',#132,#141,#41,.T.);
#162=EDGE_CURVE('',#131,#142,#42,.T.);
#163=EDGE_CURVE('',#143,#144,#183,.T.);
#164=EDGE_CURVE('',#144,#145,#184,.T.);
#165=EDGE_CURVE('',#146,#145,#185,.T.);
#166=EDGE_CURVE('',#143,#146,#186,.T.);
#167=EDGE_CURVE('',#140,#145,#43,.T.);
#168=EDGE_CURVE('',#139,#146,#44,.T.);
#169=EDGE_CURVE('',#144,#137,#45,.T.);
#170=EDGE_CURVE('',#143,#138,#46,.T.);
#171=LINE('',#374,#187);
#172=LINE('',#377,#188);
#173=LINE('',#379,#189);
#174=LINE('',#381,#190);
#175=LINE('',#385,#191);
#176=LINE('',#389,#192);
#177=LINE('',#391,#193);
#178=LINE('',#393,#194);
#179=LINE('',#395,#195);
#180=LINE('',#398,#196);
#181=LINE('',#400,#197);
#182=LINE('',#402,#198);
#183=LINE('',#407,#199);
#184=LINE('',#410,#200);
#185=LINE('',#412,#201);
#186=LINE('',#414,#202);
#187=VECTOR('',#257,1.);
#188=VECTOR('',#258,1.);
#189=VECTOR('',#259,1.);
#190=VECTOR('',#260,1.);
#191=VECTOR('',#265,1.);
#192=VECTOR('',#270,1.);
#193=VECTOR('',#271,1.);
#194=VECTOR('',#272,1.);
#195=VECTOR('',#275,1.);
#196=VECTOR('',#276,1.);
#197=VECTOR('',#277,1.);
#198=VECTOR('',#278,1.);
#199=VECTOR('',#287,1.);
#200=VECTOR('',#288,1.);
#201=VECTOR('',#289,1.);
#202=VECTOR('',#290,1.);
#203=CURVE_STYLE('',#207,POSITIVE_LENGTH_MEASURE(0.18),#206);
#204=CURVE_STYLE('',#208,POSITIVE_LENGTH_MEASURE(0.18),#228);
#205=CURVE_STYLE('',#209,POSITIVE_LENGTH_MEASURE(0.18),#228);
#206=DRAUGHTING_PRE_DEFINED_COLOUR('blue');
#207=DRAUGHTING_PRE_DEFINED_CURVE_FONT('continuous');
#208=DRAUGHTING_PRE_DEFINED_CURVE_FONT('continuous');
#209=DRAUGHTING_PRE_DEFINED_CURVE_FONT('continuous');
#210=B_SPLINE_CURVE_WITH_KNOTS('CUTTING EDGE LINE',3,(#312,#313,#314,#315,
#316,#317,#318,#319,#320,#321,#322,#323,#324,#325,#326,#327,#328,#329,#330,
#331,#332,#333,#334,#335,#336,#337,#338,#339,#340,#341,#342,#343,#344,#345,
#346,#347,#348,#349,#350,#351,#352,#353,#354,#355,#356,#357,#358,#359,#360,
#361,#362,#363,#364,#365,#366,#367,#368,#369,#370,#371),.UNSPECIFIED.,.F.,
 .F.,(1,1,2,1,1,1,1,1,1,1,1,1,1,1,1,1,1,1,1,1,1,1,1,1,1,1,1,1,1,1,1,1,1,
1,1,1,1,1,1,1,1,1,1,1,1,1,1,1,1,1,1,1,1,1,1,1,1,1,1,2,1,1),(-0.00970030095000007,
-0.00485015047500004,0.,0.1055993981,0.20987880372375,0.2111987962,0.2136238714375,
0.216048946675,0.22089909715,0.225749247625,0.2305993981,0.235449548575,
0.24029969905,0.245149849525,0.2475749247625,0.25,0.25131999247625,0.30279969905,
0.3555993981,0.45987880372375,0.4611987962,0.4636238714375,0.466048946675,
0.47089909715,0.475749247625,0.4805993981,0.485449548575,0.49029969905,
0.495149849525,0.4975749247625,0.5,0.50131999247625,0.55279969905,0.6055993981,
0.70987880372375,0.7111987962,0.7136238714375,0.716048946675,0.72089909715,
0.725749247625,0.7305993981,0.735449548575,0.74029969905,0.745149849525,
0.7475749247625,0.75,0.75131999247625,0.80279969905,0.8555993981,0.95987880372375,
0.9611987962,0.9636238714375,0.966048946675,0.97089909715,0.975749247625,
0.9805993981,0.985449548575,0.99029969905,0.995149849525,1.,1.1055993981,
1.20987880372375),.UNSPECIFIED.);
#211=PRESENTATION_LAYER_ASSIGNMENT('1','Layer 1',(#310,#311,#210,#231,#232,
#33));
#212=STYLED_ITEM('',(#218),#310);
#213=STYLED_ITEM('',(#219),#311);
#214=STYLED_ITEM('',(#220),#210);
#215=STYLED_ITEM('',(#221),#231);
#216=STYLED_ITEM('',(#222),#232);
#217=STYLED_ITEM('',(#223),#33);
#218=PRESENTATION_STYLE_ASSIGNMENT((#224));
#219=PRESENTATION_STYLE_ASSIGNMENT((#225));
#220=PRESENTATION_STYLE_ASSIGNMENT((#203));
#221=PRESENTATION_STYLE_ASSIGNMENT((#204));
#222=PRESENTATION_STYLE_ASSIGNMENT((#205));
#223=PRESENTATION_STYLE_ASSIGNMENT((#28));
#224=POINT_STYLE('',#226,POSITIVE_LENGTH_MEASURE(3.),#228);
#225=POINT_STYLE('',#227,POSITIVE_LENGTH_MEASURE(3.),#228);
#226=PRE_DEFINED_POINT_MARKER_SYMBOL('plus');
#227=PRE_DEFINED_POINT_MARKER_SYMBOL('plus');
#228=COLOUR_RGB('Dark Red Pink',0.8,0.,0.2);
#229=COLOUR_RGB('Dark Gray',0.4,0.4,0.4);
#230=AXIS2_PLACEMENT_3D('',#309,#251,#252);
#231=AXIS2_PLACEMENT_3D('PCS',#372,#253,#254);
#232=AXIS2_PLACEMENT_3D('MCS',#373,#255,#256);
#233=AXIS2_PLACEMENT_3D('',#382,#261,#262);
#234=AXIS2_PLACEMENT_3D('',#383,#263,#264);
#235=AXIS2_PLACEMENT_3D('',#387,#266,#267);
#236=AXIS2_PLACEMENT_3D('',#388,#268,#269);
#237=AXIS2_PLACEMENT_3D('',#394,#273,#274);
#238=AXIS2_PLACEMENT_3D('',#403,#279,#280);
#239=AXIS2_PLACEMENT_3D('',#404,#281,#282);
#240=AXIS2_PLACEMENT_3D('',#405,#283,#284);
#241=AXIS2_PLACEMENT_3D('',#406,#285,#286);
#242=AXIS2_PLACEMENT_3D('',#415,#291,#292);
#243=AXIS2_PLACEMENT_3D('',#416,#293,#294);
#244=AXIS2_PLACEMENT_3D('',#417,#295,#296);
#245=AXIS2_PLACEMENT_3D('',#418,#297,#298);
#246=AXIS2_PLACEMENT_3D('',#419,#299,#300);
#247=AXIS2_PLACEMENT_3D('',#420,#301,#302);
#248=AXIS2_PLACEMENT_3D('',#421,#303,#304);
#249=AXIS2_PLACEMENT_3D('',#422,#305,#306);
#250=AXIS2_PLACEMENT_3D('',#423,#307,#308);
#251=DIRECTION('',(0.,0.,1.));
#252=DIRECTION('',(1.,0.,0.));
#253=DIRECTION('',(0.,0.,1.));
#254=DIRECTION('',(1.,0.,0.));
#255=DIRECTION('',(0.,0.,1.));
#256=DIRECTION('',(1.,0.,0.));
#257=DIRECTION('',(-0.190808995376545,1.81156113249928E-016,0.981627183447664));
#258=DIRECTION('',(0.,1.,0.));
#259=DIRECTION('',(-0.190808995376545,0.,0.981627183447664));
#260=DIRECTION('',(0.,1.,0.));
#261=DIRECTION('',(-0.981627183447664,0.,-0.190808995376545));
#262=DIRECTION('',(-0.190808995376545,0.,0.981627183447664));
#263=DIRECTION('',(0.,0.,1.));
#264=DIRECTION('',(1.,0.,0.));
#265=DIRECTION('',(-4.2368107994527E-017,0.190808995376545,0.981627183447664));
#266=DIRECTION('',(0.,0.,1.));
#267=DIRECTION('',(1.,0.,0.));
#268=DIRECTION('',(0.,0.,1.));
#269=DIRECTION('',(1.,0.,1.07092543499214E-016));
#270=DIRECTION('',(1.,2.22044604925031E-016,0.));
#271=DIRECTION('',(7.12940771727893E-016,0.190808995376545,0.981627183447664));
#272=DIRECTION('',(1.,2.22044604925031E-016,0.));
#273=DIRECTION('',(-2.17965020132308E-016,0.981627183447664,-0.190808995376545));
#274=DIRECTION('',(-4.16333634234434E-017,0.190808995376545,0.981627183447664));
#275=DIRECTION('',(-4.04680334494384E-016,-0.190808995376545,0.981627183447664));
#276=DIRECTION('',(-1.,1.17145536458252E-015,0.));
#277=DIRECTION('',(-2.23524221244455E-016,-0.190808995376545,0.981627183447664));
#278=DIRECTION('',(-1.,1.17145536458252E-015,0.));
#279=DIRECTION('',(-1.1499324300698E-015,-0.981627183447664,-0.190808995376545));
#280=DIRECTION('',(-2.22044604925031E-016,-0.190808995376545,0.981627183447664));
#281=DIRECTION('',(0.,0.,1.));
#282=DIRECTION('',(1.,0.,0.));
#283=DIRECTION('',(0.,0.,1.));
#284=DIRECTION('',(1.,0.,0.));
#285=DIRECTION('',(0.,0.,1.));
#286=DIRECTION('',(1.17355578917888E-015,1.,1.07092543499214E-016));
#287=DIRECTION('',(0.190808995376545,-6.70572663733366E-016,0.981627183447664));
#288=DIRECTION('',(-2.34291072916505E-015,-1.,0.));
#289=DIRECTION('',(0.190808995376545,-4.47048442488911E-016,0.981627183447664));
#290=DIRECTION('',(-2.34291072916505E-015,-1.,0.));
#291=DIRECTION('',(0.981627183447664,-2.2998648601396E-015,-0.190808995376545));
#292=DIRECTION('',(0.190808995376545,-4.47558656802016E-016,0.981627183447664));
#293=DIRECTION('',(0.,0.,1.));
#294=DIRECTION('',(1.,0.,0.));
#295=DIRECTION('',(0.,0.,1.));
#296=DIRECTION('',(1.,0.,0.));
#297=DIRECTION('',(0.,0.,1.));
#298=DIRECTION('',(-1.,2.3426493890453E-015,1.07092543499214E-016));
#299=DIRECTION('',(0.,0.,1.));
#300=DIRECTION('',(1.,0.,0.));
#301=DIRECTION('',(0.,0.,1.));
#302=DIRECTION('',(1.,0.,0.));
#303=DIRECTION('',(0.,0.,1.));
#304=DIRECTION('',(-3.73485245453508E-015,-1.,1.07092543499214E-016));
#305=DIRECTION('',(0.,0.,1.));
#306=DIRECTION('',(1.,0.,0.));
#307=DIRECTION('',(0.,0.,1.));
#308=DIRECTION('',(1.,0.,0.));
#309=CARTESIAN_POINT('',(0.,0.,0.));
#310=CARTESIAN_POINT('PCS',(-6.33,-6.33,0.));
#311=CARTESIAN_POINT('MCS',(0.,0.,0.));
#312=CARTESIAN_POINT('',(-5.20853981633975,-6.33,0.));
#313=CARTESIAN_POINT('',(-3.42000000000001,-6.33,0.));
#314=CARTESIAN_POINT('',(-0.0213750000000115,-6.33,0.));
#315=CARTESIAN_POINT('',(3.39862499999999,-6.33000000000001,0.));
#316=CARTESIAN_POINT('',(5.14789497543812,-6.33052631331199,0.));
#317=CARTESIAN_POINT('',(5.24780922963128,-6.32613225256047,0.));
#318=CARTESIAN_POINT('',(5.40337795201997,-6.30307452593832,0.));
#319=CARTESIAN_POINT('',(5.59218036459022,-6.24580210442064,0.));
#320=CARTESIAN_POINT('',(5.80098178507982,-6.13419520619086,0.));
#321=CARTESIAN_POINT('',(5.98399795830119,-5.98399795834267,0.));
#322=CARTESIAN_POINT('',(6.1341952062585,-5.80098178498168,0.));
#323=CARTESIAN_POINT('',(6.24580210442703,-5.59218036453931,0.));
#324=CARTESIAN_POINT('',(6.3030745259121,-5.40337795214119,0.));
#325=CARTESIAN_POINT('',(6.32613225255227,-5.24780922967021,0.));
#326=CARTESIAN_POINT('',(6.33052631331309,-5.14789497543286,0.));
#327=CARTESIAN_POINT('',(6.32999999999999,-4.25362500000002,0.));
#328=CARTESIAN_POINT('',(6.33,-2.54362500000002,0.));
#329=CARTESIAN_POINT('',(6.33000000000001,0.833624999999981,0.));
#330=CARTESIAN_POINT('',(6.33000000000001,3.39862499999998,0.));
#331=CARTESIAN_POINT('',(6.330526313312,5.14789497543812,0.));
#332=CARTESIAN_POINT('',(6.32613225256048,5.24780922963127,0.));
#333=CARTESIAN_POINT('',(6.30307452593833,5.40337795201997,0.));
#334=CARTESIAN_POINT('',(6.24580210442065,5.59218036459022,0.));
#335=CARTESIAN_POINT('',(6.13419520619086,5.80098178507981,0.));
#336=CARTESIAN_POINT('',(5.98399795834268,5.98399795830118,0.));
#337=CARTESIAN_POINT('',(5.80098178498169,6.1341952062585,0.));
#338=CARTESIAN_POINT('',(5.59218036453932,6.24580210442703,0.));
#339=CARTESIAN_POINT('',(5.4033779521412,6.3030745259121,0.));
#340=CARTESIAN_POINT('',(5.24780922967022,6.32613225255227,0.));
#341=CARTESIAN_POINT('',(5.14789497543287,6.33052631331309,0.));
#342=CARTESIAN_POINT('',(4.25362500000002,6.32999999999999,0.));
#343=CARTESIAN_POINT('',(2.54362500000002,6.33,0.));
#344=CARTESIAN_POINT('',(-0.833624999999991,6.33,0.));
#345=CARTESIAN_POINT('',(-3.398625,6.33,0.));
#346=CARTESIAN_POINT('',(-5.14789497543814,6.33052631331199,0.));
#347=CARTESIAN_POINT('',(-5.2478092296313,6.32613225256046,0.));
#348=CARTESIAN_POINT('',(-5.40337795202097,6.30307452593745,0.));
#349=CARTESIAN_POINT('',(-5.59218036459613,6.24580210441547,0.));
#350=CARTESIAN_POINT('',(-5.80098178505629,6.1341952062115,0.));
#351=CARTESIAN_POINT('',(-5.98399795837857,5.9839979582653,0.));
#352=CARTESIAN_POINT('',(-6.13419520623786,5.80098178500522,0.));
#353=CARTESIAN_POINT('',(-6.24580210443221,5.59218036453341,0.));
#354=CARTESIAN_POINT('',(-6.30307452591298,5.4033779521402,0.));
#355=CARTESIAN_POINT('',(-6.32613225255229,5.2478092296702,0.));
#356=CARTESIAN_POINT('',(-6.3305263133131,5.14789497543284,0.));
#357=CARTESIAN_POINT('',(-6.33,4.253625,0.));
#358=CARTESIAN_POINT('',(-6.33,2.543625,0.));
#359=CARTESIAN_POINT('',(-6.33,-0.833624999999996,0.));
#360=CARTESIAN_POINT('',(-6.33,-3.39862499999999,0.));
#361=CARTESIAN_POINT('',(-6.33052631331199,-5.14789497543813,0.));
#362=CARTESIAN_POINT('',(-6.32613225256047,-5.24780922963129,0.));
#363=CARTESIAN_POINT('',(-6.30307452593831,-5.40337795201998,0.));
#364=CARTESIAN_POINT('',(-6.24580210442064,-5.59218036459023,0.));
#365=CARTESIAN_POINT('',(-6.13419520619085,-5.80098178507983,0.));
#366=CARTESIAN_POINT('',(-5.98399795834267,-5.9839979583012,0.));
#367=CARTESIAN_POINT('',(-5.80098178498167,-6.13419520625851,0.));
#368=CARTESIAN_POINT('',(-5.5921803645393,-6.24580210442704,0.));
#369=CARTESIAN_POINT('',(-5.36561746966156,-6.31452901020913,0.));
#370=CARTESIAN_POINT('',(-5.20853981633975,-6.33,0.));
#371=CARTESIAN_POINT('',(-3.42000000000001,-6.33,0.));
#372=CARTESIAN_POINT('',(-6.33,-6.33,0.));
#373=CARTESIAN_POINT('',(0.,0.,0.));
#374=CARTESIAN_POINT('',(-5.13000000000001,-5.12999999999999,-6.17346481916438));
#375=CARTESIAN_POINT('',(-5.55247876344913,-5.12999999999999,-4.));
#376=CARTESIAN_POINT('',(-6.33000000000001,-5.12999999999999,0.));
#377=CARTESIAN_POINT('',(-6.33,-16.,0.));
#378=CARTESIAN_POINT('',(-6.33,5.13,0.));
#379=CARTESIAN_POINT('',(-5.13,5.13,-6.17346481916438));
#380=CARTESIAN_POINT('',(-5.55247876344913,5.13,-4.));
#381=CARTESIAN_POINT('',(-5.55247876344913,-16.,-4.));
#382=CARTESIAN_POINT('',(-6.33,-16.,0.));
#383=CARTESIAN_POINT('',(-5.13,5.13,0.));
#384=CARTESIAN_POINT('',(-5.13,6.33,0.));
#385=CARTESIAN_POINT('',(-5.13,5.13,-6.17346481916438));
#386=CARTESIAN_POINT('',(-5.13,5.55247876344913,-4.));
#387=CARTESIAN_POINT('',(-5.13,5.13,-4.));
#388=CARTESIAN_POINT('',(-5.13,5.13,-6.17346481916439));
#389=CARTESIAN_POINT('',(16.,6.33000000000001,0.));
#390=CARTESIAN_POINT('',(5.13000000000002,6.32999999999998,0.));
#391=CARTESIAN_POINT('',(5.13000000000002,5.12999999999998,-6.17346481916438));
#392=CARTESIAN_POINT('',(5.13000000000002,5.55247876344911,-4.));
#393=CARTESIAN_POINT('',(16.,5.55247876344913,-4.));
#394=CARTESIAN_POINT('',(16.,6.33000000000001,0.));
#395=CARTESIAN_POINT('',(5.12999999999999,-5.13000000000001,-6.17346481916438));
#396=CARTESIAN_POINT('',(5.12999999999999,-5.55247876344914,-4.));
#397=CARTESIAN_POINT('',(5.12999999999999,-6.33000000000001,0.));
#398=CARTESIAN_POINT('',(16.,-6.33000000000002,0.));
#399=CARTESIAN_POINT('',(-5.13000000000001,-6.33,0.));
#400=CARTESIAN_POINT('',(-5.13000000000001,-5.12999999999999,-6.17346481916438));
#401=CARTESIAN_POINT('',(-5.13000000000001,-5.55247876344912,-4.));
#402=CARTESIAN_POINT('',(16.,-5.55247876344915,-4.));
#403=CARTESIAN_POINT('',(16.,-6.33000000000002,0.));
#404=CARTESIAN_POINT('',(-5.13000000000001,-5.12999999999999,0.));
#405=CARTESIAN_POINT('',(-5.13000000000001,-5.12999999999999,-4.));
#406=CARTESIAN_POINT('',(-5.13000000000001,-5.12999999999999,-6.17346481916439));
#407=CARTESIAN_POINT('',(5.13000000000002,5.12999999999998,-6.17346481916438));
#408=CARTESIAN_POINT('',(5.55247876344915,5.12999999999998,-4.));
#409=CARTESIAN_POINT('',(6.33000000000002,5.12999999999998,0.));
#410=CARTESIAN_POINT('',(6.33000000000004,16.,0.));
#411=CARTESIAN_POINT('',(6.32999999999999,-5.13000000000002,0.));
#412=CARTESIAN_POINT('',(5.12999999999999,-5.13000000000001,-6.17346481916438));
#413=CARTESIAN_POINT('',(5.55247876344912,-5.13000000000001,-4.));
#414=CARTESIAN_POINT('',(5.55247876344917,16.,-4.));
#415=CARTESIAN_POINT('',(6.33000000000004,16.,0.));
#416=CARTESIAN_POINT('',(5.12999999999999,-5.13000000000001,0.));
#417=CARTESIAN_POINT('',(5.12999999999999,-5.13000000000001,-4.));
#418=CARTESIAN_POINT('',(5.12999999999999,-5.13000000000001,-6.17346481916439));
#419=CARTESIAN_POINT('',(5.13000000000002,5.12999999999998,0.));
#420=CARTESIAN_POINT('',(5.13000000000002,5.12999999999998,-4.));
#421=CARTESIAN_POINT('',(5.13000000000002,5.12999999999998,-6.17346481916439));
#422=CARTESIAN_POINT('',(0.,0.,-4.));
#423=CARTESIAN_POINT('',(0.,0.,0.));
#424=MECHANICAL_DESIGN_GEOMETRIC_PRESENTATION_REPRESENTATION('',(#212,#213,
#214,#215,#216,#217),#425);
#425=(
GEOMETRIC_REPRESENTATION_CONTEXT(3)
GLOBAL_UNCERTAINTY_ASSIGNED_CONTEXT((#426))
GLOBAL_UNIT_ASSIGNED_CONTEXT((#432,#428,#427))
REPRESENTATION_CONTEXT('aaa321245_a','TOP_LEVEL_ASSEMBLY_PART')
);
#426=UNCERTAINTY_MEASURE_WITH_UNIT(LENGTH_MEASURE(2.E-005),#432,
'DISTANCE_ACCURACY_VALUE','Maximum Tolerance applied to model');
#427=(
NAMED_UNIT(*)
SI_UNIT($,.STERADIAN.)
SOLID_ANGLE_UNIT()
);
#428=(
CONVERSION_BASED_UNIT('DEGREE',#430)
NAMED_UNIT(#429)
PLANE_ANGLE_UNIT()
);
#429=DIMENSIONAL_EXPONENTS(0.,0.,0.,0.,0.,0.,0.);
#430=PLANE_ANGLE_MEASURE_WITH_UNIT(PLANE_ANGLE_MEASURE(0.0174532925),#431);
#431=(
NAMED_UNIT(*)
PLANE_ANGLE_UNIT()
SI_UNIT($,.RADIAN.)
);
#432=(
LENGTH_UNIT()
NAMED_UNIT(*)
SI_UNIT(.MILLI.,.METRE.)
);
ENDSEC;
END-ISO-10303-21;
