ISO-10303-21;
HEADER;
/* Generated by software containing ST-Developer
 * from STEP Tools, Inc. (www.steptools.com) 
 */
/* OPTION: using custom schema-name function */

FILE_DESCRIPTION(
/* description */ (''),
/* implementation_level */ '2;1');

FILE_NAME(
/* name */ '1578490556037.stp',
/* time_stamp */ '2020-01-08T14:36:25+01:00',
/* author */ (''),
/* organization */ ('SMS'),
/* preprocessor_version */ 'ST-DEVELOPER v16.7',
/* originating_system */ 'SIEMENS PLM Software NX 12.0',
/* authorisation */ '');

FILE_SCHEMA (('AUTOMOTIVE_DESIGN { 1 0 10303 214 3 1 1 1 }'));
ENDSEC;

DATA;
#10=CONSTRUCTIVE_GEOMETRY_REPRESENTATION_RELATIONSHIP(
'supplemental geometry','',#26,#11);
#11=CONSTRUCTIVE_GEOMETRY_REPRESENTATION('supplemental geometry',(#308,
#309,#310),#485);
#12=GEOMETRICALLY_BOUNDED_WIREFRAME_SHAPE_REPRESENTATION(
'201742566mod000_03-None',(#27),#485);
#13=SHAPE_REPRESENTATION_RELATIONSHIP('None',
'relationship between 201742566mod000_03-None and 201742566mod000_03-N
one',#26,#15);
#14=SHAPE_REPRESENTATION_RELATIONSHIP('None',
'relationship between 201742566mod000_03-None and 201742566mod000_03-N
one',#26,#12);
#15=ADVANCED_BREP_SHAPE_REPRESENTATION('201742566mod000_03-None',(#38,#39),
#485);
#16=SHAPE_DEFINITION_REPRESENTATION(#17,#26);
#17=PRODUCT_DEFINITION_SHAPE('','',#18);
#18=PRODUCT_DEFINITION(' ','',#20,#19);
#19=PRODUCT_DEFINITION_CONTEXT('part definition',#25,'design');
#20=PRODUCT_DEFINITION_FORMATION_WITH_SPECIFIED_SOURCE(' ',' ',#22,
 .NOT_KNOWN.);
#21=PRODUCT_RELATED_PRODUCT_CATEGORY('part','',(#22));
#22=PRODUCT('201742566mod000_03','201742566mod000_03',' ',(#23));
#23=PRODUCT_CONTEXT(' ',#25,'mechanical');
#24=APPLICATION_PROTOCOL_DEFINITION('international standard',
'automotive_design',2010,#25);
#25=APPLICATION_CONTEXT(
'core data for automotive mechanical design processes');
#26=SHAPE_REPRESENTATION('201742566mod000_03-None',(#307),#485);
#27=GEOMETRIC_CURVE_SET('None',(#403,#404,#405,#406,#212,#213,#214,#215,
#216,#217,#218,#219,#220,#182));
#28=SURFACE_STYLE_USAGE(.BOTH.,#30);
#29=SURFACE_STYLE_USAGE(.BOTH.,#31);
#30=SURFACE_SIDE_STYLE('',(#32));
#31=SURFACE_SIDE_STYLE('',(#33));
#32=SURFACE_STYLE_FILL_AREA(#34);
#33=SURFACE_STYLE_FILL_AREA(#35);
#34=FILL_AREA_STYLE('',(#36));
#35=FILL_AREA_STYLE('',(#37));
#36=FILL_AREA_STYLE_COLOUR('',#305);
#37=FILL_AREA_STYLE_COLOUR('',#306);
#38=MANIFOLD_SOLID_BREP('NOCUT',#40);
#39=MANIFOLD_SOLID_BREP('CUT',#41);
#40=CLOSED_SHELL('',(#63,#64,#65,#66,#67,#68,#69,#70,#71));
#41=CLOSED_SHELL('',(#72,#73,#74,#75));
#42=CONICAL_SURFACE('',#325,12.,45.);
#43=CONICAL_SURFACE('',#332,12.5,45.);
#44=PLANE('',#318);
#45=PLANE('',#319);
#46=PLANE('',#320);
#47=PLANE('',#321);
#48=PLANE('',#322);
#49=PLANE('',#323);
#50=PLANE('',#324);
#51=PLANE('',#327);
#52=PLANE('',#329);
#53=FACE_OUTER_BOUND('',#94,.T.);
#54=FACE_OUTER_BOUND('',#95,.T.);
#55=FACE_OUTER_BOUND('',#96,.T.);
#56=FACE_OUTER_BOUND('',#97,.T.);
#57=FACE_OUTER_BOUND('',#98,.T.);
#58=FACE_OUTER_BOUND('',#99,.T.);
#59=FACE_OUTER_BOUND('',#100,.T.);
#60=FACE_OUTER_BOUND('',#101,.T.);
#61=FACE_OUTER_BOUND('',#102,.T.);
#62=FACE_OUTER_BOUND('',#103,.T.);
#63=ADVANCED_FACE('',(#84,#85,#86),#76,.T.);
#64=ADVANCED_FACE('',(#53),#44,.T.);
#65=ADVANCED_FACE('',(#54),#45,.F.);
#66=ADVANCED_FACE('',(#55),#46,.T.);
#67=ADVANCED_FACE('',(#56),#47,.T.);
#68=ADVANCED_FACE('',(#57),#48,.T.);
#69=ADVANCED_FACE('',(#58),#49,.T.);
#70=ADVANCED_FACE('',(#59),#50,.T.);
#71=ADVANCED_FACE('',(#60),#42,.T.);
#72=ADVANCED_FACE('',(#61),#51,.T.);
#73=ADVANCED_FACE('',(#62),#52,.T.);
#74=ADVANCED_FACE('',(#87,#88),#77,.T.);
#75=ADVANCED_FACE('',(#89,#90),#43,.T.);
#76=CYLINDRICAL_SURFACE('',#316,12.5);
#77=CYLINDRICAL_SURFACE('',#331,12.5);
#78=CIRCLE('',#313,12.5);
#79=CIRCLE('',#314,12.5);
#80=CIRCLE('',#317,12.);
#81=CIRCLE('',#326,12.25);
#82=CIRCLE('',#328,12.5);
#83=CIRCLE('',#330,12.5);
#84=FACE_BOUND('',#91,.T.);
#85=FACE_BOUND('',#92,.T.);
#86=FACE_BOUND('',#93,.T.);
#87=FACE_BOUND('',#104,.T.);
#88=FACE_BOUND('',#105,.T.);
#89=FACE_BOUND('',#106,.T.);
#90=FACE_BOUND('',#107,.T.);
#91=EDGE_LOOP('',(#111,#112,#113,#114));
#92=EDGE_LOOP('',(#115));
#93=EDGE_LOOP('',(#116,#117,#118,#119));
#94=EDGE_LOOP('',(#120,#121));
#95=EDGE_LOOP('',(#122));
#96=EDGE_LOOP('',(#123,#124,#125,#126));
#97=EDGE_LOOP('',(#127,#128));
#98=EDGE_LOOP('',(#129,#130));
#99=EDGE_LOOP('',(#131,#132,#133,#134,#135,#136));
#100=EDGE_LOOP('',(#137,#138));
#101=EDGE_LOOP('',(#139,#140,#141,#142));
#102=EDGE_LOOP('',(#143));
#103=EDGE_LOOP('',(#144));
#104=EDGE_LOOP('',(#145));
#105=EDGE_LOOP('',(#146));
#106=EDGE_LOOP('',(#147));
#107=EDGE_LOOP('',(#148));
#108=ELLIPSE('',#311,17.6776695296637,12.5);
#109=ELLIPSE('',#312,17.6776695296637,12.5);
#110=ELLIPSE('',#315,17.6776695296637,12.5);
#111=ORIENTED_EDGE('',*,*,#163,.T.);
#112=ORIENTED_EDGE('',*,*,#164,.T.);
#113=ORIENTED_EDGE('',*,*,#165,.T.);
#114=ORIENTED_EDGE('',*,*,#166,.T.);
#115=ORIENTED_EDGE('',*,*,#167,.F.);
#116=ORIENTED_EDGE('',*,*,#168,.T.);
#117=ORIENTED_EDGE('',*,*,#169,.T.);
#118=ORIENTED_EDGE('',*,*,#170,.T.);
#119=ORIENTED_EDGE('',*,*,#171,.T.);
#120=ORIENTED_EDGE('',*,*,#172,.T.);
#121=ORIENTED_EDGE('',*,*,#173,.T.);
#122=ORIENTED_EDGE('',*,*,#167,.T.);
#123=ORIENTED_EDGE('',*,*,#174,.T.);
#124=ORIENTED_EDGE('',*,*,#165,.F.);
#125=ORIENTED_EDGE('',*,*,#175,.F.);
#126=ORIENTED_EDGE('',*,*,#163,.F.);
#127=ORIENTED_EDGE('',*,*,#175,.T.);
#128=ORIENTED_EDGE('',*,*,#164,.F.);
#129=ORIENTED_EDGE('',*,*,#174,.F.);
#130=ORIENTED_EDGE('',*,*,#166,.F.);
#131=ORIENTED_EDGE('',*,*,#172,.F.);
#132=ORIENTED_EDGE('',*,*,#176,.T.);
#133=ORIENTED_EDGE('',*,*,#168,.F.);
#134=ORIENTED_EDGE('',*,*,#177,.F.);
#135=ORIENTED_EDGE('',*,*,#170,.F.);
#136=ORIENTED_EDGE('',*,*,#178,.T.);
#137=ORIENTED_EDGE('',*,*,#177,.T.);
#138=ORIENTED_EDGE('',*,*,#171,.F.);
#139=ORIENTED_EDGE('',*,*,#178,.F.);
#140=ORIENTED_EDGE('',*,*,#169,.F.);
#141=ORIENTED_EDGE('',*,*,#176,.F.);
#142=ORIENTED_EDGE('',*,*,#173,.F.);
#143=ORIENTED_EDGE('',*,*,#179,.T.);
#144=ORIENTED_EDGE('',*,*,#180,.T.);
#145=ORIENTED_EDGE('',*,*,#181,.T.);
#146=ORIENTED_EDGE('',*,*,#180,.F.);
#147=ORIENTED_EDGE('',*,*,#179,.F.);
#148=ORIENTED_EDGE('',*,*,#181,.F.);
#149=VERTEX_POINT('',#433);
#150=VERTEX_POINT('',#434);
#151=VERTEX_POINT('',#436);
#152=VERTEX_POINT('',#438);
#153=VERTEX_POINT('',#441);
#154=VERTEX_POINT('',#443);
#155=VERTEX_POINT('',#444);
#156=VERTEX_POINT('',#446);
#157=VERTEX_POINT('',#448);
#158=VERTEX_POINT('',#452);
#159=VERTEX_POINT('',#453);
#160=VERTEX_POINT('',#475);
#161=VERTEX_POINT('',#478);
#162=VERTEX_POINT('',#481);
#163=EDGE_CURVE('',#149,#150,#230,.T.);
#164=EDGE_CURVE('',#150,#151,#108,.T.);
#165=EDGE_CURVE('',#151,#152,#231,.T.);
#166=EDGE_CURVE('',#152,#149,#109,.T.);
#167=EDGE_CURVE('',#153,#153,#78,.T.);
#168=EDGE_CURVE('',#154,#155,#232,.T.);
#169=EDGE_CURVE('',#155,#156,#79,.T.);
#170=EDGE_CURVE('',#156,#157,#233,.T.);
#171=EDGE_CURVE('',#157,#154,#110,.T.);
#172=EDGE_CURVE('',#158,#159,#234,.T.);
#173=EDGE_CURVE('',#159,#158,#80,.T.);
#174=EDGE_CURVE('',#149,#152,#235,.T.);
#175=EDGE_CURVE('',#150,#151,#236,.T.);
#176=EDGE_CURVE('',#158,#155,#183,.T.);
#177=EDGE_CURVE('',#157,#154,#237,.T.);
#178=EDGE_CURVE('',#156,#159,#184,.T.);
#179=EDGE_CURVE('',#160,#160,#81,.T.);
#180=EDGE_CURVE('',#161,#161,#82,.T.);
#181=EDGE_CURVE('',#162,#162,#83,.T.);
#182=B_SPLINE_CURVE_WITH_KNOTS('CUTTING PART LINE',3,(#416,#417,#418,#419,
#420,#421,#422,#423,#424,#425,#426,#427,#428),.UNSPECIFIED.,.F.,.F.,(4,
3,3,3,4),(0.,0.162647001322569,0.836005586802091,0.840605938703908,1.),
 .UNSPECIFIED.);
#183=B_SPLINE_CURVE_WITH_KNOTS('',3,(#462,#463,#464,#465),.UNSPECIFIED.,
 .F.,.F.,(4,4),(0.,1.),.UNSPECIFIED.);
#184=B_SPLINE_CURVE_WITH_KNOTS('',3,(#467,#468,#469,#470),.UNSPECIFIED.,
 .F.,.F.,(4,4),(0.,1.),.UNSPECIFIED.);
#185=INVISIBILITY((#262,#263,#264,#265,#266,#267,#268,#269,#270));
#186=CURVE_STYLE('',#199,POSITIVE_LENGTH_MEASURE(0.18),#256);
#187=CURVE_STYLE('',#200,POSITIVE_LENGTH_MEASURE(0.18),#256);
#188=CURVE_STYLE('',#201,POSITIVE_LENGTH_MEASURE(0.18),#256);
#189=CURVE_STYLE('',#202,POSITIVE_LENGTH_MEASURE(0.18),#256);
#190=CURVE_STYLE('',#203,POSITIVE_LENGTH_MEASURE(0.18),#256);
#191=CURVE_STYLE('',#204,POSITIVE_LENGTH_MEASURE(0.18),#256);
#192=CURVE_STYLE('',#205,POSITIVE_LENGTH_MEASURE(0.18),#256);
#193=CURVE_STYLE('',#206,POSITIVE_LENGTH_MEASURE(0.18),#256);
#194=CURVE_STYLE('',#207,POSITIVE_LENGTH_MEASURE(0.18),#256);
#195=CURVE_STYLE('',#208,POSITIVE_LENGTH_MEASURE(0.18),#255);
#196=CURVE_STYLE('',#209,POSITIVE_LENGTH_MEASURE(0.18),#304);
#197=CURVE_STYLE('',#210,POSITIVE_LENGTH_MEASURE(0.18),#304);
#198=CURVE_STYLE('',#211,POSITIVE_LENGTH_MEASURE(0.18),#304);
#199=DRAUGHTING_PRE_DEFINED_CURVE_FONT('continuous');
#200=DRAUGHTING_PRE_DEFINED_CURVE_FONT('continuous');
#201=DRAUGHTING_PRE_DEFINED_CURVE_FONT('continuous');
#202=DRAUGHTING_PRE_DEFINED_CURVE_FONT('continuous');
#203=DRAUGHTING_PRE_DEFINED_CURVE_FONT('chain double dash');
#204=DRAUGHTING_PRE_DEFINED_CURVE_FONT('continuous');
#205=DRAUGHTING_PRE_DEFINED_CURVE_FONT('continuous');
#206=DRAUGHTING_PRE_DEFINED_CURVE_FONT('continuous');
#207=DRAUGHTING_PRE_DEFINED_CURVE_FONT('continuous');
#208=DRAUGHTING_PRE_DEFINED_CURVE_FONT('continuous');
#209=DRAUGHTING_PRE_DEFINED_CURVE_FONT('continuous');
#210=DRAUGHTING_PRE_DEFINED_CURVE_FONT('continuous');
#211=DRAUGHTING_PRE_DEFINED_CURVE_FONT('continuous');
#212=TRIMMED_CURVE('Line6',#221,(PARAMETER_VALUE(0.)),(
PARAMETER_VALUE(1.)),.T.,.PARAMETER.);
#213=TRIMMED_CURVE('Line7',#222,(PARAMETER_VALUE(0.)),(
PARAMETER_VALUE(1.)),.T.,.PARAMETER.);
#214=TRIMMED_CURVE('Line8',#223,(PARAMETER_VALUE(0.)),(
PARAMETER_VALUE(1.)),.T.,.PARAMETER.);
#215=TRIMMED_CURVE('Line9',#224,(PARAMETER_VALUE(0.)),(
PARAMETER_VALUE(1.)),.T.,.PARAMETER.);
#216=TRIMMED_CURVE('Line10',#225,(PARAMETER_VALUE(0.)),(
PARAMETER_VALUE(1.)),.T.,.PARAMETER.);
#217=TRIMMED_CURVE('Line12',#226,(PARAMETER_VALUE(0.)),(
PARAMETER_VALUE(1.)),.T.,.PARAMETER.);
#218=TRIMMED_CURVE('Line13',#227,(PARAMETER_VALUE(0.)),(
PARAMETER_VALUE(1.)),.T.,.PARAMETER.);
#219=TRIMMED_CURVE('Line14',#228,(PARAMETER_VALUE(0.)),(
PARAMETER_VALUE(1.)),.T.,.PARAMETER.);
#220=TRIMMED_CURVE('Line15',#229,(PARAMETER_VALUE(0.)),(
PARAMETER_VALUE(1.)),.T.,.PARAMETER.);
#221=LINE('Line6',#407,#238);
#222=LINE('Line7',#408,#239);
#223=LINE('Line8',#409,#240);
#224=LINE('Line9',#410,#241);
#225=LINE('Line10',#411,#242);
#226=LINE('Line12',#412,#243);
#227=LINE('Line13',#413,#244);
#228=LINE('Line14',#414,#245);
#229=LINE('Line15',#415,#246);
#230=LINE('',#432,#247);
#231=LINE('',#437,#248);
#232=LINE('',#442,#249);
#233=LINE('',#447,#250);
#234=LINE('',#451,#251);
#235=LINE('',#457,#252);
#236=LINE('',#458,#253);
#237=LINE('',#466,#254);
#238=VECTOR('',#335,12.);
#239=VECTOR('',#336,4.24264068711929);
#240=VECTOR('',#337,18.);
#241=VECTOR('',#338,4.24264068711929);
#242=VECTOR('',#339,3.);
#243=VECTOR('',#340,19.);
#244=VECTOR('',#341,4.24264068711929);
#245=VECTOR('',#342,22.);
#246=VECTOR('',#343,3.00000000000002);
#247=VECTOR('',#350,1.);
#248=VECTOR('',#353,1.);
#249=VECTOR('',#358,1.);
#250=VECTOR('',#361,1.);
#251=VECTOR('',#366,1.);
#252=VECTOR('',#373,1.);
#253=VECTOR('',#374,1.);
#254=VECTOR('',#381,1.);
#255=DRAUGHTING_PRE_DEFINED_COLOUR('blue');
#256=DRAUGHTING_PRE_DEFINED_COLOUR('white');
#257=PRESENTATION_LAYER_ASSIGNMENT('1','Layer 1',(#403,#404,#405,#406,#212,
#213,#214,#215,#216,#217,#218,#219,#220,#182,#308,#309,#310,#38,#39));
#258=STYLED_ITEM('',(#277),#403);
#259=STYLED_ITEM('',(#278),#404);
#260=STYLED_ITEM('',(#279),#405);
#261=STYLED_ITEM('',(#280),#406);
#262=STYLED_ITEM('',(#281),#212);
#263=STYLED_ITEM('',(#282),#213);
#264=STYLED_ITEM('',(#283),#214);
#265=STYLED_ITEM('',(#284),#215);
#266=STYLED_ITEM('',(#285),#216);
#267=STYLED_ITEM('',(#286),#217);
#268=STYLED_ITEM('',(#287),#218);
#269=STYLED_ITEM('',(#288),#219);
#270=STYLED_ITEM('',(#289),#220);
#271=STYLED_ITEM('',(#290),#182);
#272=STYLED_ITEM('',(#291),#308);
#273=STYLED_ITEM('',(#292),#309);
#274=STYLED_ITEM('',(#293),#310);
#275=STYLED_ITEM('',(#294),#38);
#276=STYLED_ITEM('',(#295),#39);
#277=PRESENTATION_STYLE_ASSIGNMENT((#296));
#278=PRESENTATION_STYLE_ASSIGNMENT((#297));
#279=PRESENTATION_STYLE_ASSIGNMENT((#298));
#280=PRESENTATION_STYLE_ASSIGNMENT((#299));
#281=PRESENTATION_STYLE_ASSIGNMENT((#186));
#282=PRESENTATION_STYLE_ASSIGNMENT((#187));
#283=PRESENTATION_STYLE_ASSIGNMENT((#188));
#284=PRESENTATION_STYLE_ASSIGNMENT((#189));
#285=PRESENTATION_STYLE_ASSIGNMENT((#190));
#286=PRESENTATION_STYLE_ASSIGNMENT((#191));
#287=PRESENTATION_STYLE_ASSIGNMENT((#192));
#288=PRESENTATION_STYLE_ASSIGNMENT((#193));
#289=PRESENTATION_STYLE_ASSIGNMENT((#194));
#290=PRESENTATION_STYLE_ASSIGNMENT((#195));
#291=PRESENTATION_STYLE_ASSIGNMENT((#196));
#292=PRESENTATION_STYLE_ASSIGNMENT((#197));
#293=PRESENTATION_STYLE_ASSIGNMENT((#198));
#294=PRESENTATION_STYLE_ASSIGNMENT((#28));
#295=PRESENTATION_STYLE_ASSIGNMENT((#29));
#296=POINT_STYLE('',#300,POSITIVE_LENGTH_MEASURE(3.),#304);
#297=POINT_STYLE('',#301,POSITIVE_LENGTH_MEASURE(3.),#304);
#298=POINT_STYLE('',#302,POSITIVE_LENGTH_MEASURE(3.),#304);
#299=POINT_STYLE('',#303,POSITIVE_LENGTH_MEASURE(3.),#255);
#300=PRE_DEFINED_POINT_MARKER_SYMBOL('plus');
#301=PRE_DEFINED_POINT_MARKER_SYMBOL('plus');
#302=PRE_DEFINED_POINT_MARKER_SYMBOL('plus');
#303=PRE_DEFINED_POINT_MARKER_SYMBOL('plus');
#304=COLOUR_RGB('Strong Stone',0.576470588235294,0.54508278019379,0.392156862745098);
#305=COLOUR_RGB('Medium Gray',0.501960784313725,0.501960784313725,0.501960784313725);
#306=COLOUR_RGB('Light Gray',0.8,0.8,0.8);
#307=AXIS2_PLACEMENT_3D('',#402,#333,#334);
#308=AXIS2_PLACEMENT_3D('PCS',#429,#344,#345);
#309=AXIS2_PLACEMENT_3D('CIP',#430,#346,#347);
#310=AXIS2_PLACEMENT_3D('MCS',#431,#348,#349);
#311=AXIS2_PLACEMENT_3D('',#435,#351,#352);
#312=AXIS2_PLACEMENT_3D('',#439,#354,#355);
#313=AXIS2_PLACEMENT_3D('',#440,#356,#357);
#314=AXIS2_PLACEMENT_3D('',#445,#359,#360);
#315=AXIS2_PLACEMENT_3D('',#449,#362,#363);
#316=AXIS2_PLACEMENT_3D('',#450,#364,#365);
#317=AXIS2_PLACEMENT_3D('',#454,#367,#368);
#318=AXIS2_PLACEMENT_3D('',#455,#369,#370);
#319=AXIS2_PLACEMENT_3D('',#456,#371,#372);
#320=AXIS2_PLACEMENT_3D('',#459,#375,#376);
#321=AXIS2_PLACEMENT_3D('',#460,#377,#378);
#322=AXIS2_PLACEMENT_3D('',#461,#379,#380);
#323=AXIS2_PLACEMENT_3D('',#471,#382,#383);
#324=AXIS2_PLACEMENT_3D('',#472,#384,#385);
#325=AXIS2_PLACEMENT_3D('',#473,#386,#387);
#326=AXIS2_PLACEMENT_3D('',#474,#388,#389);
#327=AXIS2_PLACEMENT_3D('',#476,#390,#391);
#328=AXIS2_PLACEMENT_3D('',#477,#392,#393);
#329=AXIS2_PLACEMENT_3D('',#479,#394,#395);
#330=AXIS2_PLACEMENT_3D('',#480,#396,#397);
#331=AXIS2_PLACEMENT_3D('',#482,#398,#399);
#332=AXIS2_PLACEMENT_3D('',#483,#400,#401);
#333=DIRECTION('',(0.,0.,1.));
#334=DIRECTION('',(1.,0.,0.));
#335=DIRECTION('',(0.,0.,-1.));
#336=DIRECTION('',(0.707106781186547,0.,-0.707106781186548));
#337=DIRECTION('',(-9.86864910777916E-17,0.,1.));
#338=DIRECTION('',(0.707106781186547,0.,0.707106781186548));
#339=DIRECTION('',(1.,0.,0.));
#340=DIRECTION('',(7.47939721852737E-16,0.,-1.));
#341=DIRECTION('',(0.707106781186547,0.,-0.707106781186548));
#342=DIRECTION('',(0.,0.,1.));
#343=DIRECTION('',(1.,0.,-7.40148683083434E-16));
#344=DIRECTION('',(0.,0.,1.));
#345=DIRECTION('',(1.,0.,0.));
#346=DIRECTION('',(0.,0.,1.));
#347=DIRECTION('',(1.,0.,0.));
#348=DIRECTION('',(0.,0.,1.));
#349=DIRECTION('',(1.,0.,0.));
#350=DIRECTION('',(0.,0.,-1.));
#351=DIRECTION('',(-0.707106781186548,0.,-0.707106781186547));
#352=DIRECTION('',(-0.707106781186547,0.,0.707106781186548));
#353=DIRECTION('',(0.,0.,1.));
#354=DIRECTION('',(-0.707106781186548,0.,0.707106781186547));
#355=DIRECTION('',(0.707106781186547,0.,0.707106781186548));
#356=DIRECTION('',(0.,0.,-1.));
#357=DIRECTION('',(1.,0.,0.));
#358=DIRECTION('',(0.,0.,1.));
#359=DIRECTION('',(0.,0.,-1.));
#360=DIRECTION('',(1.,0.,0.));
#361=DIRECTION('',(0.,0.,-1.));
#362=DIRECTION('',(-0.707106781186548,0.,-0.707106781186547));
#363=DIRECTION('',(-0.707106781186547,0.,0.707106781186548));
#364=DIRECTION('',(0.,0.,1.));
#365=DIRECTION('',(1.,0.,0.));
#366=DIRECTION('',(0.,1.,0.));
#367=DIRECTION('',(0.,0.,1.));
#368=DIRECTION('',(1.,0.,0.));
#369=DIRECTION('',(0.,0.,1.));
#370=DIRECTION('',(1.,0.,0.));
#371=DIRECTION('',(0.,0.,1.));
#372=DIRECTION('',(1.,0.,0.));
#373=DIRECTION('',(0.,-1.,0.));
#374=DIRECTION('',(0.,-1.,0.));
#375=DIRECTION('',(1.,0.,0.));
#376=DIRECTION('',(0.,0.,-1.));
#377=DIRECTION('',(0.707106781186548,0.,0.707106781186547));
#378=DIRECTION('',(0.707106781186547,0.,-0.707106781186548));
#379=DIRECTION('',(0.707106781186548,0.,-0.707106781186547));
#380=DIRECTION('',(-0.707106781186547,0.,-0.707106781186548));
#381=DIRECTION('',(0.,-1.,0.));
#382=DIRECTION('',(1.,0.,7.30409884621813E-16));
#383=DIRECTION('',(7.30318583386236E-16,0.,-1.));
#384=DIRECTION('',(0.707106781186548,0.,0.707106781186547));
#385=DIRECTION('',(0.707106781186547,0.,-0.707106781186548));
#386=DIRECTION('',(0.,0.,-1.));
#387=DIRECTION('',(-1.,0.,0.));
#388=DIRECTION('',(0.,0.,-1.));
#389=DIRECTION('',(-1.,0.,0.));
#390=DIRECTION('',(0.,0.,-1.));
#391=DIRECTION('',(-1.,0.,0.));
#392=DIRECTION('',(0.,0.,1.));
#393=DIRECTION('',(-1.,1.22464679914735E-16,0.));
#394=DIRECTION('',(0.,0.,1.));
#395=DIRECTION('',(1.,0.,0.));
#396=DIRECTION('',(0.,0.,1.));
#397=DIRECTION('',(-1.,0.,0.));
#398=DIRECTION('',(0.,0.,1.));
#399=DIRECTION('',(1.,0.,0.));
#400=DIRECTION('',(0.,0.,1.));
#401=DIRECTION('',(1.,0.,-2.74129141882755E-17));
#402=CARTESIAN_POINT('',(0.,0.,0.));
#403=CARTESIAN_POINT('PCS',(0.,0.,0.));
#404=CARTESIAN_POINT('CIP',(0.,0.,-121.));
#405=CARTESIAN_POINT('MCS',(0.,0.,-56.));
#406=CARTESIAN_POINT('CRP',(12.5,0.,-121.));
#407=CARTESIAN_POINT('',(10.5,0.,-26.));
#408=CARTESIAN_POINT('',(10.5,0.,-38.));
#409=CARTESIAN_POINT('',(13.5,0.,-41.));
#410=CARTESIAN_POINT('',(10.5,0.,-26.));
#411=CARTESIAN_POINT('',(10.5,0.,-32.));
#412=CARTESIAN_POINT('',(10.5,0.,2.00000000000001));
#413=CARTESIAN_POINT('',(10.5,0.,-17.));
#414=CARTESIAN_POINT('',(13.5,0.,-20.));
#415=CARTESIAN_POINT('',(10.5,0.,2.00000000000001));
#416=CARTESIAN_POINT('',(0.,0.,-69.));
#417=CARTESIAN_POINT('',(0.,4.16666666666666,-69.));
#418=CARTESIAN_POINT('',(0.,8.33333333333333,-69.));
#419=CARTESIAN_POINT('',(0.,12.5,-69.));
#420=CARTESIAN_POINT('',(0.,12.5,-86.25));
#421=CARTESIAN_POINT('',(0.,12.5,-103.5));
#422=CARTESIAN_POINT('',(0.,12.5,-120.75));
#423=CARTESIAN_POINT('',(0.,12.4166666666667,-120.833333333333));
#424=CARTESIAN_POINT('',(0.,12.3333333333333,-120.916666666667));
#425=CARTESIAN_POINT('',(0.,12.25,-121.));
#426=CARTESIAN_POINT('',(0.,8.16666666666667,-121.));
#427=CARTESIAN_POINT('',(0.,4.08333333333333,-121.));
#428=CARTESIAN_POINT('',(0.,0.,-121.));
#429=CARTESIAN_POINT('',(0.,0.,0.));
#430=CARTESIAN_POINT('',(0.,0.,-121.));
#431=CARTESIAN_POINT('',(0.,0.,-56.));
#432=CARTESIAN_POINT('',(10.5,6.78232998312527,-75.9));
#433=CARTESIAN_POINT('',(10.5,6.78232998312526,-26.));
#434=CARTESIAN_POINT('',(10.5,6.78232998312527,-38.));
#435=CARTESIAN_POINT('',(0.,0.,-27.5));
#436=CARTESIAN_POINT('',(10.5,-6.78232998312527,-38.));
#437=CARTESIAN_POINT('',(10.5,-6.78232998312527,-75.9));
#438=CARTESIAN_POINT('',(10.5,-6.78232998312528,-26.));
#439=CARTESIAN_POINT('',(0.,0.,-36.5));
#440=CARTESIAN_POINT('',(0.,0.,-69.));
#441=CARTESIAN_POINT('',(12.5,0.,-69.));
#442=CARTESIAN_POINT('',(10.5,-6.78232998312519,-75.9));
#443=CARTESIAN_POINT('',(10.5,-6.78232998312525,-17.));
#444=CARTESIAN_POINT('',(10.5,-6.78232998312519,-0.5));
#445=CARTESIAN_POINT('',(0.,0.,-0.5));
#446=CARTESIAN_POINT('',(10.5,6.78232998312519,-0.500000000000001));
#447=CARTESIAN_POINT('',(10.5,6.78232998312519,-75.9));
#448=CARTESIAN_POINT('',(10.5,6.78232998312525,-17.));
#449=CARTESIAN_POINT('',(0.,0.,-6.49999999999996));
#450=CARTESIAN_POINT('',(0.,0.,-75.9));
#451=CARTESIAN_POINT('',(10.5,0.,0.));
#452=CARTESIAN_POINT('',(10.5,-5.80947501931114,0.));
#453=CARTESIAN_POINT('',(10.5,5.80947501931114,0.));
#454=CARTESIAN_POINT('',(0.,0.,0.));
#455=CARTESIAN_POINT('',(0.,0.,0.));
#456=CARTESIAN_POINT('',(0.,0.,-69.));
#457=CARTESIAN_POINT('',(10.5,-28.,-26.));
#458=CARTESIAN_POINT('',(10.5,-28.,-38.));
#459=CARTESIAN_POINT('',(10.5,-28.,-26.));
#460=CARTESIAN_POINT('',(10.5,-28.,-38.));
#461=CARTESIAN_POINT('',(13.5,-28.,-23.));
#462=CARTESIAN_POINT('',(10.5,-5.80947501931114,0.));
#463=CARTESIAN_POINT('',(10.5,-6.13764728797161,-0.158875716401141));
#464=CARTESIAN_POINT('',(10.5,-6.4618571749952,-0.326115813171487));
#465=CARTESIAN_POINT('',(10.5,-6.78232998312519,-0.5));
#466=CARTESIAN_POINT('',(10.5,-28.,-17.));
#467=CARTESIAN_POINT('',(10.5,6.78232998312519,-0.500000000000001));
#468=CARTESIAN_POINT('',(10.5,6.4618571749952,-0.326115813171489));
#469=CARTESIAN_POINT('',(10.5,6.13764728797161,-0.158875716401142));
#470=CARTESIAN_POINT('',(10.5,5.80947501931114,0.));
#471=CARTESIAN_POINT('',(10.5,-28.,2.00000000000001));
#472=CARTESIAN_POINT('',(10.5,-28.,-17.));
#473=CARTESIAN_POINT('',(0.,0.,0.));
#474=CARTESIAN_POINT('',(0.,0.,-121.));
#475=CARTESIAN_POINT('',(-12.25,0.,-121.));
#476=CARTESIAN_POINT('',(0.,0.,-121.));
#477=CARTESIAN_POINT('',(0.,0.,-69.));
#478=CARTESIAN_POINT('',(-12.5,1.53080849893419E-15,-69.));
#479=CARTESIAN_POINT('',(0.,0.,-69.));
#480=CARTESIAN_POINT('',(0.,0.,-120.75));
#481=CARTESIAN_POINT('',(-12.5,0.,-120.75));
#482=CARTESIAN_POINT('',(0.,0.,-126.2));
#483=CARTESIAN_POINT('',(0.,0.,-120.75));
#484=MECHANICAL_DESIGN_GEOMETRIC_PRESENTATION_REPRESENTATION('',(#258,#259,
#260,#261,#262,#263,#264,#265,#266,#267,#268,#269,#270,#271,#272,#273,#274,
#275,#276),#485);
#485=(
GEOMETRIC_REPRESENTATION_CONTEXT(3)
GLOBAL_UNCERTAINTY_ASSIGNED_CONTEXT((#486))
GLOBAL_UNIT_ASSIGNED_CONTEXT((#492,#488,#487))
REPRESENTATION_CONTEXT('1578490556037','TOP_LEVEL_ASSEMBLY_PART')
);
#486=UNCERTAINTY_MEASURE_WITH_UNIT(LENGTH_MEASURE(0.0508),#492,
'DISTANCE_ACCURACY_VALUE','Maximum Tolerance applied to model');
#487=(
NAMED_UNIT(*)
SI_UNIT($,.STERADIAN.)
SOLID_ANGLE_UNIT()
);
#488=(
CONVERSION_BASED_UNIT('DEGREE',#490)
NAMED_UNIT(#489)
PLANE_ANGLE_UNIT()
);
#489=DIMENSIONAL_EXPONENTS(0.,0.,0.,0.,0.,0.,0.);
#490=PLANE_ANGLE_MEASURE_WITH_UNIT(PLANE_ANGLE_MEASURE(0.0174532925),#491);
#491=(
NAMED_UNIT(*)
PLANE_ANGLE_UNIT()
SI_UNIT($,.RADIAN.)
);
#492=(
LENGTH_UNIT()
NAMED_UNIT(*)
SI_UNIT(.MILLI.,.METRE.)
);
ENDSEC;
END-ISO-10303-21;
