ISO-10303-21;
HEADER;
/* Generated by software containing ST-Developer
 * from STEP Tools, Inc. (www.steptools.com) 
 */
/* OPTION: using custom schema-name function */

FILE_DESCRIPTION(
/* description */ (''),
/* implementation_level */ '2;1');

FILE_NAME(
/* name */ '1578490128643.stp',
/* time_stamp */ '2020-01-08T14:29:14+01:00',
/* author */ (''),
/* organization */ ('SMS'),
/* preprocessor_version */ 'ST-DEVELOPER v16.7',
/* originating_system */ 'SIEMENS PLM Software NX 12.0',
/* authorisation */ '');

FILE_SCHEMA (('AUTOMOTIVE_DESIGN { 1 0 10303 214 3 1 1 1 }'));
ENDSEC;

DATA;
#10=CONSTRUCTIVE_GEOMETRY_REPRESENTATION_RELATIONSHIP(
'supplemental geometry','',#26,#11);
#11=CONSTRUCTIVE_GEOMETRY_REPRESENTATION('supplemental geometry',(#238,
#239,#240),#375);
#12=GEOMETRICALLY_BOUNDED_WIREFRAME_SHAPE_REPRESENTATION(
'201742557mod000_03-None',(#27),#375);
#13=SHAPE_REPRESENTATION_RELATIONSHIP('None',
'relationship between 201742557mod000_03-None and 201742557mod000_03-N
one',#26,#15);
#14=SHAPE_REPRESENTATION_RELATIONSHIP('None',
'relationship between 201742557mod000_03-None and 201742557mod000_03-N
one',#26,#12);
#15=ADVANCED_BREP_SHAPE_REPRESENTATION('201742557mod000_03-None',(#38,#39),
#375);
#16=SHAPE_DEFINITION_REPRESENTATION(#17,#26);
#17=PRODUCT_DEFINITION_SHAPE('','',#18);
#18=PRODUCT_DEFINITION(' ','',#20,#19);
#19=PRODUCT_DEFINITION_CONTEXT('part definition',#25,'design');
#20=PRODUCT_DEFINITION_FORMATION_WITH_SPECIFIED_SOURCE(' ',' ',#22,
 .NOT_KNOWN.);
#21=PRODUCT_RELATED_PRODUCT_CATEGORY('part','',(#22));
#22=PRODUCT('201742557mod000_03','201742557mod000_03',' ',(#23));
#23=PRODUCT_CONTEXT(' ',#25,'mechanical');
#24=APPLICATION_PROTOCOL_DEFINITION('international standard',
'automotive_design',2010,#25);
#25=APPLICATION_CONTEXT(
'core data for automotive mechanical design processes');
#26=SHAPE_REPRESENTATION('201742557mod000_03-None',(#237),#375);
#27=GEOMETRIC_CURVE_SET('None',(#316,#317,#318,#319,#170,#171,#172,#173,
#174,#150));
#28=SURFACE_STYLE_USAGE(.BOTH.,#30);
#29=SURFACE_STYLE_USAGE(.BOTH.,#31);
#30=SURFACE_SIDE_STYLE('',(#32));
#31=SURFACE_SIDE_STYLE('',(#33));
#32=SURFACE_STYLE_FILL_AREA(#34);
#33=SURFACE_STYLE_FILL_AREA(#35);
#34=FILL_AREA_STYLE('',(#36));
#35=FILL_AREA_STYLE('',(#37));
#36=FILL_AREA_STYLE_COLOUR('',#235);
#37=FILL_AREA_STYLE_COLOUR('',#236);
#38=MANIFOLD_SOLID_BREP('NOCUT',#40);
#39=MANIFOLD_SOLID_BREP('CUT',#41);
#40=CLOSED_SHELL('',(#58,#59,#60,#61,#62,#63,#64));
#41=CLOSED_SHELL('',(#65,#66,#67,#68));
#42=CONICAL_SURFACE('',#252,5.5,45.);
#43=CONICAL_SURFACE('',#259,6.,45.0000000000005);
#44=PLANE('',#246);
#45=PLANE('',#248);
#46=PLANE('',#249);
#47=PLANE('',#250);
#48=PLANE('',#251);
#49=PLANE('',#254);
#50=PLANE('',#256);
#51=FACE_OUTER_BOUND('',#85,.T.);
#52=FACE_OUTER_BOUND('',#86,.T.);
#53=FACE_OUTER_BOUND('',#87,.T.);
#54=FACE_OUTER_BOUND('',#88,.T.);
#55=FACE_OUTER_BOUND('',#89,.T.);
#56=FACE_OUTER_BOUND('',#92,.T.);
#57=FACE_OUTER_BOUND('',#93,.T.);
#58=ADVANCED_FACE('',(#73,#74,#75),#69,.T.);
#59=ADVANCED_FACE('',(#51),#44,.F.);
#60=ADVANCED_FACE('',(#52),#45,.T.);
#61=ADVANCED_FACE('',(#53),#46,.T.);
#62=ADVANCED_FACE('',(#54),#47,.T.);
#63=ADVANCED_FACE('',(#55),#48,.T.);
#64=ADVANCED_FACE('',(#76,#77),#42,.T.);
#65=ADVANCED_FACE('',(#56),#49,.T.);
#66=ADVANCED_FACE('',(#57),#50,.T.);
#67=ADVANCED_FACE('',(#78,#79),#70,.T.);
#68=ADVANCED_FACE('',(#80,#81),#43,.T.);
#69=CYLINDRICAL_SURFACE('',#245,6.);
#70=CYLINDRICAL_SURFACE('',#258,6.);
#71=ELLIPSE('',#243,8.48528137423857,6.);
#72=ELLIPSE('',#244,8.48528137423857,6.);
#73=FACE_BOUND('',#82,.T.);
#74=FACE_BOUND('',#83,.T.);
#75=FACE_BOUND('',#84,.T.);
#76=FACE_BOUND('',#90,.T.);
#77=FACE_BOUND('',#91,.T.);
#78=FACE_BOUND('',#94,.T.);
#79=FACE_BOUND('',#95,.T.);
#80=FACE_BOUND('',#96,.T.);
#81=FACE_BOUND('',#97,.T.);
#82=EDGE_LOOP('',(#98));
#83=EDGE_LOOP('',(#99));
#84=EDGE_LOOP('',(#100,#101,#102,#103));
#85=EDGE_LOOP('',(#104));
#86=EDGE_LOOP('',(#105));
#87=EDGE_LOOP('',(#106,#107,#108,#109));
#88=EDGE_LOOP('',(#110,#111));
#89=EDGE_LOOP('',(#112,#113));
#90=EDGE_LOOP('',(#114));
#91=EDGE_LOOP('',(#115));
#92=EDGE_LOOP('',(#116));
#93=EDGE_LOOP('',(#117));
#94=EDGE_LOOP('',(#118));
#95=EDGE_LOOP('',(#119));
#96=EDGE_LOOP('',(#120));
#97=EDGE_LOOP('',(#121));
#98=ORIENTED_EDGE('',*,*,#132,.T.);
#99=ORIENTED_EDGE('',*,*,#133,.F.);
#100=ORIENTED_EDGE('',*,*,#134,.T.);
#101=ORIENTED_EDGE('',*,*,#135,.T.);
#102=ORIENTED_EDGE('',*,*,#136,.T.);
#103=ORIENTED_EDGE('',*,*,#137,.T.);
#104=ORIENTED_EDGE('',*,*,#133,.T.);
#105=ORIENTED_EDGE('',*,*,#138,.T.);
#106=ORIENTED_EDGE('',*,*,#139,.T.);
#107=ORIENTED_EDGE('',*,*,#136,.F.);
#108=ORIENTED_EDGE('',*,*,#140,.F.);
#109=ORIENTED_EDGE('',*,*,#134,.F.);
#110=ORIENTED_EDGE('',*,*,#140,.T.);
#111=ORIENTED_EDGE('',*,*,#135,.F.);
#112=ORIENTED_EDGE('',*,*,#139,.F.);
#113=ORIENTED_EDGE('',*,*,#137,.F.);
#114=ORIENTED_EDGE('',*,*,#132,.F.);
#115=ORIENTED_EDGE('',*,*,#138,.F.);
#116=ORIENTED_EDGE('',*,*,#141,.T.);
#117=ORIENTED_EDGE('',*,*,#142,.T.);
#118=ORIENTED_EDGE('',*,*,#143,.T.);
#119=ORIENTED_EDGE('',*,*,#142,.F.);
#120=ORIENTED_EDGE('',*,*,#141,.F.);
#121=ORIENTED_EDGE('',*,*,#143,.F.);
#122=VERTEX_POINT('',#342);
#123=VERTEX_POINT('',#344);
#124=VERTEX_POINT('',#346);
#125=VERTEX_POINT('',#347);
#126=VERTEX_POINT('',#349);
#127=VERTEX_POINT('',#351);
#128=VERTEX_POINT('',#356);
#129=VERTEX_POINT('',#365);
#130=VERTEX_POINT('',#368);
#131=VERTEX_POINT('',#371);
#132=EDGE_CURVE('',#122,#122,#144,.T.);
#133=EDGE_CURVE('',#123,#123,#145,.T.);
#134=EDGE_CURVE('',#124,#125,#180,.T.);
#135=EDGE_CURVE('',#125,#126,#71,.T.);
#136=EDGE_CURVE('',#126,#127,#181,.T.);
#137=EDGE_CURVE('',#127,#124,#72,.T.);
#138=EDGE_CURVE('',#128,#128,#146,.T.);
#139=EDGE_CURVE('',#124,#127,#182,.T.);
#140=EDGE_CURVE('',#125,#126,#183,.T.);
#141=EDGE_CURVE('',#129,#129,#147,.T.);
#142=EDGE_CURVE('',#130,#130,#148,.T.);
#143=EDGE_CURVE('',#131,#131,#149,.T.);
#144=CIRCLE('',#241,6.);
#145=CIRCLE('',#242,6.);
#146=CIRCLE('',#247,5.5);
#147=CIRCLE('',#253,5.85);
#148=CIRCLE('',#255,6.);
#149=CIRCLE('',#257,6.);
#150=B_SPLINE_CURVE_WITH_KNOTS('CUTTING PART LINE',3,(#325,#326,#327,#328,
#329,#330,#331,#332,#333,#334,#335,#336,#337),.UNSPECIFIED.,.F.,.F.,(4,
3,3,3,4),(0.,0.158260685379528,0.840100471565054,0.845695831755026,1.),
 .UNSPECIFIED.);
#151=INVISIBILITY((#200,#201,#202,#203,#204));
#152=CURVE_STYLE('',#161,POSITIVE_LENGTH_MEASURE(0.18),#194);
#153=CURVE_STYLE('',#162,POSITIVE_LENGTH_MEASURE(0.18),#194);
#154=CURVE_STYLE('',#163,POSITIVE_LENGTH_MEASURE(0.18),#194);
#155=CURVE_STYLE('',#164,POSITIVE_LENGTH_MEASURE(0.18),#194);
#156=CURVE_STYLE('',#165,POSITIVE_LENGTH_MEASURE(0.18),#194);
#157=CURVE_STYLE('',#166,POSITIVE_LENGTH_MEASURE(0.18),#193);
#158=CURVE_STYLE('',#167,POSITIVE_LENGTH_MEASURE(0.18),#234);
#159=CURVE_STYLE('',#168,POSITIVE_LENGTH_MEASURE(0.18),#234);
#160=CURVE_STYLE('',#169,POSITIVE_LENGTH_MEASURE(0.18),#234);
#161=DRAUGHTING_PRE_DEFINED_CURVE_FONT('continuous');
#162=DRAUGHTING_PRE_DEFINED_CURVE_FONT('continuous');
#163=DRAUGHTING_PRE_DEFINED_CURVE_FONT('continuous');
#164=DRAUGHTING_PRE_DEFINED_CURVE_FONT('continuous');
#165=DRAUGHTING_PRE_DEFINED_CURVE_FONT('chain double dash');
#166=DRAUGHTING_PRE_DEFINED_CURVE_FONT('continuous');
#167=DRAUGHTING_PRE_DEFINED_CURVE_FONT('continuous');
#168=DRAUGHTING_PRE_DEFINED_CURVE_FONT('continuous');
#169=DRAUGHTING_PRE_DEFINED_CURVE_FONT('continuous');
#170=TRIMMED_CURVE('Line6',#175,(PARAMETER_VALUE(0.)),(
PARAMETER_VALUE(1.)),.T.,.PARAMETER.);
#171=TRIMMED_CURVE('Line7',#176,(PARAMETER_VALUE(0.)),(
PARAMETER_VALUE(1.)),.T.,.PARAMETER.);
#172=TRIMMED_CURVE('Line8',#177,(PARAMETER_VALUE(0.)),(
PARAMETER_VALUE(1.)),.T.,.PARAMETER.);
#173=TRIMMED_CURVE('Line9',#178,(PARAMETER_VALUE(0.)),(
PARAMETER_VALUE(1.)),.T.,.PARAMETER.);
#174=TRIMMED_CURVE('Line10',#179,(PARAMETER_VALUE(0.)),(
PARAMETER_VALUE(1.)),.T.,.PARAMETER.);
#175=LINE('Line6',#320,#184);
#176=LINE('Line7',#321,#185);
#177=LINE('Line8',#322,#186);
#178=LINE('Line9',#323,#187);
#179=LINE('Line10',#324,#188);
#180=LINE('',#345,#189);
#181=LINE('',#350,#190);
#182=LINE('',#358,#191);
#183=LINE('',#359,#192);
#184=VECTOR('',#262,7.99999999999999);
#185=VECTOR('',#263,9.89949493661167);
#186=VECTOR('',#264,22.);
#187=VECTOR('',#265,9.89949493661167);
#188=VECTOR('',#266,7.);
#189=VECTOR('',#277,1.);
#190=VECTOR('',#280,1.);
#191=VECTOR('',#291,1.);
#192=VECTOR('',#292,1.);
#193=DRAUGHTING_PRE_DEFINED_COLOUR('blue');
#194=DRAUGHTING_PRE_DEFINED_COLOUR('white');
#195=PRESENTATION_LAYER_ASSIGNMENT('1','Layer 1',(#316,#317,#318,#319,#170,
#171,#172,#173,#174,#150,#238,#239,#240,#38,#39));
#196=STYLED_ITEM('',(#211),#316);
#197=STYLED_ITEM('',(#212),#317);
#198=STYLED_ITEM('',(#213),#318);
#199=STYLED_ITEM('',(#214),#319);
#200=STYLED_ITEM('',(#215),#170);
#201=STYLED_ITEM('',(#216),#171);
#202=STYLED_ITEM('',(#217),#172);
#203=STYLED_ITEM('',(#218),#173);
#204=STYLED_ITEM('',(#219),#174);
#205=STYLED_ITEM('',(#220),#150);
#206=STYLED_ITEM('',(#221),#238);
#207=STYLED_ITEM('',(#222),#239);
#208=STYLED_ITEM('',(#223),#240);
#209=STYLED_ITEM('',(#224),#38);
#210=STYLED_ITEM('',(#225),#39);
#211=PRESENTATION_STYLE_ASSIGNMENT((#226));
#212=PRESENTATION_STYLE_ASSIGNMENT((#227));
#213=PRESENTATION_STYLE_ASSIGNMENT((#228));
#214=PRESENTATION_STYLE_ASSIGNMENT((#229));
#215=PRESENTATION_STYLE_ASSIGNMENT((#152));
#216=PRESENTATION_STYLE_ASSIGNMENT((#153));
#217=PRESENTATION_STYLE_ASSIGNMENT((#154));
#218=PRESENTATION_STYLE_ASSIGNMENT((#155));
#219=PRESENTATION_STYLE_ASSIGNMENT((#156));
#220=PRESENTATION_STYLE_ASSIGNMENT((#157));
#221=PRESENTATION_STYLE_ASSIGNMENT((#158));
#222=PRESENTATION_STYLE_ASSIGNMENT((#159));
#223=PRESENTATION_STYLE_ASSIGNMENT((#160));
#224=PRESENTATION_STYLE_ASSIGNMENT((#28));
#225=PRESENTATION_STYLE_ASSIGNMENT((#29));
#226=POINT_STYLE('',#230,POSITIVE_LENGTH_MEASURE(3.),#234);
#227=POINT_STYLE('',#231,POSITIVE_LENGTH_MEASURE(3.),#234);
#228=POINT_STYLE('',#232,POSITIVE_LENGTH_MEASURE(3.),#234);
#229=POINT_STYLE('',#233,POSITIVE_LENGTH_MEASURE(3.),#193);
#230=PRE_DEFINED_POINT_MARKER_SYMBOL('plus');
#231=PRE_DEFINED_POINT_MARKER_SYMBOL('plus');
#232=PRE_DEFINED_POINT_MARKER_SYMBOL('plus');
#233=PRE_DEFINED_POINT_MARKER_SYMBOL('plus');
#234=COLOUR_RGB('Strong Stone',0.576470588235294,0.54508278019379,0.392156862745098);
#235=COLOUR_RGB('Medium Gray',0.501960784313725,0.501960784313725,0.501960784313725);
#236=COLOUR_RGB('Light Gray',0.8,0.8,0.8);
#237=AXIS2_PLACEMENT_3D('',#315,#260,#261);
#238=AXIS2_PLACEMENT_3D('PCS',#338,#267,#268);
#239=AXIS2_PLACEMENT_3D('CIP',#339,#269,#270);
#240=AXIS2_PLACEMENT_3D('MCS',#340,#271,#272);
#241=AXIS2_PLACEMENT_3D('',#341,#273,#274);
#242=AXIS2_PLACEMENT_3D('',#343,#275,#276);
#243=AXIS2_PLACEMENT_3D('',#348,#278,#279);
#244=AXIS2_PLACEMENT_3D('',#352,#281,#282);
#245=AXIS2_PLACEMENT_3D('',#353,#283,#284);
#246=AXIS2_PLACEMENT_3D('',#354,#285,#286);
#247=AXIS2_PLACEMENT_3D('',#355,#287,#288);
#248=AXIS2_PLACEMENT_3D('',#357,#289,#290);
#249=AXIS2_PLACEMENT_3D('',#360,#293,#294);
#250=AXIS2_PLACEMENT_3D('',#361,#295,#296);
#251=AXIS2_PLACEMENT_3D('',#362,#297,#298);
#252=AXIS2_PLACEMENT_3D('',#363,#299,#300);
#253=AXIS2_PLACEMENT_3D('',#364,#301,#302);
#254=AXIS2_PLACEMENT_3D('',#366,#303,#304);
#255=AXIS2_PLACEMENT_3D('',#367,#305,#306);
#256=AXIS2_PLACEMENT_3D('',#369,#307,#308);
#257=AXIS2_PLACEMENT_3D('',#370,#309,#310);
#258=AXIS2_PLACEMENT_3D('',#372,#311,#312);
#259=AXIS2_PLACEMENT_3D('',#373,#313,#314);
#260=DIRECTION('',(0.,0.,1.));
#261=DIRECTION('',(1.,0.,0.));
#262=DIRECTION('',(1.11022302462516E-16,0.,-1.));
#263=DIRECTION('',(0.707106781186547,0.,-0.707106781186548));
#264=DIRECTION('',(-8.07434927000114E-17,0.,1.));
#265=DIRECTION('',(0.707106781186547,0.,0.707106781186548));
#266=DIRECTION('',(1.,0.,0.));
#267=DIRECTION('',(0.,0.,1.));
#268=DIRECTION('',(1.,0.,0.));
#269=DIRECTION('',(0.,0.,1.));
#270=DIRECTION('',(1.,0.,0.));
#271=DIRECTION('',(0.,0.,1.));
#272=DIRECTION('',(1.,0.,0.));
#273=DIRECTION('',(0.,0.,-1.));
#274=DIRECTION('',(1.,0.,0.));
#275=DIRECTION('',(0.,0.,-1.));
#276=DIRECTION('',(1.,0.,0.));
#277=DIRECTION('',(0.,0.,-1.));
#278=DIRECTION('',(-0.707106781186548,0.,-0.707106781186547));
#279=DIRECTION('',(-0.707106781186547,0.,0.707106781186548));
#280=DIRECTION('',(0.,0.,1.));
#281=DIRECTION('',(-0.707106781186548,0.,0.707106781186547));
#282=DIRECTION('',(0.707106781186547,0.,0.707106781186548));
#283=DIRECTION('',(0.,0.,1.));
#284=DIRECTION('',(1.,0.,0.));
#285=DIRECTION('',(0.,0.,1.));
#286=DIRECTION('',(1.,0.,0.));
#287=DIRECTION('',(0.,0.,1.));
#288=DIRECTION('',(1.,0.,0.));
#289=DIRECTION('',(0.,0.,1.));
#290=DIRECTION('',(1.,0.,0.));
#291=DIRECTION('',(0.,-1.,0.));
#292=DIRECTION('',(0.,-1.,0.));
#293=DIRECTION('',(1.,0.,1.08420217248551E-16));
#294=DIRECTION('',(1.0842021724855E-16,0.,-1.));
#295=DIRECTION('',(0.707106781186548,0.,0.707106781186547));
#296=DIRECTION('',(0.707106781186547,0.,-0.707106781186548));
#297=DIRECTION('',(0.707106781186548,0.,-0.707106781186547));
#298=DIRECTION('',(-0.707106781186547,0.,-0.707106781186548));
#299=DIRECTION('',(0.,0.,-1.));
#300=DIRECTION('',(-1.,0.,0.));
#301=DIRECTION('',(0.,0.,-1.));
#302=DIRECTION('',(-1.,0.,0.));
#303=DIRECTION('',(0.,0.,-1.));
#304=DIRECTION('',(-1.,0.,0.));
#305=DIRECTION('',(0.,0.,1.));
#306=DIRECTION('',(-1.,1.22464679914735E-16,0.));
#307=DIRECTION('',(0.,0.,1.));
#308=DIRECTION('',(1.,0.,0.));
#309=DIRECTION('',(0.,0.,1.));
#310=DIRECTION('',(-1.,0.,0.));
#311=DIRECTION('',(0.,0.,1.));
#312=DIRECTION('',(1.,0.,0.));
#313=DIRECTION('',(0.,0.,1.));
#314=DIRECTION('',(1.,0.,2.75900354032092E-17));
#315=CARTESIAN_POINT('',(0.,0.,0.));
#316=CARTESIAN_POINT('PCS',(0.,0.,0.));
#317=CARTESIAN_POINT('CIP',(0.,0.,-83.));
#318=CARTESIAN_POINT('MCS',(0.,0.,-45.));
#319=CARTESIAN_POINT('CRP',(6.,0.,-83.));
#320=CARTESIAN_POINT('',(4.4,0.,-18.5));
#321=CARTESIAN_POINT('',(4.4,0.,-26.5));
#322=CARTESIAN_POINT('',(11.4,0.,-33.5));
#323=CARTESIAN_POINT('',(4.4,0.,-18.5));
#324=CARTESIAN_POINT('',(4.4,0.,-22.5));
#325=CARTESIAN_POINT('',(0.,0.,-57.));
#326=CARTESIAN_POINT('',(0.,2.,-57.));
#327=CARTESIAN_POINT('',(0.,4.,-57.));
#328=CARTESIAN_POINT('',(0.,6.,-57.));
#329=CARTESIAN_POINT('',(0.,6.,-65.6166666666667));
#330=CARTESIAN_POINT('',(0.,6.,-74.2333333333333));
#331=CARTESIAN_POINT('',(0.,6.,-82.85));
#332=CARTESIAN_POINT('',(0.,5.94999999999999,-82.9));
#333=CARTESIAN_POINT('',(0.,5.89999999999999,-82.95));
#334=CARTESIAN_POINT('',(0.,5.84999999999998,-83.));
#335=CARTESIAN_POINT('',(0.,3.89999999999999,-83.));
#336=CARTESIAN_POINT('',(0.,1.94999999999999,-83.));
#337=CARTESIAN_POINT('',(0.,0.,-83.));
#338=CARTESIAN_POINT('',(0.,0.,0.));
#339=CARTESIAN_POINT('',(0.,0.,-83.));
#340=CARTESIAN_POINT('',(0.,0.,-45.));
#341=CARTESIAN_POINT('',(0.,0.,-0.5));
#342=CARTESIAN_POINT('',(6.,0.,-0.5));
#343=CARTESIAN_POINT('',(0.,0.,-57.));
#344=CARTESIAN_POINT('',(6.,0.,-57.));
#345=CARTESIAN_POINT('',(4.4,4.07921561087422,-62.7));
#346=CARTESIAN_POINT('',(4.4,4.07921561087423,-18.5));
#347=CARTESIAN_POINT('',(4.4,4.07921561087423,-26.5));
#348=CARTESIAN_POINT('',(0.,0.,-22.1));
#349=CARTESIAN_POINT('',(4.4,-4.07921561087423,-26.5));
#350=CARTESIAN_POINT('',(4.4,-4.07921561087422,-62.7));
#351=CARTESIAN_POINT('',(4.4,-4.07921561087423,-18.5));
#352=CARTESIAN_POINT('',(0.,0.,-22.9));
#353=CARTESIAN_POINT('',(0.,0.,-62.7));
#354=CARTESIAN_POINT('',(0.,0.,-57.));
#355=CARTESIAN_POINT('',(0.,0.,0.));
#356=CARTESIAN_POINT('',(5.5,0.,0.));
#357=CARTESIAN_POINT('',(0.,0.,0.));
#358=CARTESIAN_POINT('',(4.4,-15.,-18.5));
#359=CARTESIAN_POINT('',(4.4,-15.,-26.5));
#360=CARTESIAN_POINT('',(4.4,-15.,-18.5));
#361=CARTESIAN_POINT('',(4.4,-15.,-26.5));
#362=CARTESIAN_POINT('',(11.4,-15.,-11.5));
#363=CARTESIAN_POINT('',(0.,0.,0.));
#364=CARTESIAN_POINT('',(0.,0.,-83.));
#365=CARTESIAN_POINT('',(-5.85,0.,-83.));
#366=CARTESIAN_POINT('',(0.,0.,-83.));
#367=CARTESIAN_POINT('',(0.,0.,-57.));
#368=CARTESIAN_POINT('',(-6.,7.34788079488412E-16,-57.));
#369=CARTESIAN_POINT('',(0.,0.,-57.));
#370=CARTESIAN_POINT('',(0.,0.,-82.85));
#371=CARTESIAN_POINT('',(-6.,0.,-82.85));
#372=CARTESIAN_POINT('',(0.,0.,-85.6));
#373=CARTESIAN_POINT('',(0.,0.,-82.85));
#374=MECHANICAL_DESIGN_GEOMETRIC_PRESENTATION_REPRESENTATION('',(#196,#197,
#198,#199,#200,#201,#202,#203,#204,#205,#206,#207,#208,#209,#210),#375);
#375=(
GEOMETRIC_REPRESENTATION_CONTEXT(3)
GLOBAL_UNCERTAINTY_ASSIGNED_CONTEXT((#376))
GLOBAL_UNIT_ASSIGNED_CONTEXT((#382,#378,#377))
REPRESENTATION_CONTEXT('1578490128643','TOP_LEVEL_ASSEMBLY_PART')
);
#376=UNCERTAINTY_MEASURE_WITH_UNIT(LENGTH_MEASURE(2.E-5),#382,
'DISTANCE_ACCURACY_VALUE','Maximum Tolerance applied to model');
#377=(
NAMED_UNIT(*)
SI_UNIT($,.STERADIAN.)
SOLID_ANGLE_UNIT()
);
#378=(
CONVERSION_BASED_UNIT('DEGREE',#380)
NAMED_UNIT(#379)
PLANE_ANGLE_UNIT()
);
#379=DIMENSIONAL_EXPONENTS(0.,0.,0.,0.,0.,0.,0.);
#380=PLANE_ANGLE_MEASURE_WITH_UNIT(PLANE_ANGLE_MEASURE(0.0174532925),#381);
#381=(
NAMED_UNIT(*)
PLANE_ANGLE_UNIT()
SI_UNIT($,.RADIAN.)
);
#382=(
LENGTH_UNIT()
NAMED_UNIT(*)
SI_UNIT(.MILLI.,.METRE.)
);
ENDSEC;
END-ISO-10303-21;
