ISO-10303-21;
HEADER;
/* Generated by software containing ST-Developer
 * from STEP Tools, Inc. (www.steptools.com) 
 */
/* OPTION: using custom schema-name function */

FILE_DESCRIPTION(
/* description */ (''),
/* implementation_level */ '2;1');

FILE_NAME(
/* name */ '1578488861904.stp',
/* time_stamp */ '2020-01-08T14:08:07+01:00',
/* author */ (''),
/* organization */ ('SMS'),
/* preprocessor_version */ 'ST-DEVELOPER v16.7',
/* originating_system */ 'SIEMENS PLM Software NX 12.0',
/* authorisation */ '');

FILE_SCHEMA (('AUTOMOTIVE_DESIGN { 1 0 10303 214 3 1 1 1 }'));
ENDSEC;

DATA;
#10=CONSTRUCTIVE_GEOMETRY_REPRESENTATION_RELATIONSHIP(
'supplemental geometry','',#26,#11);
#11=CONSTRUCTIVE_GEOMETRY_REPRESENTATION('supplemental geometry',(#342,
#343,#344),#549);
#12=GEOMETRICALLY_BOUNDED_WIREFRAME_SHAPE_REPRESENTATION(
'201737798mod000_03-None',(#27),#549);
#13=SHAPE_REPRESENTATION_RELATIONSHIP('None',
'relationship between 201737798mod000_03-None and 201737798mod000_03-N
one',#26,#15);
#14=SHAPE_REPRESENTATION_RELATIONSHIP('None',
'relationship between 201737798mod000_03-None and 201737798mod000_03-N
one',#26,#12);
#15=ADVANCED_BREP_SHAPE_REPRESENTATION('201737798mod000_03-None',(#39,#40),
#549);
#16=SHAPE_DEFINITION_REPRESENTATION(#17,#26);
#17=PRODUCT_DEFINITION_SHAPE('','',#18);
#18=PRODUCT_DEFINITION(' ','',#20,#19);
#19=PRODUCT_DEFINITION_CONTEXT('part definition',#25,'design');
#20=PRODUCT_DEFINITION_FORMATION_WITH_SPECIFIED_SOURCE(' ',' ',#22,
 .NOT_KNOWN.);
#21=PRODUCT_RELATED_PRODUCT_CATEGORY('part','',(#22));
#22=PRODUCT('201737798mod000_03','201737798mod000_03',' ',(#23));
#23=PRODUCT_CONTEXT(' ',#25,'mechanical');
#24=APPLICATION_PROTOCOL_DEFINITION('international standard',
'automotive_design',2010,#25);
#25=APPLICATION_CONTEXT(
'core data for automotive mechanical design processes');
#26=SHAPE_REPRESENTATION('201737798mod000_03-None',(#341),#549);
#27=GEOMETRIC_CURVE_SET('None',(#455,#456,#457,#458,#245,#246,#247,#248,
#249,#250,#251,#252,#253,#254));
#28=TOROIDAL_SURFACE('',#371,10.5,2.);
#29=SURFACE_STYLE_USAGE(.BOTH.,#31);
#30=SURFACE_STYLE_USAGE(.BOTH.,#32);
#31=SURFACE_SIDE_STYLE('',(#33));
#32=SURFACE_SIDE_STYLE('',(#34));
#33=SURFACE_STYLE_FILL_AREA(#35);
#34=SURFACE_STYLE_FILL_AREA(#36);
#35=FILL_AREA_STYLE('',(#37));
#36=FILL_AREA_STYLE('',(#38));
#37=FILL_AREA_STYLE_COLOUR('',#339);
#38=FILL_AREA_STYLE_COLOUR('',#340);
#39=MANIFOLD_SOLID_BREP('NOCUT',#41);
#40=MANIFOLD_SOLID_BREP('CUT',#42);
#41=CLOSED_SHELL('',(#67,#68,#69,#70,#71,#72,#73,#74,#75,#76,#77));
#42=CLOSED_SHELL('',(#78,#79,#80,#81,#82));
#43=CONICAL_SURFACE('',#358,12.,45.);
#44=CONICAL_SURFACE('',#363,12.,30.0000000000001);
#45=CONICAL_SURFACE('',#369,12.5,45.);
#46=B_SPLINE_CURVE_WITH_KNOTS('',3,(#516,#517,#518,#519),.UNSPECIFIED.,
 .F.,.F.,(4,4),(0.,1.),.UNSPECIFIED.);
#47=B_SPLINE_CURVE_WITH_KNOTS('',3,(#521,#522,#523,#524),.UNSPECIFIED.,
 .F.,.F.,(4,4),(0.,1.),.UNSPECIFIED.);
#48=PLANE('',#352);
#49=PLANE('',#353);
#50=PLANE('',#354);
#51=PLANE('',#355);
#52=PLANE('',#356);
#53=PLANE('',#357);
#54=PLANE('',#360);
#55=PLANE('',#368);
#56=PLANE('',#372);
#57=FACE_OUTER_BOUND('',#105,.T.);
#58=FACE_OUTER_BOUND('',#106,.T.);
#59=FACE_OUTER_BOUND('',#107,.T.);
#60=FACE_OUTER_BOUND('',#108,.T.);
#61=FACE_OUTER_BOUND('',#109,.T.);
#62=FACE_OUTER_BOUND('',#110,.T.);
#63=FACE_OUTER_BOUND('',#111,.T.);
#64=FACE_OUTER_BOUND('',#112,.T.);
#65=FACE_OUTER_BOUND('',#119,.T.);
#66=FACE_OUTER_BOUND('',#124,.T.);
#67=ADVANCED_FACE('',(#89,#90,#91),#83,.T.);
#68=ADVANCED_FACE('',(#57),#48,.T.);
#69=ADVANCED_FACE('',(#58),#49,.T.);
#70=ADVANCED_FACE('',(#59),#50,.T.);
#71=ADVANCED_FACE('',(#60),#51,.T.);
#72=ADVANCED_FACE('',(#61),#52,.T.);
#73=ADVANCED_FACE('',(#62),#53,.T.);
#74=ADVANCED_FACE('',(#63),#43,.T.);
#75=ADVANCED_FACE('',(#64),#54,.F.);
#76=ADVANCED_FACE('',(#92,#93),#84,.T.);
#77=ADVANCED_FACE('',(#94,#95),#44,.T.);
#78=ADVANCED_FACE('',(#96,#97),#85,.T.);
#79=ADVANCED_FACE('',(#65),#55,.T.);
#80=ADVANCED_FACE('',(#98,#99),#45,.T.);
#81=ADVANCED_FACE('',(#100,#101),#28,.T.);
#82=ADVANCED_FACE('',(#66),#56,.T.);
#83=CYLINDRICAL_SURFACE('',#350,12.5);
#84=CYLINDRICAL_SURFACE('',#362,12.);
#85=CYLINDRICAL_SURFACE('',#366,12.5);
#86=ELLIPSE('',#346,17.6776695296637,12.5);
#87=ELLIPSE('',#347,17.6776695296637,12.5);
#88=ELLIPSE('',#349,17.6776695296637,12.5);
#89=FACE_BOUND('',#102,.T.);
#90=FACE_BOUND('',#103,.T.);
#91=FACE_BOUND('',#104,.T.);
#92=FACE_BOUND('',#113,.T.);
#93=FACE_BOUND('',#114,.T.);
#94=FACE_BOUND('',#115,.T.);
#95=FACE_BOUND('',#116,.T.);
#96=FACE_BOUND('',#117,.T.);
#97=FACE_BOUND('',#118,.T.);
#98=FACE_BOUND('',#120,.T.);
#99=FACE_BOUND('',#121,.T.);
#100=FACE_BOUND('',#122,.T.);
#101=FACE_BOUND('',#123,.T.);
#102=EDGE_LOOP('',(#125));
#103=EDGE_LOOP('',(#126,#127,#128,#129));
#104=EDGE_LOOP('',(#130,#131,#132,#133));
#105=EDGE_LOOP('',(#134,#135));
#106=EDGE_LOOP('',(#136,#137,#138,#139));
#107=EDGE_LOOP('',(#140,#141));
#108=EDGE_LOOP('',(#142,#143));
#109=EDGE_LOOP('',(#144,#145,#146,#147,#148,#149));
#110=EDGE_LOOP('',(#150,#151));
#111=EDGE_LOOP('',(#152,#153,#154,#155));
#112=EDGE_LOOP('',(#156));
#113=EDGE_LOOP('',(#157));
#114=EDGE_LOOP('',(#158));
#115=EDGE_LOOP('',(#159));
#116=EDGE_LOOP('',(#160));
#117=EDGE_LOOP('',(#161));
#118=EDGE_LOOP('',(#162));
#119=EDGE_LOOP('',(#163));
#120=EDGE_LOOP('',(#164));
#121=EDGE_LOOP('',(#165));
#122=EDGE_LOOP('',(#166));
#123=EDGE_LOOP('',(#167));
#124=EDGE_LOOP('',(#168));
#125=ORIENTED_EDGE('',*,*,#186,.T.);
#126=ORIENTED_EDGE('',*,*,#187,.T.);
#127=ORIENTED_EDGE('',*,*,#188,.T.);
#128=ORIENTED_EDGE('',*,*,#189,.T.);
#129=ORIENTED_EDGE('',*,*,#190,.T.);
#130=ORIENTED_EDGE('',*,*,#191,.T.);
#131=ORIENTED_EDGE('',*,*,#192,.T.);
#132=ORIENTED_EDGE('',*,*,#193,.T.);
#133=ORIENTED_EDGE('',*,*,#194,.T.);
#134=ORIENTED_EDGE('',*,*,#195,.T.);
#135=ORIENTED_EDGE('',*,*,#196,.T.);
#136=ORIENTED_EDGE('',*,*,#197,.T.);
#137=ORIENTED_EDGE('',*,*,#189,.F.);
#138=ORIENTED_EDGE('',*,*,#198,.F.);
#139=ORIENTED_EDGE('',*,*,#187,.F.);
#140=ORIENTED_EDGE('',*,*,#198,.T.);
#141=ORIENTED_EDGE('',*,*,#188,.F.);
#142=ORIENTED_EDGE('',*,*,#197,.F.);
#143=ORIENTED_EDGE('',*,*,#190,.F.);
#144=ORIENTED_EDGE('',*,*,#195,.F.);
#145=ORIENTED_EDGE('',*,*,#199,.T.);
#146=ORIENTED_EDGE('',*,*,#191,.F.);
#147=ORIENTED_EDGE('',*,*,#200,.F.);
#148=ORIENTED_EDGE('',*,*,#193,.F.);
#149=ORIENTED_EDGE('',*,*,#201,.T.);
#150=ORIENTED_EDGE('',*,*,#200,.T.);
#151=ORIENTED_EDGE('',*,*,#194,.F.);
#152=ORIENTED_EDGE('',*,*,#201,.F.);
#153=ORIENTED_EDGE('',*,*,#192,.F.);
#154=ORIENTED_EDGE('',*,*,#199,.F.);
#155=ORIENTED_EDGE('',*,*,#196,.F.);
#156=ORIENTED_EDGE('',*,*,#202,.T.);
#157=ORIENTED_EDGE('',*,*,#202,.F.);
#158=ORIENTED_EDGE('',*,*,#203,.F.);
#159=ORIENTED_EDGE('',*,*,#186,.F.);
#160=ORIENTED_EDGE('',*,*,#203,.T.);
#161=ORIENTED_EDGE('',*,*,#204,.T.);
#162=ORIENTED_EDGE('',*,*,#205,.T.);
#163=ORIENTED_EDGE('',*,*,#206,.T.);
#164=ORIENTED_EDGE('',*,*,#206,.F.);
#165=ORIENTED_EDGE('',*,*,#204,.F.);
#166=ORIENTED_EDGE('',*,*,#207,.T.);
#167=ORIENTED_EDGE('',*,*,#205,.F.);
#168=ORIENTED_EDGE('',*,*,#207,.F.);
#169=VERTEX_POINT('',#488);
#170=VERTEX_POINT('',#490);
#171=VERTEX_POINT('',#491);
#172=VERTEX_POINT('',#493);
#173=VERTEX_POINT('',#495);
#174=VERTEX_POINT('',#498);
#175=VERTEX_POINT('',#499);
#176=VERTEX_POINT('',#501);
#177=VERTEX_POINT('',#503);
#178=VERTEX_POINT('',#507);
#179=VERTEX_POINT('',#508);
#180=VERTEX_POINT('',#529);
#181=VERTEX_POINT('',#532);
#182=VERTEX_POINT('',#536);
#183=VERTEX_POINT('',#538);
#184=VERTEX_POINT('',#541);
#185=VERTEX_POINT('',#545);
#186=EDGE_CURVE('',#169,#169,#208,.T.);
#187=EDGE_CURVE('',#170,#171,#264,.T.);
#188=EDGE_CURVE('',#171,#172,#86,.T.);
#189=EDGE_CURVE('',#172,#173,#265,.T.);
#190=EDGE_CURVE('',#173,#170,#87,.T.);
#191=EDGE_CURVE('',#174,#175,#266,.T.);
#192=EDGE_CURVE('',#175,#176,#209,.T.);
#193=EDGE_CURVE('',#176,#177,#267,.T.);
#194=EDGE_CURVE('',#177,#174,#88,.T.);
#195=EDGE_CURVE('',#178,#179,#268,.T.);
#196=EDGE_CURVE('',#179,#178,#210,.T.);
#197=EDGE_CURVE('',#170,#173,#269,.T.);
#198=EDGE_CURVE('',#171,#172,#270,.T.);
#199=EDGE_CURVE('',#178,#175,#46,.T.);
#200=EDGE_CURVE('',#177,#174,#271,.T.);
#201=EDGE_CURVE('',#176,#179,#47,.T.);
#202=EDGE_CURVE('',#180,#180,#211,.T.);
#203=EDGE_CURVE('',#181,#181,#212,.T.);
#204=EDGE_CURVE('',#182,#182,#213,.T.);
#205=EDGE_CURVE('',#183,#183,#214,.T.);
#206=EDGE_CURVE('',#184,#184,#215,.T.);
#207=EDGE_CURVE('',#185,#185,#216,.T.);
#208=CIRCLE('',#345,12.5);
#209=CIRCLE('',#348,12.5);
#210=CIRCLE('',#351,12.);
#211=CIRCLE('',#359,12.);
#212=CIRCLE('',#361,12.);
#213=CIRCLE('',#364,12.5);
#214=CIRCLE('',#365,12.5);
#215=CIRCLE('',#367,12.25);
#216=CIRCLE('',#370,12.);
#217=(
BOUNDED_CURVE()
B_SPLINE_CURVE(3,(#468,#469,#470,#471,#472,#473,#474,#475,#476,#477,#478,
#479,#480,#481,#482,#483),.UNSPECIFIED.,.F.,.F.)
B_SPLINE_CURVE_WITH_KNOTS((4,3,3,3,3,4),(0.,0.157456943156317,0.162001386920491,
0.827176949500141,0.8457564638469,1.),.UNSPECIFIED.)
CURVE()
GEOMETRIC_REPRESENTATION_ITEM()
RATIONAL_B_SPLINE_CURVE((1.,1.,1.,1.,1.,1.,1.,1.,1.,1.,0.956942897795658,
0.956942897795658,1.,1.,1.,1.))
REPRESENTATION_ITEM('CUTTING PART LINE')
);
#218=INVISIBILITY((#296,#297,#298,#299,#300,#301,#302,#303,#304));
#219=CURVE_STYLE('',#232,POSITIVE_LENGTH_MEASURE(0.18),#290);
#220=CURVE_STYLE('',#233,POSITIVE_LENGTH_MEASURE(0.18),#290);
#221=CURVE_STYLE('',#234,POSITIVE_LENGTH_MEASURE(0.18),#290);
#222=CURVE_STYLE('',#235,POSITIVE_LENGTH_MEASURE(0.18),#290);
#223=CURVE_STYLE('',#236,POSITIVE_LENGTH_MEASURE(0.18),#290);
#224=CURVE_STYLE('',#237,POSITIVE_LENGTH_MEASURE(0.18),#290);
#225=CURVE_STYLE('',#238,POSITIVE_LENGTH_MEASURE(0.18),#290);
#226=CURVE_STYLE('',#239,POSITIVE_LENGTH_MEASURE(0.18),#290);
#227=CURVE_STYLE('',#240,POSITIVE_LENGTH_MEASURE(0.18),#290);
#228=CURVE_STYLE('',#241,POSITIVE_LENGTH_MEASURE(0.18),#289);
#229=CURVE_STYLE('',#242,POSITIVE_LENGTH_MEASURE(0.18),#338);
#230=CURVE_STYLE('',#243,POSITIVE_LENGTH_MEASURE(0.18),#338);
#231=CURVE_STYLE('',#244,POSITIVE_LENGTH_MEASURE(0.18),#338);
#232=DRAUGHTING_PRE_DEFINED_CURVE_FONT('continuous');
#233=DRAUGHTING_PRE_DEFINED_CURVE_FONT('continuous');
#234=DRAUGHTING_PRE_DEFINED_CURVE_FONT('continuous');
#235=DRAUGHTING_PRE_DEFINED_CURVE_FONT('continuous');
#236=DRAUGHTING_PRE_DEFINED_CURVE_FONT('chain double dash');
#237=DRAUGHTING_PRE_DEFINED_CURVE_FONT('continuous');
#238=DRAUGHTING_PRE_DEFINED_CURVE_FONT('continuous');
#239=DRAUGHTING_PRE_DEFINED_CURVE_FONT('continuous');
#240=DRAUGHTING_PRE_DEFINED_CURVE_FONT('continuous');
#241=DRAUGHTING_PRE_DEFINED_CURVE_FONT('continuous');
#242=DRAUGHTING_PRE_DEFINED_CURVE_FONT('continuous');
#243=DRAUGHTING_PRE_DEFINED_CURVE_FONT('continuous');
#244=DRAUGHTING_PRE_DEFINED_CURVE_FONT('continuous');
#245=TRIMMED_CURVE('Line6',#255,(PARAMETER_VALUE(0.)),(
PARAMETER_VALUE(1.)),.T.,.PARAMETER.);
#246=TRIMMED_CURVE('Line7',#256,(PARAMETER_VALUE(0.)),(
PARAMETER_VALUE(1.)),.T.,.PARAMETER.);
#247=TRIMMED_CURVE('Line8',#257,(PARAMETER_VALUE(0.)),(
PARAMETER_VALUE(1.)),.T.,.PARAMETER.);
#248=TRIMMED_CURVE('Line9',#258,(PARAMETER_VALUE(0.)),(
PARAMETER_VALUE(1.)),.T.,.PARAMETER.);
#249=TRIMMED_CURVE('Line10',#259,(PARAMETER_VALUE(0.)),(
PARAMETER_VALUE(1.)),.T.,.PARAMETER.);
#250=TRIMMED_CURVE('Line12',#260,(PARAMETER_VALUE(0.)),(
PARAMETER_VALUE(1.)),.T.,.PARAMETER.);
#251=TRIMMED_CURVE('Line13',#261,(PARAMETER_VALUE(0.)),(
PARAMETER_VALUE(1.)),.T.,.PARAMETER.);
#252=TRIMMED_CURVE('Line14',#262,(PARAMETER_VALUE(0.)),(
PARAMETER_VALUE(1.)),.T.,.PARAMETER.);
#253=TRIMMED_CURVE('Line15',#263,(PARAMETER_VALUE(0.)),(
PARAMETER_VALUE(1.)),.T.,.PARAMETER.);
#254=TRIMMED_CURVE('CUTTING PART LINE',#217,(PARAMETER_VALUE(0.)),(
PARAMETER_VALUE(1.)),.T.,.PARAMETER.);
#255=LINE('Line6',#459,#272);
#256=LINE('Line7',#460,#273);
#257=LINE('Line8',#461,#274);
#258=LINE('Line9',#462,#275);
#259=LINE('Line10',#463,#276);
#260=LINE('Line12',#464,#277);
#261=LINE('Line13',#465,#278);
#262=LINE('Line14',#466,#279);
#263=LINE('Line15',#467,#280);
#264=LINE('',#489,#281);
#265=LINE('',#494,#282);
#266=LINE('',#497,#283);
#267=LINE('',#502,#284);
#268=LINE('',#506,#285);
#269=LINE('',#511,#286);
#270=LINE('',#512,#287);
#271=LINE('',#520,#288);
#272=VECTOR('',#375,12.);
#273=VECTOR('',#376,4.24264068711929);
#274=VECTOR('',#377,18.);
#275=VECTOR('',#378,4.24264068711929);
#276=VECTOR('',#379,3.);
#277=VECTOR('',#380,19.);
#278=VECTOR('',#381,4.24264068711929);
#279=VECTOR('',#382,22.);
#280=VECTOR('',#383,3.00000000000002);
#281=VECTOR('',#392,1.);
#282=VECTOR('',#395,1.);
#283=VECTOR('',#398,1.);
#284=VECTOR('',#401,1.);
#285=VECTOR('',#406,1.);
#286=VECTOR('',#411,1.);
#287=VECTOR('',#412,1.);
#288=VECTOR('',#419,1.);
#289=DRAUGHTING_PRE_DEFINED_COLOUR('blue');
#290=DRAUGHTING_PRE_DEFINED_COLOUR('white');
#291=PRESENTATION_LAYER_ASSIGNMENT('1','Layer 1',(#455,#456,#457,#458,#245,
#246,#247,#248,#249,#250,#251,#252,#253,#254,#342,#343,#344,#39,#40));
#292=STYLED_ITEM('',(#311),#455);
#293=STYLED_ITEM('',(#312),#456);
#294=STYLED_ITEM('',(#313),#457);
#295=STYLED_ITEM('',(#314),#458);
#296=STYLED_ITEM('',(#315),#245);
#297=STYLED_ITEM('',(#316),#246);
#298=STYLED_ITEM('',(#317),#247);
#299=STYLED_ITEM('',(#318),#248);
#300=STYLED_ITEM('',(#319),#249);
#301=STYLED_ITEM('',(#320),#250);
#302=STYLED_ITEM('',(#321),#251);
#303=STYLED_ITEM('',(#322),#252);
#304=STYLED_ITEM('',(#323),#253);
#305=STYLED_ITEM('',(#324),#254);
#306=STYLED_ITEM('',(#325),#342);
#307=STYLED_ITEM('',(#326),#343);
#308=STYLED_ITEM('',(#327),#344);
#309=STYLED_ITEM('',(#328),#39);
#310=STYLED_ITEM('',(#329),#40);
#311=PRESENTATION_STYLE_ASSIGNMENT((#330));
#312=PRESENTATION_STYLE_ASSIGNMENT((#331));
#313=PRESENTATION_STYLE_ASSIGNMENT((#332));
#314=PRESENTATION_STYLE_ASSIGNMENT((#333));
#315=PRESENTATION_STYLE_ASSIGNMENT((#219));
#316=PRESENTATION_STYLE_ASSIGNMENT((#220));
#317=PRESENTATION_STYLE_ASSIGNMENT((#221));
#318=PRESENTATION_STYLE_ASSIGNMENT((#222));
#319=PRESENTATION_STYLE_ASSIGNMENT((#223));
#320=PRESENTATION_STYLE_ASSIGNMENT((#224));
#321=PRESENTATION_STYLE_ASSIGNMENT((#225));
#322=PRESENTATION_STYLE_ASSIGNMENT((#226));
#323=PRESENTATION_STYLE_ASSIGNMENT((#227));
#324=PRESENTATION_STYLE_ASSIGNMENT((#228));
#325=PRESENTATION_STYLE_ASSIGNMENT((#229));
#326=PRESENTATION_STYLE_ASSIGNMENT((#230));
#327=PRESENTATION_STYLE_ASSIGNMENT((#231));
#328=PRESENTATION_STYLE_ASSIGNMENT((#29));
#329=PRESENTATION_STYLE_ASSIGNMENT((#30));
#330=POINT_STYLE('',#334,POSITIVE_LENGTH_MEASURE(3.),#338);
#331=POINT_STYLE('',#335,POSITIVE_LENGTH_MEASURE(3.),#338);
#332=POINT_STYLE('',#336,POSITIVE_LENGTH_MEASURE(3.),#338);
#333=POINT_STYLE('',#337,POSITIVE_LENGTH_MEASURE(3.),#289);
#334=PRE_DEFINED_POINT_MARKER_SYMBOL('plus');
#335=PRE_DEFINED_POINT_MARKER_SYMBOL('plus');
#336=PRE_DEFINED_POINT_MARKER_SYMBOL('plus');
#337=PRE_DEFINED_POINT_MARKER_SYMBOL('plus');
#338=COLOUR_RGB('Strong Stone',0.576470588235294,0.54508278019379,0.392156862745098);
#339=COLOUR_RGB('Medium Gray',0.501960784313725,0.501960784313725,0.501960784313725);
#340=COLOUR_RGB('Light Gray',0.8,0.8,0.8);
#341=AXIS2_PLACEMENT_3D('',#454,#373,#374);
#342=AXIS2_PLACEMENT_3D('PCS',#484,#384,#385);
#343=AXIS2_PLACEMENT_3D('CIP',#485,#386,#387);
#344=AXIS2_PLACEMENT_3D('MCS',#486,#388,#389);
#345=AXIS2_PLACEMENT_3D('',#487,#390,#391);
#346=AXIS2_PLACEMENT_3D('',#492,#393,#394);
#347=AXIS2_PLACEMENT_3D('',#496,#396,#397);
#348=AXIS2_PLACEMENT_3D('',#500,#399,#400);
#349=AXIS2_PLACEMENT_3D('',#504,#402,#403);
#350=AXIS2_PLACEMENT_3D('',#505,#404,#405);
#351=AXIS2_PLACEMENT_3D('',#509,#407,#408);
#352=AXIS2_PLACEMENT_3D('',#510,#409,#410);
#353=AXIS2_PLACEMENT_3D('',#513,#413,#414);
#354=AXIS2_PLACEMENT_3D('',#514,#415,#416);
#355=AXIS2_PLACEMENT_3D('',#515,#417,#418);
#356=AXIS2_PLACEMENT_3D('',#525,#420,#421);
#357=AXIS2_PLACEMENT_3D('',#526,#422,#423);
#358=AXIS2_PLACEMENT_3D('',#527,#424,#425);
#359=AXIS2_PLACEMENT_3D('',#528,#426,#427);
#360=AXIS2_PLACEMENT_3D('',#530,#428,#429);
#361=AXIS2_PLACEMENT_3D('',#531,#430,#431);
#362=AXIS2_PLACEMENT_3D('',#533,#432,#433);
#363=AXIS2_PLACEMENT_3D('',#534,#434,#435);
#364=AXIS2_PLACEMENT_3D('',#535,#436,#437);
#365=AXIS2_PLACEMENT_3D('',#537,#438,#439);
#366=AXIS2_PLACEMENT_3D('',#539,#440,#441);
#367=AXIS2_PLACEMENT_3D('',#540,#442,#443);
#368=AXIS2_PLACEMENT_3D('',#542,#444,#445);
#369=AXIS2_PLACEMENT_3D('',#543,#446,#447);
#370=AXIS2_PLACEMENT_3D('',#544,#448,#449);
#371=AXIS2_PLACEMENT_3D('',#546,#450,#451);
#372=AXIS2_PLACEMENT_3D('',#547,#452,#453);
#373=DIRECTION('',(0.,0.,1.));
#374=DIRECTION('',(1.,0.,0.));
#375=DIRECTION('',(0.,0.,-1.));
#376=DIRECTION('',(0.707106781186547,0.,-0.707106781186548));
#377=DIRECTION('',(-9.86864910777916E-17,0.,1.));
#378=DIRECTION('',(0.707106781186547,0.,0.707106781186548));
#379=DIRECTION('',(1.,0.,0.));
#380=DIRECTION('',(7.47939721852737E-16,0.,-1.));
#381=DIRECTION('',(0.707106781186547,0.,-0.707106781186548));
#382=DIRECTION('',(0.,0.,1.));
#383=DIRECTION('',(1.,0.,-7.40148683083434E-16));
#384=DIRECTION('',(0.,0.,1.));
#385=DIRECTION('',(1.,0.,0.));
#386=DIRECTION('',(0.,0.,1.));
#387=DIRECTION('',(1.,0.,0.));
#388=DIRECTION('',(0.,0.,1.));
#389=DIRECTION('',(1.,0.,0.));
#390=DIRECTION('',(0.,0.,1.));
#391=DIRECTION('',(1.,0.,0.));
#392=DIRECTION('',(0.,0.,-1.));
#393=DIRECTION('',(-0.707106781186548,0.,-0.707106781186547));
#394=DIRECTION('',(-0.707106781186547,0.,0.707106781186548));
#395=DIRECTION('',(0.,0.,1.));
#396=DIRECTION('',(-0.707106781186548,0.,0.707106781186547));
#397=DIRECTION('',(0.707106781186547,0.,0.707106781186548));
#398=DIRECTION('',(0.,0.,1.));
#399=DIRECTION('',(0.,0.,-1.));
#400=DIRECTION('',(1.,0.,0.));
#401=DIRECTION('',(0.,0.,-1.));
#402=DIRECTION('',(-0.707106781186548,0.,-0.707106781186547));
#403=DIRECTION('',(-0.707106781186547,0.,0.707106781186548));
#404=DIRECTION('',(0.,0.,1.));
#405=DIRECTION('',(1.,0.,0.));
#406=DIRECTION('',(0.,1.,0.));
#407=DIRECTION('',(0.,0.,1.));
#408=DIRECTION('',(1.,0.,0.));
#409=DIRECTION('',(0.,0.,1.));
#410=DIRECTION('',(1.,0.,0.));
#411=DIRECTION('',(0.,-1.,0.));
#412=DIRECTION('',(0.,-1.,0.));
#413=DIRECTION('',(1.,0.,0.));
#414=DIRECTION('',(0.,0.,-1.));
#415=DIRECTION('',(0.707106781186548,0.,0.707106781186547));
#416=DIRECTION('',(0.707106781186547,0.,-0.707106781186548));
#417=DIRECTION('',(0.707106781186548,0.,-0.707106781186547));
#418=DIRECTION('',(-0.707106781186547,0.,-0.707106781186548));
#419=DIRECTION('',(0.,-1.,0.));
#420=DIRECTION('',(1.,0.,7.30409884621813E-16));
#421=DIRECTION('',(7.30318583386236E-16,0.,-1.));
#422=DIRECTION('',(0.707106781186548,0.,0.707106781186547));
#423=DIRECTION('',(0.707106781186547,0.,-0.707106781186548));
#424=DIRECTION('',(0.,0.,-1.));
#425=DIRECTION('',(-1.,0.,0.));
#426=DIRECTION('',(0.,0.,-1.));
#427=DIRECTION('',(1.,0.,0.));
#428=DIRECTION('',(0.,0.,1.));
#429=DIRECTION('',(1.,0.,0.));
#430=DIRECTION('',(0.,0.,1.));
#431=DIRECTION('',(1.,0.,0.));
#432=DIRECTION('',(0.,0.,1.));
#433=DIRECTION('',(1.,0.,0.));
#434=DIRECTION('',(0.,0.,1.));
#435=DIRECTION('',(1.,0.,-8.2416620245442E-17));
#436=DIRECTION('',(0.,0.,1.));
#437=DIRECTION('',(-1.,0.,0.));
#438=DIRECTION('',(0.,0.,-1.));
#439=DIRECTION('',(-1.,0.,0.));
#440=DIRECTION('',(0.,0.,1.));
#441=DIRECTION('',(1.,0.,0.));
#442=DIRECTION('',(0.,0.,-1.));
#443=DIRECTION('',(-1.,0.,0.));
#444=DIRECTION('',(0.,0.,-1.));
#445=DIRECTION('',(-1.,0.,0.));
#446=DIRECTION('',(0.,0.,1.));
#447=DIRECTION('',(1.,0.,-2.74129141882755E-17));
#448=DIRECTION('',(0.,0.,-1.));
#449=DIRECTION('',(-1.,0.,0.));
#450=DIRECTION('',(0.,0.,-1.));
#451=DIRECTION('',(-1.,0.,0.));
#452=DIRECTION('',(0.,0.,1.));
#453=DIRECTION('',(1.,0.,0.));
#454=CARTESIAN_POINT('',(0.,0.,0.));
#455=CARTESIAN_POINT('PCS',(0.,0.,0.));
#456=CARTESIAN_POINT('CIP',(0.,0.,-121.));
#457=CARTESIAN_POINT('MCS',(0.,0.,-56.));
#458=CARTESIAN_POINT('CRP',(12.5,0.,-121.));
#459=CARTESIAN_POINT('',(10.5,0.,-26.));
#460=CARTESIAN_POINT('',(10.5,0.,-38.));
#461=CARTESIAN_POINT('',(13.5,0.,-41.));
#462=CARTESIAN_POINT('',(10.5,0.,-26.));
#463=CARTESIAN_POINT('',(10.5,0.,-32.));
#464=CARTESIAN_POINT('',(10.5,0.,2.00000000000001));
#465=CARTESIAN_POINT('',(10.5,0.,-17.));
#466=CARTESIAN_POINT('',(13.5,0.,-20.));
#467=CARTESIAN_POINT('',(10.5,0.,2.00000000000001));
#468=CARTESIAN_POINT('',(0.,0.,-121.));
#469=CARTESIAN_POINT('',(0.,4.08333333333333,-121.));
#470=CARTESIAN_POINT('',(0.,8.16666666666667,-121.));
#471=CARTESIAN_POINT('',(0.,12.25,-121.));
#472=CARTESIAN_POINT('',(0.,12.3333333333333,-120.916666666667));
#473=CARTESIAN_POINT('',(0.,12.4166666666667,-120.833333333333));
#474=CARTESIAN_POINT('',(0.,12.5,-120.75));
#475=CARTESIAN_POINT('',(0.,12.5,-103.499991885177));
#476=CARTESIAN_POINT('',(0.,12.5,-86.2499837703549));
#477=CARTESIAN_POINT('',(0.,12.5,-68.9999756555323));
#478=CARTESIAN_POINT('',(0.,12.5,-68.5073605560557));
#479=CARTESIAN_POINT('',(0.,12.3258342613226,-68.0465613246074));
#480=CARTESIAN_POINT('',(0.,12.,-67.6771));
#481=CARTESIAN_POINT('',(0.,8.,-67.6771));
#482=CARTESIAN_POINT('',(0.,4.,-67.6771));
#483=CARTESIAN_POINT('',(0.,0.,-67.6771));
#484=CARTESIAN_POINT('',(0.,0.,0.));
#485=CARTESIAN_POINT('',(0.,0.,-121.));
#486=CARTESIAN_POINT('',(0.,0.,-56.));
#487=CARTESIAN_POINT('',(0.,0.,-57.1339745962156));
#488=CARTESIAN_POINT('',(12.5,0.,-57.1339745962156));
#489=CARTESIAN_POINT('',(10.5,6.78232998312527,-63.8));
#490=CARTESIAN_POINT('',(10.5,6.78232998312526,-26.));
#491=CARTESIAN_POINT('',(10.5,6.78232998312527,-38.));
#492=CARTESIAN_POINT('',(0.,0.,-27.5));
#493=CARTESIAN_POINT('',(10.5,-6.78232998312527,-38.));
#494=CARTESIAN_POINT('',(10.5,-6.78232998312527,-63.8));
#495=CARTESIAN_POINT('',(10.5,-6.78232998312528,-26.));
#496=CARTESIAN_POINT('',(0.,0.,-36.5));
#497=CARTESIAN_POINT('',(10.5,-6.78232998312521,-63.8));
#498=CARTESIAN_POINT('',(10.5,-6.78232998312526,-17.));
#499=CARTESIAN_POINT('',(10.5,-6.78232998312521,-0.5));
#500=CARTESIAN_POINT('',(0.,0.,-0.5));
#501=CARTESIAN_POINT('',(10.5,6.78232998312521,-0.500000000000001));
#502=CARTESIAN_POINT('',(10.5,6.78232998312521,-63.8));
#503=CARTESIAN_POINT('',(10.5,6.78232998312526,-17.));
#504=CARTESIAN_POINT('',(0.,0.,-6.49999999999998));
#505=CARTESIAN_POINT('',(0.,0.,-63.8));
#506=CARTESIAN_POINT('',(10.5,0.,0.));
#507=CARTESIAN_POINT('',(10.5,-5.80947501931114,0.));
#508=CARTESIAN_POINT('',(10.5,5.80947501931114,0.));
#509=CARTESIAN_POINT('',(0.,0.,0.));
#510=CARTESIAN_POINT('',(0.,0.,0.));
#511=CARTESIAN_POINT('',(10.5,-28.,-26.));
#512=CARTESIAN_POINT('',(10.5,-28.,-38.));
#513=CARTESIAN_POINT('',(10.5,-28.,-26.));
#514=CARTESIAN_POINT('',(10.5,-28.,-38.));
#515=CARTESIAN_POINT('',(13.5,-28.,-23.));
#516=CARTESIAN_POINT('',(10.5,-5.80947501931114,0.));
#517=CARTESIAN_POINT('',(10.5,-6.13764728797162,-0.158875716401143));
#518=CARTESIAN_POINT('',(10.5,-6.46185717499521,-0.326115813171485));
#519=CARTESIAN_POINT('',(10.5,-6.78232998312521,-0.5));
#520=CARTESIAN_POINT('',(10.5,-28.,-17.));
#521=CARTESIAN_POINT('',(10.5,6.78232998312521,-0.500000000000001));
#522=CARTESIAN_POINT('',(10.5,6.46185717499521,-0.326115813171486));
#523=CARTESIAN_POINT('',(10.5,6.13764728797162,-0.158875716401144));
#524=CARTESIAN_POINT('',(10.5,5.80947501931114,0.));
#525=CARTESIAN_POINT('',(10.5,-28.,2.00000000000001));
#526=CARTESIAN_POINT('',(10.5,-28.,-17.));
#527=CARTESIAN_POINT('',(0.,0.,0.));
#528=CARTESIAN_POINT('',(0.,0.,-67.6771));
#529=CARTESIAN_POINT('',(12.,0.,-67.6771));
#530=CARTESIAN_POINT('',(0.,0.,-67.6771));
#531=CARTESIAN_POINT('',(0.,0.,-58.));
#532=CARTESIAN_POINT('',(12.,0.,-58.));
#533=CARTESIAN_POINT('',(0.,0.,-68.64481));
#534=CARTESIAN_POINT('',(0.,0.,-58.));
#535=CARTESIAN_POINT('',(0.,0.,-120.75));
#536=CARTESIAN_POINT('',(-12.5,0.,-120.75));
#537=CARTESIAN_POINT('',(0.,0.,-68.9999756555323));
#538=CARTESIAN_POINT('',(-12.5,0.,-68.9999756555323));
#539=CARTESIAN_POINT('',(0.,0.,-126.33229));
#540=CARTESIAN_POINT('',(0.,0.,-121.));
#541=CARTESIAN_POINT('',(-12.25,0.,-121.));
#542=CARTESIAN_POINT('',(0.,0.,-121.));
#543=CARTESIAN_POINT('',(0.,0.,-120.75));
#544=CARTESIAN_POINT('',(0.,0.,-67.6771));
#545=CARTESIAN_POINT('',(-12.,0.,-67.6771));
#546=CARTESIAN_POINT('',(0.,0.,-68.9999756555323));
#547=CARTESIAN_POINT('',(0.,0.,-67.6771));
#548=MECHANICAL_DESIGN_GEOMETRIC_PRESENTATION_REPRESENTATION('',(#292,#293,
#294,#295,#296,#297,#298,#299,#300,#301,#302,#303,#304,#305,#306,#307,#308,
#309,#310),#549);
#549=(
GEOMETRIC_REPRESENTATION_CONTEXT(3)
GLOBAL_UNCERTAINTY_ASSIGNED_CONTEXT((#550))
GLOBAL_UNIT_ASSIGNED_CONTEXT((#556,#552,#551))
REPRESENTATION_CONTEXT('1578488861904','TOP_LEVEL_ASSEMBLY_PART')
);
#550=UNCERTAINTY_MEASURE_WITH_UNIT(LENGTH_MEASURE(0.0508),#556,
'DISTANCE_ACCURACY_VALUE','Maximum Tolerance applied to model');
#551=(
NAMED_UNIT(*)
SI_UNIT($,.STERADIAN.)
SOLID_ANGLE_UNIT()
);
#552=(
CONVERSION_BASED_UNIT('DEGREE',#554)
NAMED_UNIT(#553)
PLANE_ANGLE_UNIT()
);
#553=DIMENSIONAL_EXPONENTS(0.,0.,0.,0.,0.,0.,0.);
#554=PLANE_ANGLE_MEASURE_WITH_UNIT(PLANE_ANGLE_MEASURE(0.0174532925),#555);
#555=(
NAMED_UNIT(*)
PLANE_ANGLE_UNIT()
SI_UNIT($,.RADIAN.)
);
#556=(
LENGTH_UNIT()
NAMED_UNIT(*)
SI_UNIT(.MILLI.,.METRE.)
);
ENDSEC;
END-ISO-10303-21;
