ISO-10303-21;
HEADER;
/* Generated by software containing ST-Developer
 * from STEP Tools, Inc. (www.steptools.com) 
 */
/* OPTION: using custom schema-name function */

FILE_DESCRIPTION(
/* description */ (''),
/* implementation_level */ '2;1');

FILE_NAME(
/* name */ '6416_1_3d.stp',
/* time_stamp */ '2019-07-11T23:19:13+02:00',
/* author */ (''),
/* organization */ ('SMS'),
/* preprocessor_version */ 'ST-DEVELOPER v16.7',
/* originating_system */ 'SIEMENS PLM Software NX 12.0',
/* authorisation */ '');

FILE_SCHEMA (('AUTOMOTIVE_DESIGN { 1 0 10303 214 3 1 1 1 }'));
ENDSEC;

DATA;
#10=CONSTRUCTIVE_GEOMETRY_REPRESENTATION_RELATIONSHIP(
'supplemental geometry','',#26,#11);
#11=CONSTRUCTIVE_GEOMETRY_REPRESENTATION('supplemental geometry',(#229,
#230,#231),#401);
#12=GEOMETRICALLY_BOUNDED_WIREFRAME_SHAPE_REPRESENTATION(
'6416_1_3D-None',(#27),#401);
#13=SHAPE_REPRESENTATION_RELATIONSHIP('None',
'relationship between 6416_1_3D-None and 6416_1_3D-None',#26,#15);
#14=SHAPE_REPRESENTATION_RELATIONSHIP('None',
'relationship between 6416_1_3D-None and 6416_1_3D-None',#26,#12);
#15=ADVANCED_BREP_SHAPE_REPRESENTATION('6416_1_3D-None',(#41,#42),#401);
#16=SHAPE_DEFINITION_REPRESENTATION(#17,#26);
#17=PRODUCT_DEFINITION_SHAPE('','',#18);
#18=PRODUCT_DEFINITION(' ','',#20,#19);
#19=PRODUCT_DEFINITION_CONTEXT('part definition',#25,'design');
#20=PRODUCT_DEFINITION_FORMATION_WITH_SPECIFIED_SOURCE(' ',' ',#22,
 .NOT_KNOWN.);
#21=PRODUCT_RELATED_PRODUCT_CATEGORY('part','',(#22));
#22=PRODUCT('6416_1_3D','6416_1_3D',' ',(#23));
#23=PRODUCT_CONTEXT(' ',#25,'mechanical');
#24=APPLICATION_PROTOCOL_DEFINITION('international standard',
'automotive_design',2010,#25);
#25=APPLICATION_CONTEXT(
'core data for automotive mechanical design processes');
#26=SHAPE_REPRESENTATION('6416_1_3D-None',(#228),#401);
#27=GEOMETRIC_CURVE_SET('None',(#325,#326,#202));
#28=VERTEX_LOOP('',#165);
#29=SURFACE_STYLE_USAGE(.BOTH.,#31);
#30=SURFACE_STYLE_USAGE(.BOTH.,#32);
#31=SURFACE_SIDE_STYLE('',(#33));
#32=SURFACE_SIDE_STYLE('',(#34));
#33=SURFACE_STYLE_FILL_AREA(#35);
#34=SURFACE_STYLE_FILL_AREA(#36);
#35=FILL_AREA_STYLE('',(#37));
#36=FILL_AREA_STYLE('',(#38));
#37=FILL_AREA_STYLE_COLOUR('',#39);
#38=FILL_AREA_STYLE_COLOUR('',#40);
#39=COLOUR_RGB('TLS_NOCUT',0.499992370489052,0.499992370489052,0.499992370489052);
#40=COLOUR_RGB('TLS_CUT',0.8,0.8,0.8);
#41=MANIFOLD_SOLID_BREP('NOCUT',#43);
#42=MANIFOLD_SOLID_BREP('CUT',#44);
#43=CLOSED_SHELL('',(#80,#81,#82,#83,#84,#85,#86));
#44=CLOSED_SHELL('',(#87,#88,#89,#90,#91,#92,#93,#94));
#45=CYLINDRICAL_SURFACE('',#244,6.);
#46=TOROIDAL_SURFACE('',#238,5.8,0.2);
#47=TOROIDAL_SURFACE('',#239,6.16949431466752,0.2);
#48=TOROIDAL_SURFACE('',#253,4.28109655018735,0.05);
#49=CONICAL_SURFACE('',#235,6.0011703114,0.0343774635825617);
#50=CONICAL_SURFACE('',#243,6.,45.);
#51=CONICAL_SURFACE('',#247,6.0011703114,0.0343774635825617);
#52=CONICAL_SURFACE('',#250,4.23,2.99999999999998);
#53=CONICAL_SURFACE('',#252,4.25,44.9999999999913);
#54=CONICAL_SURFACE('',#255,1.59872115546023E-14,67.5806843203395);
#55=CONICAL_SURFACE('',#257,4.262,0.0343774635825606);
#56=FACE_BOUND('',#103,.T.);
#57=FACE_BOUND('',#104,.T.);
#58=FACE_BOUND('',#105,.T.);
#59=FACE_BOUND('',#106,.T.);
#60=FACE_BOUND('',#107,.T.);
#61=FACE_BOUND('',#108,.T.);
#62=FACE_BOUND('',#110,.T.);
#63=FACE_BOUND('',#111,.T.);
#64=FACE_BOUND('',#112,.T.);
#65=FACE_BOUND('',#113,.T.);
#66=FACE_BOUND('',#114,.T.);
#67=FACE_BOUND('',#115,.T.);
#68=FACE_BOUND('',#116,.T.);
#69=FACE_BOUND('',#117,.T.);
#70=FACE_BOUND('',#118,.T.);
#71=FACE_BOUND('',#119,.T.);
#72=FACE_BOUND('',#120,.T.);
#73=FACE_BOUND('',#121,.T.);
#74=FACE_BOUND('',#28,.T.);
#75=FACE_BOUND('',#122,.T.);
#76=FACE_BOUND('',#123,.T.);
#77=FACE_BOUND('',#124,.T.);
#78=FACE_BOUND('',#125,.T.);
#79=FACE_BOUND('',#126,.T.);
#80=ADVANCED_FACE('',(#99),#95,.T.);
#81=ADVANCED_FACE('',(#56,#57),#49,.T.);
#82=ADVANCED_FACE('',(#58,#59),#46,.T.);
#83=ADVANCED_FACE('',(#60,#61),#47,.F.);
#84=ADVANCED_FACE('',(#100),#96,.T.);
#85=ADVANCED_FACE('',(#62,#63),#50,.T.);
#86=ADVANCED_FACE('SHANK',(#64,#65),#45,.T.);
#87=ADVANCED_FACE('',(#66,#67),#51,.T.);
#88=ADVANCED_FACE('',(#68,#69),#52,.T.);
#89=ADVANCED_FACE('',(#70,#71),#53,.T.);
#90=ADVANCED_FACE('',(#72,#73),#48,.F.);
#91=ADVANCED_FACE('',(#74,#75),#54,.T.);
#92=ADVANCED_FACE('',(#76,#77),#55,.T.);
#93=ADVANCED_FACE('',(#78,#79),#97,.F.);
#94=ADVANCED_FACE('',(#101),#98,.F.);
#95=PLANE('',#233);
#96=PLANE('',#241);
#97=PLANE('',#258);
#98=PLANE('',#259);
#99=FACE_OUTER_BOUND('',#102,.T.);
#100=FACE_OUTER_BOUND('',#109,.T.);
#101=FACE_OUTER_BOUND('',#127,.T.);
#102=EDGE_LOOP('',(#128));
#103=EDGE_LOOP('',(#129));
#104=EDGE_LOOP('',(#130));
#105=EDGE_LOOP('',(#131));
#106=EDGE_LOOP('',(#132));
#107=EDGE_LOOP('',(#133));
#108=EDGE_LOOP('',(#134));
#109=EDGE_LOOP('',(#135));
#110=EDGE_LOOP('',(#136));
#111=EDGE_LOOP('',(#137));
#112=EDGE_LOOP('',(#138));
#113=EDGE_LOOP('',(#139));
#114=EDGE_LOOP('',(#140));
#115=EDGE_LOOP('',(#141));
#116=EDGE_LOOP('',(#142));
#117=EDGE_LOOP('',(#143));
#118=EDGE_LOOP('',(#144));
#119=EDGE_LOOP('',(#145));
#120=EDGE_LOOP('',(#146));
#121=EDGE_LOOP('',(#147));
#122=EDGE_LOOP('',(#148));
#123=EDGE_LOOP('',(#149));
#124=EDGE_LOOP('',(#150));
#125=EDGE_LOOP('',(#151));
#126=EDGE_LOOP('',(#152));
#127=EDGE_LOOP('',(#153));
#128=ORIENTED_EDGE('',*,*,#168,.T.);
#129=ORIENTED_EDGE('',*,*,#169,.T.);
#130=ORIENTED_EDGE('',*,*,#168,.F.);
#131=ORIENTED_EDGE('',*,*,#170,.T.);
#132=ORIENTED_EDGE('',*,*,#171,.F.);
#133=ORIENTED_EDGE('',*,*,#171,.T.);
#134=ORIENTED_EDGE('',*,*,#169,.F.);
#135=ORIENTED_EDGE('',*,*,#172,.F.);
#136=ORIENTED_EDGE('',*,*,#172,.T.);
#137=ORIENTED_EDGE('',*,*,#173,.F.);
#138=ORIENTED_EDGE('',*,*,#173,.T.);
#139=ORIENTED_EDGE('',*,*,#170,.F.);
#140=ORIENTED_EDGE('',*,*,#174,.T.);
#141=ORIENTED_EDGE('',*,*,#175,.T.);
#142=ORIENTED_EDGE('',*,*,#176,.T.);
#143=ORIENTED_EDGE('',*,*,#177,.T.);
#144=ORIENTED_EDGE('',*,*,#178,.T.);
#145=ORIENTED_EDGE('',*,*,#175,.F.);
#146=ORIENTED_EDGE('',*,*,#178,.F.);
#147=ORIENTED_EDGE('',*,*,#176,.F.);
#148=ORIENTED_EDGE('',*,*,#179,.T.);
#149=ORIENTED_EDGE('',*,*,#180,.T.);
#150=ORIENTED_EDGE('',*,*,#179,.F.);
#151=ORIENTED_EDGE('',*,*,#180,.F.);
#152=ORIENTED_EDGE('',*,*,#177,.F.);
#153=ORIENTED_EDGE('',*,*,#174,.F.);
#154=VERTEX_POINT('',#359);
#155=VERTEX_POINT('',#362);
#156=VERTEX_POINT('',#365);
#157=VERTEX_POINT('',#367);
#158=VERTEX_POINT('',#371);
#159=VERTEX_POINT('',#374);
#160=VERTEX_POINT('',#378);
#161=VERTEX_POINT('',#380);
#162=VERTEX_POINT('',#383);
#163=VERTEX_POINT('',#385);
#164=VERTEX_POINT('',#388);
#165=VERTEX_POINT('',#391);
#166=VERTEX_POINT('',#393);
#167=VERTEX_POINT('',#396);
#168=EDGE_CURVE('',#154,#154,#181,.T.);
#169=EDGE_CURVE('',#155,#155,#182,.T.);
#170=EDGE_CURVE('',#156,#156,#183,.T.);
#171=EDGE_CURVE('',#157,#157,#184,.T.);
#172=EDGE_CURVE('',#158,#158,#185,.T.);
#173=EDGE_CURVE('',#159,#159,#186,.T.);
#174=EDGE_CURVE('',#160,#160,#187,.T.);
#175=EDGE_CURVE('',#161,#161,#188,.T.);
#176=EDGE_CURVE('',#162,#162,#189,.T.);
#177=EDGE_CURVE('',#163,#163,#190,.T.);
#178=EDGE_CURVE('',#164,#164,#191,.T.);
#179=EDGE_CURVE('',#166,#166,#192,.T.);
#180=EDGE_CURVE('',#167,#167,#193,.T.);
#181=CIRCLE('',#232,5.9877023514);
#182=CIRCLE('',#234,5.9694943506675);
#183=CIRCLE('',#236,6.);
#184=CIRCLE('',#237,5.98474715733376);
#185=CIRCLE('',#240,4.3);
#186=CIRCLE('',#242,6.);
#187=CIRCLE('',#245,5.9877023514);
#188=CIRCLE('',#246,6.);
#189=CIRCLE('',#248,4.23116507344962);
#190=CIRCLE('',#249,4.23943340027095);
#191=CIRCLE('',#251,4.24574121112802);
#192=CIRCLE('',#254,4.25);
#193=CIRCLE('',#256,4.23482);
#194=CURVE_STYLE('',#198,POSITIVE_LENGTH_MEASURE(0.18),#225);
#195=CURVE_STYLE('',#199,POSITIVE_LENGTH_MEASURE(0.13),#227);
#196=CURVE_STYLE('',#200,POSITIVE_LENGTH_MEASURE(0.13),#227);
#197=CURVE_STYLE('',#201,POSITIVE_LENGTH_MEASURE(0.13),#227);
#198=DRAUGHTING_PRE_DEFINED_CURVE_FONT('continuous');
#199=DRAUGHTING_PRE_DEFINED_CURVE_FONT('continuous');
#200=DRAUGHTING_PRE_DEFINED_CURVE_FONT('continuous');
#201=DRAUGHTING_PRE_DEFINED_CURVE_FONT('continuous');
#202=TRIMMED_CURVE('CUTTING PART LINE',#203,(PARAMETER_VALUE(0.)),(
PARAMETER_VALUE(1.)),.T.,.PARAMETER.);
#203=(
BOUNDED_CURVE()
B_SPLINE_CURVE(3,(#327,#328,#329,#330,#331,#332,#333,#334,#335,#336,#337,
#338,#339,#340,#341,#342,#343,#344,#345,#346,#347,#348,#349,#350,#351,#352,
#353,#354),.UNSPECIFIED.,.T.,.F.)
B_SPLINE_CURVE_WITH_KNOTS((4,3,3,3,3,3,3,3,3,4),(0.,0.463064650826293,0.506073437968402,
0.742750968770455,0.742794126398447,0.744272056522681,0.74465255220269,
0.76652329884223,0.947214437472274,1.),.UNSPECIFIED.)
CURVE()
GEOMETRIC_REPRESENTATION_ITEM()
RATIONAL_B_SPLINE_CURVE((1.,1.,1.,1.,1.,1.,1.,1.,1.,1.,1.,1.,1.,1.,1.,1.,
0.942363638428383,0.942363638428383,1.,1.,1.,1.,1.,1.,1.,1.,1.,1.))
REPRESENTATION_ITEM('CUTTING PART LINE')
);
#204=PRESENTATION_LAYER_ASSIGNMENT('1','Layer 1',(#325,#326,#202,#229,#230,
#231,#41,#42));
#205=STYLED_ITEM('',(#213),#325);
#206=STYLED_ITEM('',(#214),#326);
#207=STYLED_ITEM('',(#215),#202);
#208=STYLED_ITEM('',(#216),#229);
#209=STYLED_ITEM('',(#217),#230);
#210=STYLED_ITEM('',(#218),#231);
#211=STYLED_ITEM('',(#219),#41);
#212=STYLED_ITEM('',(#220),#42);
#213=PRESENTATION_STYLE_ASSIGNMENT((#221));
#214=PRESENTATION_STYLE_ASSIGNMENT((#222));
#215=PRESENTATION_STYLE_ASSIGNMENT((#194));
#216=PRESENTATION_STYLE_ASSIGNMENT((#195));
#217=PRESENTATION_STYLE_ASSIGNMENT((#196));
#218=PRESENTATION_STYLE_ASSIGNMENT((#197));
#219=PRESENTATION_STYLE_ASSIGNMENT((#29));
#220=PRESENTATION_STYLE_ASSIGNMENT((#30));
#221=POINT_STYLE('',#223,POSITIVE_LENGTH_MEASURE(3.),#225);
#222=POINT_STYLE('',#224,POSITIVE_LENGTH_MEASURE(3.),#226);
#223=PRE_DEFINED_POINT_MARKER_SYMBOL('plus');
#224=PRE_DEFINED_POINT_MARKER_SYMBOL('plus');
#225=DRAUGHTING_PRE_DEFINED_COLOUR('blue');
#226=DRAUGHTING_PRE_DEFINED_COLOUR('white');
#227=DRAUGHTING_PRE_DEFINED_COLOUR('green');
#228=AXIS2_PLACEMENT_3D('',#324,#260,#261);
#229=AXIS2_PLACEMENT_3D('PCS',#355,#262,#263);
#230=AXIS2_PLACEMENT_3D('MCS',#356,#264,#265);
#231=AXIS2_PLACEMENT_3D('CIP',#357,#266,#267);
#232=AXIS2_PLACEMENT_3D('',#358,#268,#269);
#233=AXIS2_PLACEMENT_3D('',#360,#270,#271);
#234=AXIS2_PLACEMENT_3D('',#361,#272,#273);
#235=AXIS2_PLACEMENT_3D('',#363,#274,#275);
#236=AXIS2_PLACEMENT_3D('',#364,#276,#277);
#237=AXIS2_PLACEMENT_3D('',#366,#278,#279);
#238=AXIS2_PLACEMENT_3D('',#368,#280,#281);
#239=AXIS2_PLACEMENT_3D('',#369,#282,#283);
#240=AXIS2_PLACEMENT_3D('',#370,#284,#285);
#241=AXIS2_PLACEMENT_3D('',#372,#286,#287);
#242=AXIS2_PLACEMENT_3D('',#373,#288,#289);
#243=AXIS2_PLACEMENT_3D('',#375,#290,#291);
#244=AXIS2_PLACEMENT_3D('',#376,#292,#293);
#245=AXIS2_PLACEMENT_3D('',#377,#294,#295);
#246=AXIS2_PLACEMENT_3D('',#379,#296,#297);
#247=AXIS2_PLACEMENT_3D('',#381,#298,#299);
#248=AXIS2_PLACEMENT_3D('',#382,#300,#301);
#249=AXIS2_PLACEMENT_3D('',#384,#302,#303);
#250=AXIS2_PLACEMENT_3D('',#386,#304,#305);
#251=AXIS2_PLACEMENT_3D('',#387,#306,#307);
#252=AXIS2_PLACEMENT_3D('',#389,#308,#309);
#253=AXIS2_PLACEMENT_3D('',#390,#310,#311);
#254=AXIS2_PLACEMENT_3D('',#392,#312,#313);
#255=AXIS2_PLACEMENT_3D('',#394,#314,#315);
#256=AXIS2_PLACEMENT_3D('',#395,#316,#317);
#257=AXIS2_PLACEMENT_3D('',#397,#318,#319);
#258=AXIS2_PLACEMENT_3D('',#398,#320,#321);
#259=AXIS2_PLACEMENT_3D('',#399,#322,#323);
#260=DIRECTION('',(0.,0.,1.));
#261=DIRECTION('',(1.,0.,0.));
#262=DIRECTION('',(0.,0.,1.));
#263=DIRECTION('',(1.,0.,0.));
#264=DIRECTION('',(0.,0.,1.));
#265=DIRECTION('',(1.,0.,0.));
#266=DIRECTION('',(0.,0.,1.));
#267=DIRECTION('',(1.,0.,0.));
#268=DIRECTION('',(0.,0.,-1.));
#269=DIRECTION('',(1.,0.,0.));
#270=DIRECTION('',(0.,0.,-1.));
#271=DIRECTION('',(1.,0.,0.));
#272=DIRECTION('',(0.,0.,-1.));
#273=DIRECTION('',(1.,0.,0.));
#274=DIRECTION('',(0.,0.,-1.));
#275=DIRECTION('',(1.,0.,2.10232233879009E-15));
#276=DIRECTION('',(0.,0.,-1.));
#277=DIRECTION('',(1.,0.,0.));
#278=DIRECTION('',(0.,0.,-1.));
#279=DIRECTION('',(1.,0.,0.));
#280=DIRECTION('',(0.,0.,-1.));
#281=DIRECTION('',(1.,0.,0.));
#282=DIRECTION('',(0.,0.,-1.));
#283=DIRECTION('',(1.,0.,0.));
#284=DIRECTION('',(0.,0.,-1.));
#285=DIRECTION('',(1.,0.,0.));
#286=DIRECTION('',(0.,0.,1.));
#287=DIRECTION('',(-1.,0.,0.));
#288=DIRECTION('',(0.,0.,-1.));
#289=DIRECTION('',(1.,0.,0.));
#290=DIRECTION('',(0.,0.,-1.));
#291=DIRECTION('',(1.,0.,-3.27631670413115E-17));
#292=DIRECTION('',(0.,0.,-1.));
#293=DIRECTION('',(1.,0.,0.));
#294=DIRECTION('',(0.,0.,-1.));
#295=DIRECTION('',(1.,0.,0.));
#296=DIRECTION('',(0.,0.,1.));
#297=DIRECTION('',(-1.,0.,0.));
#298=DIRECTION('',(0.,0.,-1.));
#299=DIRECTION('',(1.,0.,2.10232233879009E-15));
#300=DIRECTION('',(0.,0.,-1.));
#301=DIRECTION('',(-1.,0.,0.));
#302=DIRECTION('',(0.,0.,1.));
#303=DIRECTION('',(-1.,0.,0.));
#304=DIRECTION('',(0.,0.,-1.));
#305=DIRECTION('',(1.,0.,1.47016228215394E-15));
#306=DIRECTION('',(0.,0.,1.));
#307=DIRECTION('',(1.,0.,0.));
#308=DIRECTION('',(0.,0.,1.));
#309=DIRECTION('',(-1.,0.,-1.38190568163492E-17));
#310=DIRECTION('',(0.,0.,-1.));
#311=DIRECTION('',(1.,0.,0.));
#312=DIRECTION('',(0.,0.,-1.));
#313=DIRECTION('',(-1.,0.,0.));
#314=DIRECTION('',(0.,0.,1.));
#315=DIRECTION('',(-1.,0.,0.));
#316=DIRECTION('',(0.,0.,-1.));
#317=DIRECTION('',(-1.,0.,0.));
#318=DIRECTION('',(0.,0.,-1.));
#319=DIRECTION('',(1.,0.,2.28346981617674E-14));
#320=DIRECTION('',(0.,0.,1.));
#321=DIRECTION('',(-1.,0.,0.));
#322=DIRECTION('',(0.,0.,-1.));
#323=DIRECTION('',(1.,0.,0.));
#324=CARTESIAN_POINT('',(0.,0.,0.));
#325=CARTESIAN_POINT('CRP',(4.25,0.,-123.2466));
#326=CARTESIAN_POINT('',(0.,0.,-125.));
#327=CARTESIAN_POINT('',(0.,0.,-75.5));
#328=CARTESIAN_POINT('',(0.,0.,-92.));
#329=CARTESIAN_POINT('',(0.,0.,-108.5));
#330=CARTESIAN_POINT('',(0.,0.,-125.));
#331=CARTESIAN_POINT('',(1.41666666666675,0.,-124.415533333333));
#332=CARTESIAN_POINT('',(2.8333333333335,0.,-123.831066666667));
#333=CARTESIAN_POINT('',(4.25000000000026,0.,-123.2466));
#334=CARTESIAN_POINT('',(4.24494,0.,-114.813266666666));
#335=CARTESIAN_POINT('',(4.23988,0.,-106.379933333333));
#336=CARTESIAN_POINT('',(4.23482,0.,-97.9465999999993));
#337=CARTESIAN_POINT('',(4.23635780009031,0.,-97.9466));
#338=CARTESIAN_POINT('',(4.23789560018063,0.,-97.9466));
#339=CARTESIAN_POINT('',(4.23943340027095,0.,-97.9466));
#340=CARTESIAN_POINT('',(4.2366772913305,0.,-97.8940103085811));
#341=CARTESIAN_POINT('',(4.23392118239006,0.,-97.8414206171623));
#342=CARTESIAN_POINT('',(4.23116507344962,0.,-97.7888309257435));
#343=CARTESIAN_POINT('',(4.23041211035815,0.,-97.7744635340743));
#344=CARTESIAN_POINT('',(4.23556798900343,0.,-97.7610320109966));
#345=CARTESIAN_POINT('',(4.24574121112802,0.,-97.750858788872));
#346=CARTESIAN_POINT('',(4.83049414075134,0.,-97.1661058592475));
#347=CARTESIAN_POINT('',(5.41524707037566,0.,-96.581352929624));
#348=CARTESIAN_POINT('',(5.99999999999948,0.,-95.9966));
#349=CARTESIAN_POINT('',(5.9959009914,0.,-89.1644000000008));
#350=CARTESIAN_POINT('',(5.9918016714,0.,-82.3322000000003));
#351=CARTESIAN_POINT('',(5.9877023514,0.,-75.4999999999999));
#352=CARTESIAN_POINT('',(3.9918015676,0.,-75.5));
#353=CARTESIAN_POINT('',(1.9959007838,0.,-75.5));
#354=CARTESIAN_POINT('',(0.,0.,-75.5));
#355=CARTESIAN_POINT('',(0.,0.,0.));
#356=CARTESIAN_POINT('',(0.,0.,-45.));
#357=CARTESIAN_POINT('',(0.,0.,-125.));
#358=CARTESIAN_POINT('',(0.,0.,-75.5));
#359=CARTESIAN_POINT('',(5.9877023514,0.,-75.5));
#360=CARTESIAN_POINT('',(0.,0.,-75.5));
#361=CARTESIAN_POINT('',(0.,0.,-45.1533321125165));
#362=CARTESIAN_POINT('',(5.9694943506675,0.,-45.1533321125165));
#363=CARTESIAN_POINT('',(0.,0.,-97.9466));
#364=CARTESIAN_POINT('',(0.,0.,-45.));
#365=CARTESIAN_POINT('',(6.,0.,-45.));
#366=CARTESIAN_POINT('',(0.,0.,-45.076606056269));
#367=CARTESIAN_POINT('',(5.98474715733376,0.,-45.076606056269));
#368=CARTESIAN_POINT('',(0.,0.,-45.));
#369=CARTESIAN_POINT('',(0.,0.,-45.1532121125381));
#370=CARTESIAN_POINT('',(0.,0.,0.));
#371=CARTESIAN_POINT('',(4.3,0.,0.));
#372=CARTESIAN_POINT('',(4.3,0.,2.22044604925031E-16));
#373=CARTESIAN_POINT('',(0.,0.,-1.7));
#374=CARTESIAN_POINT('',(6.,0.,-1.7));
#375=CARTESIAN_POINT('',(0.,0.,-1.7));
#376=CARTESIAN_POINT('',(0.,0.,15.2045468976791));
#377=CARTESIAN_POINT('',(0.,0.,-75.5));
#378=CARTESIAN_POINT('',(5.9877023514,0.,-75.5));
#379=CARTESIAN_POINT('',(0.,0.,-95.9966));
#380=CARTESIAN_POINT('',(-6.,0.,-95.9966));
#381=CARTESIAN_POINT('',(0.,0.,-97.9466));
#382=CARTESIAN_POINT('',(0.,0.,-97.7888309257435));
#383=CARTESIAN_POINT('',(-4.23116507344962,0.,-97.7888309257435));
#384=CARTESIAN_POINT('',(0.,0.,-97.9466));
#385=CARTESIAN_POINT('',(-4.23943340027095,0.,-97.9466));
#386=CARTESIAN_POINT('',(0.,0.,-97.7666));
#387=CARTESIAN_POINT('',(0.,0.,-97.750858788872));
#388=CARTESIAN_POINT('',(4.24574121112802,0.,-97.750858788872));
#389=CARTESIAN_POINT('',(0.,0.,-97.7466));
#390=CARTESIAN_POINT('',(0.,0.,-97.7862141279313));
#391=CARTESIAN_POINT('',(1.59872115546023E-14,0.,-125.));
#392=CARTESIAN_POINT('',(0.,0.,-123.2466));
#393=CARTESIAN_POINT('',(-4.25,0.,-123.2466));
#394=CARTESIAN_POINT('',(0.,0.,-125.));
#395=CARTESIAN_POINT('',(0.,0.,-97.9466));
#396=CARTESIAN_POINT('',(-4.23482,0.,-97.9466));
#397=CARTESIAN_POINT('',(0.,0.,-143.2466));
#398=CARTESIAN_POINT('',(4.23482,0.,-97.9466));
#399=CARTESIAN_POINT('',(0.,0.,-75.5));
#400=MECHANICAL_DESIGN_GEOMETRIC_PRESENTATION_REPRESENTATION('',(#205,#206,
#207,#208,#209,#210,#211,#212),#401);
#401=(
GEOMETRIC_REPRESENTATION_CONTEXT(3)
GLOBAL_UNCERTAINTY_ASSIGNED_CONTEXT((#402))
GLOBAL_UNIT_ASSIGNED_CONTEXT((#408,#404,#403))
REPRESENTATION_CONTEXT('6416_1_3d','TOP_LEVEL_ASSEMBLY_PART')
);
#402=UNCERTAINTY_MEASURE_WITH_UNIT(LENGTH_MEASURE(2.E-5),#408,
'DISTANCE_ACCURACY_VALUE','Maximum Tolerance applied to model');
#403=(
NAMED_UNIT(*)
SI_UNIT($,.STERADIAN.)
SOLID_ANGLE_UNIT()
);
#404=(
CONVERSION_BASED_UNIT('DEGREE',#406)
NAMED_UNIT(#405)
PLANE_ANGLE_UNIT()
);
#405=DIMENSIONAL_EXPONENTS(0.,0.,0.,0.,0.,0.,0.);
#406=PLANE_ANGLE_MEASURE_WITH_UNIT(PLANE_ANGLE_MEASURE(0.0174532925),#407);
#407=(
NAMED_UNIT(*)
PLANE_ANGLE_UNIT()
SI_UNIT($,.RADIAN.)
);
#408=(
LENGTH_UNIT()
NAMED_UNIT(*)
SI_UNIT(.MILLI.,.METRE.)
);
ENDSEC;
END-ISO-10303-21;
