ISO-10303-21;
HEADER;
/* Generated by software containing ST-Developer
 * from STEP Tools, Inc. (www.steptools.com) 
 */
/* OPTION: using custom schema-name function */

FILE_DESCRIPTION(
/* description */ (''),
/* implementation_level */ '2;1');

FILE_NAME(
/* name */ '6414_1_3d.stp',
/* time_stamp */ '2019-07-11T23:19:08+02:00',
/* author */ (''),
/* organization */ ('SMS'),
/* preprocessor_version */ 'ST-DEVELOPER v16.7',
/* originating_system */ 'SIEMENS PLM Software NX 12.0',
/* authorisation */ '');

FILE_SCHEMA (('AUTOMOTIVE_DESIGN { 1 0 10303 214 3 1 1 1 }'));
ENDSEC;

DATA;
#10=CONSTRUCTIVE_GEOMETRY_REPRESENTATION_RELATIONSHIP(
'supplemental geometry','',#26,#11);
#11=CONSTRUCTIVE_GEOMETRY_REPRESENTATION('supplemental geometry',(#218,
#219,#220),#378);
#12=GEOMETRICALLY_BOUNDED_WIREFRAME_SHAPE_REPRESENTATION(
'6414_1_3D-None',(#27),#378);
#13=SHAPE_REPRESENTATION_RELATIONSHIP('None',
'relationship between 6414_1_3D-None and 6414_1_3D-None',#26,#15);
#14=SHAPE_REPRESENTATION_RELATIONSHIP('None',
'relationship between 6414_1_3D-None and 6414_1_3D-None',#26,#12);
#15=ADVANCED_BREP_SHAPE_REPRESENTATION('6414_1_3D-None',(#41,#42),#378);
#16=SHAPE_DEFINITION_REPRESENTATION(#17,#26);
#17=PRODUCT_DEFINITION_SHAPE('','',#18);
#18=PRODUCT_DEFINITION(' ','',#20,#19);
#19=PRODUCT_DEFINITION_CONTEXT('part definition',#25,'design');
#20=PRODUCT_DEFINITION_FORMATION_WITH_SPECIFIED_SOURCE(' ',' ',#22,
 .NOT_KNOWN.);
#21=PRODUCT_RELATED_PRODUCT_CATEGORY('part','',(#22));
#22=PRODUCT('6414_1_3D','6414_1_3D',' ',(#23));
#23=PRODUCT_CONTEXT(' ',#25,'mechanical');
#24=APPLICATION_PROTOCOL_DEFINITION('international standard',
'automotive_design',2010,#25);
#25=APPLICATION_CONTEXT(
'core data for automotive mechanical design processes');
#26=SHAPE_REPRESENTATION('6414_1_3D-None',(#217),#378);
#27=GEOMETRIC_CURVE_SET('None',(#308,#309,#191));
#28=VERTEX_LOOP('',#157);
#29=SURFACE_STYLE_USAGE(.BOTH.,#31);
#30=SURFACE_STYLE_USAGE(.BOTH.,#32);
#31=SURFACE_SIDE_STYLE('',(#33));
#32=SURFACE_SIDE_STYLE('',(#34));
#33=SURFACE_STYLE_FILL_AREA(#35);
#34=SURFACE_STYLE_FILL_AREA(#36);
#35=FILL_AREA_STYLE('',(#37));
#36=FILL_AREA_STYLE('',(#38));
#37=FILL_AREA_STYLE_COLOUR('',#39);
#38=FILL_AREA_STYLE_COLOUR('',#40);
#39=COLOUR_RGB('TLS_NOCUT',0.499992370489052,0.499992370489052,0.499992370489052);
#40=COLOUR_RGB('TLS_CUT',0.8,0.8,0.8);
#41=MANIFOLD_SOLID_BREP('NOCUT',#43);
#42=MANIFOLD_SOLID_BREP('CUT',#44);
#43=CLOSED_SHELL('',(#55,#56,#57,#58,#59,#60,#61));
#44=CLOSED_SHELL('',(#62,#63,#64,#65,#66,#67,#68));
#45=CYLINDRICAL_SURFACE('',#232,4.);
#46=PLANE('',#229);
#47=PLANE('',#233);
#48=PLANE('',#235);
#49=FACE_OUTER_BOUND('',#104,.T.);
#50=FACE_OUTER_BOUND('',#109,.T.);
#51=FACE_OUTER_BOUND('',#110,.T.);
#52=TOROIDAL_SURFACE('',#226,3.8,0.2);
#53=TOROIDAL_SURFACE('',#227,4.17819729701225,0.2);
#54=TOROIDAL_SURFACE('',#243,2.53109655018735,0.05);
#55=ADVANCED_FACE('',(#76,#77),#69,.T.);
#56=ADVANCED_FACE('',(#78,#79),#52,.T.);
#57=ADVANCED_FACE('',(#80,#81),#53,.F.);
#58=ADVANCED_FACE('',(#49),#46,.T.);
#59=ADVANCED_FACE('',(#82,#83),#70,.T.);
#60=ADVANCED_FACE('SHANK',(#84,#85),#45,.T.);
#61=ADVANCED_FACE('',(#50),#47,.T.);
#62=ADVANCED_FACE('',(#51),#48,.F.);
#63=ADVANCED_FACE('',(#86,#87),#71,.T.);
#64=ADVANCED_FACE('',(#88,#89),#72,.T.);
#65=ADVANCED_FACE('',(#90,#91),#73,.T.);
#66=ADVANCED_FACE('',(#92,#93),#54,.F.);
#67=ADVANCED_FACE('',(#94,#95),#74,.T.);
#68=ADVANCED_FACE('',(#96,#97),#75,.T.);
#69=CONICAL_SURFACE('',#223,4.001020267,0.0343774635825606);
#70=CONICAL_SURFACE('',#231,4.,45.);
#71=CONICAL_SURFACE('',#237,4.001020267,0.0343774635825606);
#72=CONICAL_SURFACE('',#240,2.48,2.99999999999998);
#73=CONICAL_SURFACE('',#242,2.5,44.9999999999907);
#74=CONICAL_SURFACE('',#245,1.28785870856518E-14,67.5809147300348);
#75=CONICAL_SURFACE('',#246,2.512,0.0343774635825614);
#76=FACE_BOUND('',#98,.T.);
#77=FACE_BOUND('',#99,.T.);
#78=FACE_BOUND('',#100,.T.);
#79=FACE_BOUND('',#101,.T.);
#80=FACE_BOUND('',#102,.T.);
#81=FACE_BOUND('',#103,.T.);
#82=FACE_BOUND('',#105,.T.);
#83=FACE_BOUND('',#106,.T.);
#84=FACE_BOUND('',#107,.T.);
#85=FACE_BOUND('',#108,.T.);
#86=FACE_BOUND('',#111,.T.);
#87=FACE_BOUND('',#112,.T.);
#88=FACE_BOUND('',#113,.T.);
#89=FACE_BOUND('',#114,.T.);
#90=FACE_BOUND('',#115,.T.);
#91=FACE_BOUND('',#116,.T.);
#92=FACE_BOUND('',#117,.T.);
#93=FACE_BOUND('',#118,.T.);
#94=FACE_BOUND('',#28,.T.);
#95=FACE_BOUND('',#119,.T.);
#96=FACE_BOUND('',#120,.T.);
#97=FACE_BOUND('',#121,.T.);
#98=EDGE_LOOP('',(#122));
#99=EDGE_LOOP('',(#123));
#100=EDGE_LOOP('',(#124));
#101=EDGE_LOOP('',(#125));
#102=EDGE_LOOP('',(#126));
#103=EDGE_LOOP('',(#127));
#104=EDGE_LOOP('',(#128));
#105=EDGE_LOOP('',(#129));
#106=EDGE_LOOP('',(#130));
#107=EDGE_LOOP('',(#131));
#108=EDGE_LOOP('',(#132));
#109=EDGE_LOOP('',(#133));
#110=EDGE_LOOP('',(#134));
#111=EDGE_LOOP('',(#135));
#112=EDGE_LOOP('',(#136));
#113=EDGE_LOOP('',(#137));
#114=EDGE_LOOP('',(#138));
#115=EDGE_LOOP('',(#139));
#116=EDGE_LOOP('',(#140));
#117=EDGE_LOOP('',(#141));
#118=EDGE_LOOP('',(#142));
#119=EDGE_LOOP('',(#143));
#120=EDGE_LOOP('',(#144));
#121=EDGE_LOOP('',(#145));
#122=ORIENTED_EDGE('',*,*,#159,.T.);
#123=ORIENTED_EDGE('',*,*,#160,.F.);
#124=ORIENTED_EDGE('',*,*,#161,.T.);
#125=ORIENTED_EDGE('',*,*,#162,.F.);
#126=ORIENTED_EDGE('',*,*,#162,.T.);
#127=ORIENTED_EDGE('',*,*,#159,.F.);
#128=ORIENTED_EDGE('',*,*,#163,.F.);
#129=ORIENTED_EDGE('',*,*,#163,.T.);
#130=ORIENTED_EDGE('',*,*,#164,.F.);
#131=ORIENTED_EDGE('',*,*,#164,.T.);
#132=ORIENTED_EDGE('',*,*,#161,.F.);
#133=ORIENTED_EDGE('',*,*,#160,.T.);
#134=ORIENTED_EDGE('',*,*,#165,.F.);
#135=ORIENTED_EDGE('',*,*,#165,.T.);
#136=ORIENTED_EDGE('',*,*,#166,.T.);
#137=ORIENTED_EDGE('',*,*,#167,.T.);
#138=ORIENTED_EDGE('',*,*,#168,.T.);
#139=ORIENTED_EDGE('',*,*,#169,.T.);
#140=ORIENTED_EDGE('',*,*,#166,.F.);
#141=ORIENTED_EDGE('',*,*,#169,.F.);
#142=ORIENTED_EDGE('',*,*,#167,.F.);
#143=ORIENTED_EDGE('',*,*,#170,.T.);
#144=ORIENTED_EDGE('',*,*,#170,.F.);
#145=ORIENTED_EDGE('',*,*,#168,.F.);
#146=VERTEX_POINT('',#339);
#147=VERTEX_POINT('',#341);
#148=VERTEX_POINT('',#344);
#149=VERTEX_POINT('',#346);
#150=VERTEX_POINT('',#350);
#151=VERTEX_POINT('',#353);
#152=VERTEX_POINT('',#358);
#153=VERTEX_POINT('',#361);
#154=VERTEX_POINT('',#364);
#155=VERTEX_POINT('',#366);
#156=VERTEX_POINT('',#369);
#157=VERTEX_POINT('',#372);
#158=VERTEX_POINT('',#374);
#159=EDGE_CURVE('',#146,#146,#171,.T.);
#160=EDGE_CURVE('',#147,#147,#172,.T.);
#161=EDGE_CURVE('',#148,#148,#173,.T.);
#162=EDGE_CURVE('',#149,#149,#174,.T.);
#163=EDGE_CURVE('',#150,#150,#175,.T.);
#164=EDGE_CURVE('',#151,#151,#176,.T.);
#165=EDGE_CURVE('',#152,#152,#177,.T.);
#166=EDGE_CURVE('',#153,#153,#178,.T.);
#167=EDGE_CURVE('',#154,#154,#179,.T.);
#168=EDGE_CURVE('',#155,#155,#180,.T.);
#169=EDGE_CURVE('',#156,#156,#181,.T.);
#170=EDGE_CURVE('',#158,#158,#182,.T.);
#171=CIRCLE('',#221,3.97819733301224);
#172=CIRCLE('',#222,3.991919107);
#173=CIRCLE('',#224,4.);
#174=CIRCLE('',#225,3.98909864850613);
#175=CIRCLE('',#228,2.8);
#176=CIRCLE('',#230,4.);
#177=CIRCLE('',#234,3.991919107);
#178=CIRCLE('',#236,4.);
#179=CIRCLE('',#238,2.48116507344962);
#180=CIRCLE('',#239,2.49113953297075);
#181=CIRCLE('',#241,2.49574121112801);
#182=CIRCLE('',#244,2.5);
#183=CURVE_STYLE('',#187,POSITIVE_LENGTH_MEASURE(0.18),#214);
#184=CURVE_STYLE('',#188,POSITIVE_LENGTH_MEASURE(0.13),#216);
#185=CURVE_STYLE('',#189,POSITIVE_LENGTH_MEASURE(0.13),#216);
#186=CURVE_STYLE('',#190,POSITIVE_LENGTH_MEASURE(0.13),#216);
#187=DRAUGHTING_PRE_DEFINED_CURVE_FONT('continuous');
#188=DRAUGHTING_PRE_DEFINED_CURVE_FONT('continuous');
#189=DRAUGHTING_PRE_DEFINED_CURVE_FONT('continuous');
#190=DRAUGHTING_PRE_DEFINED_CURVE_FONT('continuous');
#191=TRIMMED_CURVE('CUTTING PART LINE',#192,(PARAMETER_VALUE(0.)),(
PARAMETER_VALUE(1.)),.T.,.PARAMETER.);
#192=(
BOUNDED_CURVE()
B_SPLINE_CURVE(3,(#310,#311,#312,#313,#314,#315,#316,#317,#318,#319,#320,
#321,#322,#323,#324,#325,#326,#327,#328,#329,#330,#331,#332,#333,#334),
 .UNSPECIFIED.,.T.,.F.)
B_SPLINE_CURVE_WITH_KNOTS((4,3,3,3,3,3,3,3,4),(0.,0.460809120222955,0.520148240600305,
0.72035646104534,0.751979013930421,0.75258362023577,0.755253348755549,0.962116594240582,
1.),.UNSPECIFIED.)
CURVE()
GEOMETRIC_REPRESENTATION_ITEM()
RATIONAL_B_SPLINE_CURVE((1.,1.,1.,1.,1.,1.,1.,1.,1.,1.,1.,1.,1.,0.942363638428383,
0.942363638428383,1.,1.,1.,1.,1.,1.,1.,1.,1.,1.))
REPRESENTATION_ITEM('CUTTING PART LINE')
);
#193=PRESENTATION_LAYER_ASSIGNMENT('1','Layer 1',(#308,#309,#191,#218,#219,
#220,#41,#42));
#194=STYLED_ITEM('',(#202),#308);
#195=STYLED_ITEM('',(#203),#309);
#196=STYLED_ITEM('',(#204),#191);
#197=STYLED_ITEM('',(#205),#218);
#198=STYLED_ITEM('',(#206),#219);
#199=STYLED_ITEM('',(#207),#220);
#200=STYLED_ITEM('',(#208),#41);
#201=STYLED_ITEM('',(#209),#42);
#202=PRESENTATION_STYLE_ASSIGNMENT((#210));
#203=PRESENTATION_STYLE_ASSIGNMENT((#211));
#204=PRESENTATION_STYLE_ASSIGNMENT((#183));
#205=PRESENTATION_STYLE_ASSIGNMENT((#184));
#206=PRESENTATION_STYLE_ASSIGNMENT((#185));
#207=PRESENTATION_STYLE_ASSIGNMENT((#186));
#208=PRESENTATION_STYLE_ASSIGNMENT((#29));
#209=PRESENTATION_STYLE_ASSIGNMENT((#30));
#210=POINT_STYLE('',#212,POSITIVE_LENGTH_MEASURE(3.),#214);
#211=POINT_STYLE('',#213,POSITIVE_LENGTH_MEASURE(3.),#215);
#212=PRE_DEFINED_POINT_MARKER_SYMBOL('plus');
#213=PRE_DEFINED_POINT_MARKER_SYMBOL('plus');
#214=DRAUGHTING_PRE_DEFINED_COLOUR('blue');
#215=DRAUGHTING_PRE_DEFINED_COLOUR('white');
#216=DRAUGHTING_PRE_DEFINED_COLOUR('green');
#217=AXIS2_PLACEMENT_3D('',#307,#247,#248);
#218=AXIS2_PLACEMENT_3D('PCS',#335,#249,#250);
#219=AXIS2_PLACEMENT_3D('MCS',#336,#251,#252);
#220=AXIS2_PLACEMENT_3D('CIP',#337,#253,#254);
#221=AXIS2_PLACEMENT_3D('',#338,#255,#256);
#222=AXIS2_PLACEMENT_3D('',#340,#257,#258);
#223=AXIS2_PLACEMENT_3D('',#342,#259,#260);
#224=AXIS2_PLACEMENT_3D('',#343,#261,#262);
#225=AXIS2_PLACEMENT_3D('',#345,#263,#264);
#226=AXIS2_PLACEMENT_3D('',#347,#265,#266);
#227=AXIS2_PLACEMENT_3D('',#348,#267,#268);
#228=AXIS2_PLACEMENT_3D('',#349,#269,#270);
#229=AXIS2_PLACEMENT_3D('',#351,#271,#272);
#230=AXIS2_PLACEMENT_3D('',#352,#273,#274);
#231=AXIS2_PLACEMENT_3D('',#354,#275,#276);
#232=AXIS2_PLACEMENT_3D('',#355,#277,#278);
#233=AXIS2_PLACEMENT_3D('',#356,#279,#280);
#234=AXIS2_PLACEMENT_3D('',#357,#281,#282);
#235=AXIS2_PLACEMENT_3D('',#359,#283,#284);
#236=AXIS2_PLACEMENT_3D('',#360,#285,#286);
#237=AXIS2_PLACEMENT_3D('',#362,#287,#288);
#238=AXIS2_PLACEMENT_3D('',#363,#289,#290);
#239=AXIS2_PLACEMENT_3D('',#365,#291,#292);
#240=AXIS2_PLACEMENT_3D('',#367,#293,#294);
#241=AXIS2_PLACEMENT_3D('',#368,#295,#296);
#242=AXIS2_PLACEMENT_3D('',#370,#297,#298);
#243=AXIS2_PLACEMENT_3D('',#371,#299,#300);
#244=AXIS2_PLACEMENT_3D('',#373,#301,#302);
#245=AXIS2_PLACEMENT_3D('',#375,#303,#304);
#246=AXIS2_PLACEMENT_3D('',#376,#305,#306);
#247=DIRECTION('',(0.,0.,1.));
#248=DIRECTION('',(1.,0.,0.));
#249=DIRECTION('',(0.,0.,1.));
#250=DIRECTION('',(1.,0.,0.));
#251=DIRECTION('',(0.,0.,1.));
#252=DIRECTION('',(1.,0.,0.));
#253=DIRECTION('',(0.,0.,1.));
#254=DIRECTION('',(1.,0.,0.));
#255=DIRECTION('',(0.,0.,-1.));
#256=DIRECTION('',(1.,0.,0.));
#257=DIRECTION('',(0.,0.,-1.));
#258=DIRECTION('',(1.,0.,0.));
#259=DIRECTION('',(0.,0.,-1.));
#260=DIRECTION('',(1.,0.,1.80974483951093E-14));
#261=DIRECTION('',(0.,0.,-1.));
#262=DIRECTION('',(1.,0.,0.));
#263=DIRECTION('',(0.,0.,-1.));
#264=DIRECTION('',(1.,0.,0.));
#265=DIRECTION('',(0.,0.,-1.));
#266=DIRECTION('',(1.,0.,0.));
#267=DIRECTION('',(0.,0.,-1.));
#268=DIRECTION('',(1.,0.,0.));
#269=DIRECTION('',(0.,0.,-1.));
#270=DIRECTION('',(1.,0.,0.));
#271=DIRECTION('',(0.,0.,1.));
#272=DIRECTION('',(-1.,0.,0.));
#273=DIRECTION('',(0.,0.,-1.));
#274=DIRECTION('',(1.,0.,0.));
#275=DIRECTION('',(0.,0.,-1.));
#276=DIRECTION('',(1.,0.,-8.81184235804953E-17));
#277=DIRECTION('',(0.,0.,-1.));
#278=DIRECTION('',(1.,0.,0.));
#279=DIRECTION('',(0.,0.,-1.));
#280=DIRECTION('',(1.,0.,0.));
#281=DIRECTION('',(0.,0.,-1.));
#282=DIRECTION('',(1.,0.,0.));
#283=DIRECTION('',(0.,0.,-1.));
#284=DIRECTION('',(1.,0.,0.));
#285=DIRECTION('',(0.,0.,1.));
#286=DIRECTION('',(-1.,0.,0.));
#287=DIRECTION('',(0.,0.,-1.));
#288=DIRECTION('',(1.,0.,1.80974483951093E-14));
#289=DIRECTION('',(0.,0.,-1.));
#290=DIRECTION('',(-1.,0.,0.));
#291=DIRECTION('',(0.,0.,1.));
#292=DIRECTION('',(1.,0.,0.));
#293=DIRECTION('',(0.,0.,-1.));
#294=DIRECTION('',(1.,0.,-1.26419651050652E-15));
#295=DIRECTION('',(0.,0.,1.));
#296=DIRECTION('',(1.,0.,0.));
#297=DIRECTION('',(0.,0.,1.));
#298=DIRECTION('',(-1.,0.,5.53727194326941E-17));
#299=DIRECTION('',(0.,0.,-1.));
#300=DIRECTION('',(1.,0.,0.));
#301=DIRECTION('',(0.,0.,-1.));
#302=DIRECTION('',(-1.,0.,0.));
#303=DIRECTION('',(0.,0.,1.));
#304=DIRECTION('',(-1.,0.,1.14508402759836E-17));
#305=DIRECTION('',(0.,0.,-1.));
#306=DIRECTION('',(1.,0.,-2.67566602978417E-14));
#307=CARTESIAN_POINT('',(0.,0.,0.));
#308=CARTESIAN_POINT('CRP',(2.5,0.,-88.9686));
#309=CARTESIAN_POINT('',(0.,0.,-90.));
#310=CARTESIAN_POINT('',(0.,0.,-90.));
#311=CARTESIAN_POINT('',(0.,0.,-79.6666666666664));
#312=CARTESIAN_POINT('',(0.,0.,-69.3333333333328));
#313=CARTESIAN_POINT('',(0.,0.,-58.9999999999993));
#314=CARTESIAN_POINT('',(1.33063970233333,0.,-59.));
#315=CARTESIAN_POINT('',(2.66127940466667,0.,-59.));
#316=CARTESIAN_POINT('',(3.991919107,0.,-59.));
#317=CARTESIAN_POINT('',(3.994612827,0.,-63.4895333333324));
#318=CARTESIAN_POINT('',(3.997306547,0.,-67.9790666666656));
#319=CARTESIAN_POINT('',(4.000000267,0.,-72.4685999999988));
#320=CARTESIAN_POINT('',(3.49858040370901,0.,-72.9700195962906));
#321=CARTESIAN_POINT('',(2.99716080741851,0.,-73.4714391925813));
#322=CARTESIAN_POINT('',(2.49574121112802,0.,-73.972858788872));
#323=CARTESIAN_POINT('',(2.48556798900344,0.,-73.9830320109966));
#324=CARTESIAN_POINT('',(2.48041211035815,0.,-73.9964635340743));
#325=CARTESIAN_POINT('',(2.48116507344962,0.,-74.0108309257435));
#326=CARTESIAN_POINT('',(2.48448989329,0.,-74.0742722675797));
#327=CARTESIAN_POINT('',(2.48781471313037,0.,-74.137713609416));
#328=CARTESIAN_POINT('',(2.49113953297075,0.,-74.2011549512523));
#329=CARTESIAN_POINT('',(2.4940930219805,0.,-79.1236366341682));
#330=CARTESIAN_POINT('',(2.49704651099025,0.,-84.0461183170843));
#331=CARTESIAN_POINT('',(2.5,0.,-88.9686000000003));
#332=CARTESIAN_POINT('',(1.66666666666623,0.,-89.3124000000002));
#333=CARTESIAN_POINT('',(0.833333333333115,0.,-89.6562000000001));
#334=CARTESIAN_POINT('',(0.,0.,-90.));
#335=CARTESIAN_POINT('',(0.,0.,0.));
#336=CARTESIAN_POINT('',(0.,0.,-36.));
#337=CARTESIAN_POINT('',(0.,0.,-90.));
#338=CARTESIAN_POINT('',(0.,0.,-36.1303766870721));
#339=CARTESIAN_POINT('',(3.97819733301224,0.,-36.1303766870721));
#340=CARTESIAN_POINT('',(0.,0.,-59.));
#341=CARTESIAN_POINT('',(3.991919107,0.,-59.));
#342=CARTESIAN_POINT('',(0.,0.,-74.1686));
#343=CARTESIAN_POINT('',(0.,0.,-36.));
#344=CARTESIAN_POINT('',(4.,0.,-36.));
#345=CARTESIAN_POINT('',(0.,0.,-36.0651283435469));
#346=CARTESIAN_POINT('',(3.98909864850613,0.,-36.0651283435469));
#347=CARTESIAN_POINT('',(0.,0.,-36.));
#348=CARTESIAN_POINT('',(0.,0.,-36.1302566870937));
#349=CARTESIAN_POINT('',(0.,0.,0.));
#350=CARTESIAN_POINT('',(2.8,0.,0.));
#351=CARTESIAN_POINT('',(2.8,0.,1.11022302462516E-16));
#352=CARTESIAN_POINT('',(0.,0.,-1.2));
#353=CARTESIAN_POINT('',(4.,0.,-1.2));
#354=CARTESIAN_POINT('',(0.,0.,-1.2));
#355=CARTESIAN_POINT('',(0.,0.,15.2045468976791));
#356=CARTESIAN_POINT('',(0.,0.,-59.));
#357=CARTESIAN_POINT('',(0.,0.,-59.));
#358=CARTESIAN_POINT('',(3.991919107,0.,-59.));
#359=CARTESIAN_POINT('',(0.,0.,-59.));
#360=CARTESIAN_POINT('',(0.,0.,-72.4686));
#361=CARTESIAN_POINT('',(-4.,0.,-72.4686));
#362=CARTESIAN_POINT('',(0.,0.,-74.1686));
#363=CARTESIAN_POINT('',(0.,0.,-74.0108309257434));
#364=CARTESIAN_POINT('',(-2.48116507344962,0.,-74.0108309257434));
#365=CARTESIAN_POINT('',(0.,0.,-74.2011549512523));
#366=CARTESIAN_POINT('',(2.49113953297075,0.,-74.2011549512523));
#367=CARTESIAN_POINT('',(0.,0.,-73.9886));
#368=CARTESIAN_POINT('',(0.,0.,-73.972858788872));
#369=CARTESIAN_POINT('',(2.49574121112801,0.,-73.972858788872));
#370=CARTESIAN_POINT('',(0.,0.,-73.9686));
#371=CARTESIAN_POINT('',(0.,0.,-74.0082141279313));
#372=CARTESIAN_POINT('',(1.28785870856518E-14,0.,-90.));
#373=CARTESIAN_POINT('',(0.,0.,-88.9686000000003));
#374=CARTESIAN_POINT('',(-2.5,0.,-88.9686000000003));
#375=CARTESIAN_POINT('',(0.,0.,-90.));
#376=CARTESIAN_POINT('',(0.,0.,-108.9686));
#377=MECHANICAL_DESIGN_GEOMETRIC_PRESENTATION_REPRESENTATION('',(#194,#195,
#196,#197,#198,#199,#200,#201),#378);
#378=(
GEOMETRIC_REPRESENTATION_CONTEXT(3)
GLOBAL_UNCERTAINTY_ASSIGNED_CONTEXT((#379))
GLOBAL_UNIT_ASSIGNED_CONTEXT((#385,#381,#380))
REPRESENTATION_CONTEXT('6414_1_3d','TOP_LEVEL_ASSEMBLY_PART')
);
#379=UNCERTAINTY_MEASURE_WITH_UNIT(LENGTH_MEASURE(2.E-5),#385,
'DISTANCE_ACCURACY_VALUE','Maximum Tolerance applied to model');
#380=(
NAMED_UNIT(*)
SI_UNIT($,.STERADIAN.)
SOLID_ANGLE_UNIT()
);
#381=(
CONVERSION_BASED_UNIT('DEGREE',#383)
NAMED_UNIT(#382)
PLANE_ANGLE_UNIT()
);
#382=DIMENSIONAL_EXPONENTS(0.,0.,0.,0.,0.,0.,0.);
#383=PLANE_ANGLE_MEASURE_WITH_UNIT(PLANE_ANGLE_MEASURE(0.0174532925),#384);
#384=(
NAMED_UNIT(*)
PLANE_ANGLE_UNIT()
SI_UNIT($,.RADIAN.)
);
#385=(
LENGTH_UNIT()
NAMED_UNIT(*)
SI_UNIT(.MILLI.,.METRE.)
);
ENDSEC;
END-ISO-10303-21;
