ISO-10303-21;
HEADER;
/* Generated by software containing ST-Developer
 * from STEP Tools, Inc. (www.steptools.com) 
 */
/* OPTION: using custom schema-name function */

FILE_DESCRIPTION(
/* description */ (''),
/* implementation_level */ '2;1');

FILE_NAME(
/* name */ '1716892124700.stp',
/* time_stamp */ '2024-05-28T12:28:50+02:00',
/* author */ (''),
/* organization */ ('SMS'),
/* preprocessor_version */ 'ST-DEVELOPER v16.7',
/* originating_system */ 'SIEMENS PLM Software NX 12.0',
/* authorisation */ '');

FILE_SCHEMA (('AUTOMOTIVE_DESIGN { 1 0 10303 214 3 1 1 1 }'));
ENDSEC;

DATA;
#10=CONSTRUCTIVE_GEOMETRY_REPRESENTATION_RELATIONSHIP(
'supplemental geometry','',#26,#11);
#11=CONSTRUCTIVE_GEOMETRY_REPRESENTATION('supplemental geometry',(#215,
#216,#217),#338);
#12=GEOMETRICALLY_BOUNDED_WIREFRAME_SHAPE_REPRESENTATION(
'201707203mod000_00-None',(#27),#338);
#13=SHAPE_REPRESENTATION_RELATIONSHIP('None',
'relationship between 201707203mod000_00-None and 201707203mod000_00-N
one',#26,#15);
#14=SHAPE_REPRESENTATION_RELATIONSHIP('None',
'relationship between 201707203mod000_00-None and 201707203mod000_00-N
one',#26,#12);
#15=ADVANCED_BREP_SHAPE_REPRESENTATION('201707203mod000_00-None',(#40,#41),
#338);
#16=SHAPE_DEFINITION_REPRESENTATION(#17,#26);
#17=PRODUCT_DEFINITION_SHAPE('','',#18);
#18=PRODUCT_DEFINITION(' ','',#20,#19);
#19=PRODUCT_DEFINITION_CONTEXT('part definition',#25,'design');
#20=PRODUCT_DEFINITION_FORMATION_WITH_SPECIFIED_SOURCE(' ',' ',#22,
 .NOT_KNOWN.);
#21=PRODUCT_RELATED_PRODUCT_CATEGORY('part','',(#22));
#22=PRODUCT('201707203mod000_00','201707203mod000_00',' ',(#23));
#23=PRODUCT_CONTEXT(' ',#25,'mechanical');
#24=APPLICATION_PROTOCOL_DEFINITION('international standard',
'automotive_design',2010,#25);
#25=APPLICATION_CONTEXT(
'core data for automotive mechanical design processes');
#26=SHAPE_REPRESENTATION('201707203mod000_00-None',(#214),#338);
#27=GEOMETRIC_CURVE_SET('None',(#286,#287,#288,#289,#154,#155,#156,#157,
#158,#159));
#28=SPHERICAL_SURFACE('',#232,6.);
#29=SPHERICAL_SURFACE('',#234,6.);
#30=SURFACE_STYLE_USAGE(.BOTH.,#32);
#31=SURFACE_STYLE_USAGE(.BOTH.,#33);
#32=SURFACE_SIDE_STYLE('',(#34));
#33=SURFACE_SIDE_STYLE('',(#35));
#34=SURFACE_STYLE_FILL_AREA(#36);
#35=SURFACE_STYLE_FILL_AREA(#37);
#36=FILL_AREA_STYLE('',(#38));
#37=FILL_AREA_STYLE('',(#39));
#38=FILL_AREA_STYLE_COLOUR('',#212);
#39=FILL_AREA_STYLE_COLOUR('',#213);
#40=MANIFOLD_SOLID_BREP('NOCUT',#42);
#41=MANIFOLD_SOLID_BREP('CUT',#43);
#42=CLOSED_SHELL('',(#53,#54,#55,#56,#57,#58));
#43=CLOSED_SHELL('',(#59,#60,#61,#62));
#44=CONICAL_SURFACE('',#227,6.,1.66686708158557);
#45=CONICAL_SURFACE('',#228,5.4,44.9999999999998);
#46=PLANE('',#222);
#47=PLANE('',#226);
#48=PLANE('',#235);
#49=FACE_OUTER_BOUND('',#80,.T.);
#50=FACE_OUTER_BOUND('',#83,.T.);
#51=FACE_OUTER_BOUND('',#90,.T.);
#52=FACE_OUTER_BOUND('',#93,.T.);
#53=ADVANCED_FACE('',(#66,#67),#63,.T.);
#54=ADVANCED_FACE('',(#49),#46,.T.);
#55=ADVANCED_FACE('',(#68,#69),#64,.T.);
#56=ADVANCED_FACE('',(#50),#47,.F.);
#57=ADVANCED_FACE('',(#70,#71),#44,.T.);
#58=ADVANCED_FACE('',(#72,#73),#45,.T.);
#59=ADVANCED_FACE('',(#74,#75),#65,.T.);
#60=ADVANCED_FACE('',(#51),#28,.T.);
#61=ADVANCED_FACE('',(#76,#77),#29,.T.);
#62=ADVANCED_FACE('',(#52),#48,.T.);
#63=CYLINDRICAL_SURFACE('',#220,6.);
#64=CYLINDRICAL_SURFACE('',#225,4.9);
#65=CYLINDRICAL_SURFACE('',#231,6.);
#66=FACE_BOUND('',#78,.T.);
#67=FACE_BOUND('',#79,.T.);
#68=FACE_BOUND('',#81,.T.);
#69=FACE_BOUND('',#82,.T.);
#70=FACE_BOUND('',#84,.T.);
#71=FACE_BOUND('',#85,.T.);
#72=FACE_BOUND('',#86,.T.);
#73=FACE_BOUND('',#87,.T.);
#74=FACE_BOUND('',#88,.T.);
#75=FACE_BOUND('',#89,.T.);
#76=FACE_BOUND('',#91,.T.);
#77=FACE_BOUND('',#92,.T.);
#78=EDGE_LOOP('',(#94));
#79=EDGE_LOOP('',(#95));
#80=EDGE_LOOP('',(#96));
#81=EDGE_LOOP('',(#97));
#82=EDGE_LOOP('',(#98));
#83=EDGE_LOOP('',(#99));
#84=EDGE_LOOP('',(#100));
#85=EDGE_LOOP('',(#101));
#86=EDGE_LOOP('',(#102));
#87=EDGE_LOOP('',(#103));
#88=EDGE_LOOP('',(#104));
#89=EDGE_LOOP('',(#105));
#90=EDGE_LOOP('',(#106));
#91=EDGE_LOOP('',(#107));
#92=EDGE_LOOP('',(#108));
#93=EDGE_LOOP('',(#109));
#94=ORIENTED_EDGE('',*,*,#118,.T.);
#95=ORIENTED_EDGE('',*,*,#119,.F.);
#96=ORIENTED_EDGE('',*,*,#120,.T.);
#97=ORIENTED_EDGE('',*,*,#121,.F.);
#98=ORIENTED_EDGE('',*,*,#122,.T.);
#99=ORIENTED_EDGE('',*,*,#121,.T.);
#100=ORIENTED_EDGE('',*,*,#122,.F.);
#101=ORIENTED_EDGE('',*,*,#119,.T.);
#102=ORIENTED_EDGE('',*,*,#118,.F.);
#103=ORIENTED_EDGE('',*,*,#120,.F.);
#104=ORIENTED_EDGE('',*,*,#123,.T.);
#105=ORIENTED_EDGE('',*,*,#124,.T.);
#106=ORIENTED_EDGE('',*,*,#123,.F.);
#107=ORIENTED_EDGE('',*,*,#125,.T.);
#108=ORIENTED_EDGE('',*,*,#124,.F.);
#109=ORIENTED_EDGE('',*,*,#125,.F.);
#110=VERTEX_POINT('',#312);
#111=VERTEX_POINT('',#314);
#112=VERTEX_POINT('',#317);
#113=VERTEX_POINT('',#320);
#114=VERTEX_POINT('',#322);
#115=VERTEX_POINT('',#328);
#116=VERTEX_POINT('',#330);
#117=VERTEX_POINT('',#334);
#118=EDGE_CURVE('',#110,#110,#126,.T.);
#119=EDGE_CURVE('',#111,#111,#127,.T.);
#120=EDGE_CURVE('',#112,#112,#128,.T.);
#121=EDGE_CURVE('',#113,#113,#129,.T.);
#122=EDGE_CURVE('',#114,#114,#130,.T.);
#123=EDGE_CURVE('',#115,#115,#131,.T.);
#124=EDGE_CURVE('',#116,#116,#132,.T.);
#125=EDGE_CURVE('',#117,#117,#133,.T.);
#126=CIRCLE('',#218,6.);
#127=CIRCLE('',#219,6.);
#128=CIRCLE('',#221,5.4);
#129=CIRCLE('',#223,4.9);
#130=CIRCLE('',#224,4.9);
#131=CIRCLE('',#229,6.);
#132=CIRCLE('',#230,6.);
#133=CIRCLE('',#233,4.9);
#134=(
BOUNDED_CURVE()
B_SPLINE_CURVE(3,(#295,#296,#297,#298,#299,#300,#301,#302,#303,#304,#305,
#306,#307),.UNSPECIFIED.,.F.,.F.)
B_SPLINE_CURVE_WITH_KNOTS((4,3,3,3,4),(0.,0.437279137261098,0.60140033897138,
0.772655888391853,1.),.UNSPECIFIED.)
CURVE()
GEOMETRIC_REPRESENTATION_ITEM()
RATIONAL_B_SPLINE_CURVE((0.585786437626905,0.471404520791032,0.471404520791032,
0.585786437626905,0.585786437626905,0.585786437626905,0.585786437626905,
0.567457269957229,0.567457269957229,0.585786437626905,0.585786437626905,
0.585786437626905,0.585786437626905))
REPRESENTATION_ITEM('CUTTING PART LINE')
);
#135=INVISIBILITY((#177,#178,#179,#180,#181));
#136=CURVE_STYLE('',#145,POSITIVE_LENGTH_MEASURE(0.18),#171);
#137=CURVE_STYLE('',#146,POSITIVE_LENGTH_MEASURE(0.18),#171);
#138=CURVE_STYLE('',#147,POSITIVE_LENGTH_MEASURE(0.18),#171);
#139=CURVE_STYLE('',#148,POSITIVE_LENGTH_MEASURE(0.18),#171);
#140=CURVE_STYLE('',#149,POSITIVE_LENGTH_MEASURE(0.18),#171);
#141=CURVE_STYLE('',#150,POSITIVE_LENGTH_MEASURE(0.18),#170);
#142=CURVE_STYLE('',#151,POSITIVE_LENGTH_MEASURE(0.18),#211);
#143=CURVE_STYLE('',#152,POSITIVE_LENGTH_MEASURE(0.18),#211);
#144=CURVE_STYLE('',#153,POSITIVE_LENGTH_MEASURE(0.18),#211);
#145=DRAUGHTING_PRE_DEFINED_CURVE_FONT('continuous');
#146=DRAUGHTING_PRE_DEFINED_CURVE_FONT('continuous');
#147=DRAUGHTING_PRE_DEFINED_CURVE_FONT('continuous');
#148=DRAUGHTING_PRE_DEFINED_CURVE_FONT('continuous');
#149=DRAUGHTING_PRE_DEFINED_CURVE_FONT('continuous');
#150=DRAUGHTING_PRE_DEFINED_CURVE_FONT('continuous');
#151=DRAUGHTING_PRE_DEFINED_CURVE_FONT('continuous');
#152=DRAUGHTING_PRE_DEFINED_CURVE_FONT('continuous');
#153=DRAUGHTING_PRE_DEFINED_CURVE_FONT('continuous');
#154=TRIMMED_CURVE('Line15_0_0',#160,(PARAMETER_VALUE(0.)),(
PARAMETER_VALUE(1.)),.T.,.PARAMETER.);
#155=TRIMMED_CURVE('Line13_0_0',#161,(PARAMETER_VALUE(0.)),(
PARAMETER_VALUE(1.)),.T.,.PARAMETER.);
#156=TRIMMED_CURVE('Line11_0_0',#162,(PARAMETER_VALUE(0.)),(
PARAMETER_VALUE(1.)),.T.,.PARAMETER.);
#157=TRIMMED_CURVE('Line14_0_0',#163,(PARAMETER_VALUE(0.)),(
PARAMETER_VALUE(1.)),.T.,.PARAMETER.);
#158=TRIMMED_CURVE('Line12_0_0',#164,(PARAMETER_VALUE(0.)),(
PARAMETER_VALUE(1.)),.T.,.PARAMETER.);
#159=TRIMMED_CURVE('CUTTING PART LINE',#134,(PARAMETER_VALUE(0.)),(
PARAMETER_VALUE(1.)),.T.,.PARAMETER.);
#160=LINE('Line15_0_0',#290,#165);
#161=LINE('Line13_0_0',#291,#166);
#162=LINE('Line11_0_0',#292,#167);
#163=LINE('Line14_0_0',#293,#168);
#164=LINE('Line12_0_0',#294,#169);
#165=VECTOR('',#238,37.816001903956);
#166=VECTOR('',#239,4.9);
#167=VECTOR('',#240,39.);
#168=VECTOR('',#241,1.19999999999999);
#169=VECTOR('',#242,6.);
#170=DRAUGHTING_PRE_DEFINED_COLOUR('blue');
#171=DRAUGHTING_PRE_DEFINED_COLOUR('white');
#172=PRESENTATION_LAYER_ASSIGNMENT('1','Layer 1',(#286,#287,#288,#289,#154,
#155,#156,#157,#158,#159,#215,#216,#217,#40,#41));
#173=STYLED_ITEM('',(#188),#286);
#174=STYLED_ITEM('',(#189),#287);
#175=STYLED_ITEM('',(#190),#288);
#176=STYLED_ITEM('',(#191),#289);
#177=STYLED_ITEM('',(#192),#154);
#178=STYLED_ITEM('',(#193),#155);
#179=STYLED_ITEM('',(#194),#156);
#180=STYLED_ITEM('',(#195),#157);
#181=STYLED_ITEM('',(#196),#158);
#182=STYLED_ITEM('',(#197),#159);
#183=STYLED_ITEM('',(#198),#215);
#184=STYLED_ITEM('',(#199),#216);
#185=STYLED_ITEM('',(#200),#217);
#186=STYLED_ITEM('',(#201),#40);
#187=STYLED_ITEM('',(#202),#41);
#188=PRESENTATION_STYLE_ASSIGNMENT((#203));
#189=PRESENTATION_STYLE_ASSIGNMENT((#204));
#190=PRESENTATION_STYLE_ASSIGNMENT((#205));
#191=PRESENTATION_STYLE_ASSIGNMENT((#206));
#192=PRESENTATION_STYLE_ASSIGNMENT((#136));
#193=PRESENTATION_STYLE_ASSIGNMENT((#137));
#194=PRESENTATION_STYLE_ASSIGNMENT((#138));
#195=PRESENTATION_STYLE_ASSIGNMENT((#139));
#196=PRESENTATION_STYLE_ASSIGNMENT((#140));
#197=PRESENTATION_STYLE_ASSIGNMENT((#141));
#198=PRESENTATION_STYLE_ASSIGNMENT((#142));
#199=PRESENTATION_STYLE_ASSIGNMENT((#143));
#200=PRESENTATION_STYLE_ASSIGNMENT((#144));
#201=PRESENTATION_STYLE_ASSIGNMENT((#30));
#202=PRESENTATION_STYLE_ASSIGNMENT((#31));
#203=POINT_STYLE('',#207,POSITIVE_LENGTH_MEASURE(3.),#211);
#204=POINT_STYLE('',#208,POSITIVE_LENGTH_MEASURE(3.),#211);
#205=POINT_STYLE('',#209,POSITIVE_LENGTH_MEASURE(3.),#211);
#206=POINT_STYLE('',#210,POSITIVE_LENGTH_MEASURE(3.),#170);
#207=PRE_DEFINED_POINT_MARKER_SYMBOL('plus');
#208=PRE_DEFINED_POINT_MARKER_SYMBOL('plus');
#209=PRE_DEFINED_POINT_MARKER_SYMBOL('plus');
#210=PRE_DEFINED_POINT_MARKER_SYMBOL('plus');
#211=COLOUR_RGB('Strong Stone',0.576470588235294,0.54508278019379,0.392156862745098);
#212=COLOUR_RGB('Medium Gray',0.501960784313725,0.501960784313725,0.501960784313725);
#213=COLOUR_RGB('Light Gray',0.8,0.8,0.8);
#214=AXIS2_PLACEMENT_3D('',#285,#236,#237);
#215=AXIS2_PLACEMENT_3D('PCS',#308,#243,#244);
#216=AXIS2_PLACEMENT_3D('CIP',#309,#245,#246);
#217=AXIS2_PLACEMENT_3D('MCS',#310,#247,#248);
#218=AXIS2_PLACEMENT_3D('',#311,#249,#250);
#219=AXIS2_PLACEMENT_3D('',#313,#251,#252);
#220=AXIS2_PLACEMENT_3D('',#315,#253,#254);
#221=AXIS2_PLACEMENT_3D('',#316,#255,#256);
#222=AXIS2_PLACEMENT_3D('',#318,#257,#258);
#223=AXIS2_PLACEMENT_3D('',#319,#259,#260);
#224=AXIS2_PLACEMENT_3D('',#321,#261,#262);
#225=AXIS2_PLACEMENT_3D('',#323,#263,#264);
#226=AXIS2_PLACEMENT_3D('',#324,#265,#266);
#227=AXIS2_PLACEMENT_3D('',#325,#267,#268);
#228=AXIS2_PLACEMENT_3D('',#326,#269,#270);
#229=AXIS2_PLACEMENT_3D('',#327,#271,#272);
#230=AXIS2_PLACEMENT_3D('',#329,#273,#274);
#231=AXIS2_PLACEMENT_3D('',#331,#275,#276);
#232=AXIS2_PLACEMENT_3D('',#332,#277,#278);
#233=AXIS2_PLACEMENT_3D('',#333,#279,#280);
#234=AXIS2_PLACEMENT_3D('',#335,#281,#282);
#235=AXIS2_PLACEMENT_3D('',#336,#283,#284);
#236=DIRECTION('',(0.,0.,1.));
#237=DIRECTION('',(1.,0.,0.));
#238=DIRECTION('',(0.029088215163352,0.,0.999576848340642));
#239=DIRECTION('',(1.,0.,0.));
#240=DIRECTION('',(0.,0.,1.));
#241=DIRECTION('',(0.,0.,1.));
#242=DIRECTION('',(-1.,0.,0.));
#243=DIRECTION('',(0.,0.,1.));
#244=DIRECTION('',(1.,0.,0.));
#245=DIRECTION('',(0.,0.,1.));
#246=DIRECTION('',(1.,0.,0.));
#247=DIRECTION('',(0.,0.,1.));
#248=DIRECTION('',(1.,0.,0.));
#249=DIRECTION('',(0.,0.,-1.));
#250=DIRECTION('',(1.,0.,0.));
#251=DIRECTION('',(0.,0.,-1.));
#252=DIRECTION('',(1.,0.,0.));
#253=DIRECTION('',(0.,0.,1.));
#254=DIRECTION('',(1.,0.,0.));
#255=DIRECTION('',(0.,0.,1.));
#256=DIRECTION('',(1.,0.,0.));
#257=DIRECTION('',(0.,0.,1.));
#258=DIRECTION('',(1.,0.,0.));
#259=DIRECTION('',(0.,0.,-1.));
#260=DIRECTION('',(-1.,0.,0.));
#261=DIRECTION('',(0.,0.,-1.));
#262=DIRECTION('',(-1.,0.,0.));
#263=DIRECTION('',(0.,0.,-1.));
#264=DIRECTION('',(-1.,0.,0.));
#265=DIRECTION('',(0.,0.,1.));
#266=DIRECTION('',(1.,0.,0.));
#267=DIRECTION('',(0.,0.,1.));
#268=DIRECTION('',(1.,0.,-1.1861178304237E-15));
#269=DIRECTION('',(0.,0.,-1.));
#270=DIRECTION('',(-1.,0.,0.));
#271=DIRECTION('',(0.,0.,1.));
#272=DIRECTION('',(1.,0.,0.));
#273=DIRECTION('',(0.,0.,-1.));
#274=DIRECTION('',(-1.,0.,0.));
#275=DIRECTION('',(0.,0.,1.));
#276=DIRECTION('',(1.,0.,0.));
#277=DIRECTION('',(6.12323399573677E-17,0.,1.));
#278=DIRECTION('',(1.,0.,0.));
#279=DIRECTION('',(0.,0.,-1.));
#280=DIRECTION('',(-1.,0.,0.));
#281=DIRECTION('',(6.12323399573677E-17,0.,-1.));
#282=DIRECTION('',(1.,0.,0.));
#283=DIRECTION('',(0.,0.,1.));
#284=DIRECTION('',(1.,0.,0.));
#285=CARTESIAN_POINT('',(0.,0.,0.));
#286=CARTESIAN_POINT('PCS',(0.,0.,0.));
#287=CARTESIAN_POINT('CIP',(0.,0.,-100.));
#288=CARTESIAN_POINT('MCS',(0.,0.,-45.));
#289=CARTESIAN_POINT('CRP',(6.,0.,-100.));
#290=CARTESIAN_POINT('',(4.9,0.,-85.8));
#291=CARTESIAN_POINT('',(0.,0.,-87.));
#292=CARTESIAN_POINT('',(0.,0.,-87.));
#293=CARTESIAN_POINT('',(4.9,0.,-87.));
#294=CARTESIAN_POINT('',(6.,0.,-48.));
#295=CARTESIAN_POINT('',(0.,0.,-100.));
#296=CARTESIAN_POINT('',(3.51471862576143,0.,-100.));
#297=CARTESIAN_POINT('',(6.,0.,-97.5147186257614));
#298=CARTESIAN_POINT('',(6.,0.,-94.));
#299=CARTESIAN_POINT('',(6.,0.,-92.8208859795454));
#300=CARTESIAN_POINT('',(6.,0.,-91.6417719590908));
#301=CARTESIAN_POINT('',(6.,0.,-90.4626579386362));
#302=CARTESIAN_POINT('',(6.,0.,-89.2124799187544));
#303=CARTESIAN_POINT('',(5.62148980754201,0.,-88.0209787162368));
#304=CARTESIAN_POINT('',(4.9,0.,-87.));
#305=CARTESIAN_POINT('',(3.26666666666667,0.,-87.));
#306=CARTESIAN_POINT('',(1.63333333333333,0.,-87.));
#307=CARTESIAN_POINT('',(0.,0.,-87.));
#308=CARTESIAN_POINT('',(0.,0.,0.));
#309=CARTESIAN_POINT('',(0.,0.,-100.));
#310=CARTESIAN_POINT('',(0.,0.,-45.));
#311=CARTESIAN_POINT('',(0.,0.,-0.600000000000003));
#312=CARTESIAN_POINT('',(6.,0.,-0.600000000000003));
#313=CARTESIAN_POINT('',(0.,0.,-48.));
#314=CARTESIAN_POINT('',(6.,0.,-48.));
#315=CARTESIAN_POINT('',(0.,0.,-52.8));
#316=CARTESIAN_POINT('',(0.,0.,0.));
#317=CARTESIAN_POINT('',(5.4,0.,0.));
#318=CARTESIAN_POINT('',(0.,0.,0.));
#319=CARTESIAN_POINT('',(0.,0.,-87.));
#320=CARTESIAN_POINT('',(-4.9,0.,-87.));
#321=CARTESIAN_POINT('',(0.,0.,-85.8));
#322=CARTESIAN_POINT('',(-4.9,0.,-85.8));
#323=CARTESIAN_POINT('',(0.,0.,-48.));
#324=CARTESIAN_POINT('',(4.9,0.,-87.));
#325=CARTESIAN_POINT('',(0.,0.,-48.));
#326=CARTESIAN_POINT('',(0.,0.,0.));
#327=CARTESIAN_POINT('',(0.,0.,-94.));
#328=CARTESIAN_POINT('',(6.,0.,-94.));
#329=CARTESIAN_POINT('',(0.,0.,-90.4626579386361));
#330=CARTESIAN_POINT('',(-6.,0.,-90.4626579386361));
#331=CARTESIAN_POINT('',(0.,0.,-101.3));
#332=CARTESIAN_POINT('',(0.,0.,-94.));
#333=CARTESIAN_POINT('',(0.,0.,-87.));
#334=CARTESIAN_POINT('',(-4.9,0.,-87.));
#335=CARTESIAN_POINT('',(0.,0.,-90.4626579386362));
#336=CARTESIAN_POINT('',(0.,0.,-87.));
#337=MECHANICAL_DESIGN_GEOMETRIC_PRESENTATION_REPRESENTATION('',(#173,#174,
#175,#176,#177,#178,#179,#180,#181,#182,#183,#184,#185,#186,#187),#338);
#338=(
GEOMETRIC_REPRESENTATION_CONTEXT(3)
GLOBAL_UNCERTAINTY_ASSIGNED_CONTEXT((#339))
GLOBAL_UNIT_ASSIGNED_CONTEXT((#345,#341,#340))
REPRESENTATION_CONTEXT('1716892124700','TOP_LEVEL_ASSEMBLY_PART')
);
#339=UNCERTAINTY_MEASURE_WITH_UNIT(LENGTH_MEASURE(2.E-5),#345,
'DISTANCE_ACCURACY_VALUE','Maximum Tolerance applied to model');
#340=(
NAMED_UNIT(*)
SI_UNIT($,.STERADIAN.)
SOLID_ANGLE_UNIT()
);
#341=(
CONVERSION_BASED_UNIT('DEGREE',#343)
NAMED_UNIT(#342)
PLANE_ANGLE_UNIT()
);
#342=DIMENSIONAL_EXPONENTS(0.,0.,0.,0.,0.,0.,0.);
#343=PLANE_ANGLE_MEASURE_WITH_UNIT(PLANE_ANGLE_MEASURE(0.0174532925),#344);
#344=(
NAMED_UNIT(*)
PLANE_ANGLE_UNIT()
SI_UNIT($,.RADIAN.)
);
#345=(
LENGTH_UNIT()
NAMED_UNIT(*)
SI_UNIT(.MILLI.,.METRE.)
);
ENDSEC;
END-ISO-10303-21;
