ISO-10303-21;
HEADER;
/* Generated by software containing ST-Developer
 * from STEP Tools, Inc. (www.steptools.com) 
 */
/* OPTION: using custom schema-name function */

FILE_DESCRIPTION(
/* description */ (''),
/* implementation_level */ '2;1');

FILE_NAME(
/* name */ 'aaa318770_a.stp',
/* time_stamp */ '2018-05-28T11:17:48+02:00',
/* author */ (''),
/* organization */ ('SMS'),
/* preprocessor_version */ 'ST-DEVELOPER v15',
/* originating_system */ 'SIEMENS PLM Software NX 8.5',
/* authorisation */ '');

FILE_SCHEMA (('AUTOMOTIVE_DESIGN { 1 0 10303 214 3 1 1 1 }'));
ENDSEC;

DATA;
#10=CONSTRUCTIVE_GEOMETRY_REPRESENTATION_RELATIONSHIP(
'supplemental geometry','',#26,#11);
#11=CONSTRUCTIVE_GEOMETRY_REPRESENTATION('supplemental geometry',(#295,
#296),#523);
#12=GEOMETRICALLY_BOUNDED_WIREFRAME_SHAPE_REPRESENTATION(
'AAA318770_A-None',(#27),#523);
#13=SHAPE_REPRESENTATION_RELATIONSHIP('None',
'relationship between AAA318770_A-None and AAA318770_A-None',#26,#15);
#14=SHAPE_REPRESENTATION_RELATIONSHIP('None',
'relationship between AAA318770_A-None and AAA318770_A-None',#26,#12);
#15=ADVANCED_BREP_SHAPE_REPRESENTATION('AAA318770_A-None',(#33),#523);
#16=SHAPE_DEFINITION_REPRESENTATION(#17,#26);
#17=PRODUCT_DEFINITION_SHAPE('','',#18);
#18=PRODUCT_DEFINITION(' ','',#20,#19);
#19=PRODUCT_DEFINITION_CONTEXT('part definition',#25,'design');
#20=PRODUCT_DEFINITION_FORMATION_WITH_SPECIFIED_SOURCE(' ',' ',#22,
 .NOT_KNOWN.);
#21=PRODUCT_RELATED_PRODUCT_CATEGORY('part','',(#22));
#22=PRODUCT('AAA318770_A','AAA318770_A','MASTER_INSERT',(#23));
#23=PRODUCT_CONTEXT(' ',#25,'mechanical');
#24=APPLICATION_PROTOCOL_DEFINITION('international standard',
'automotive_design',2010,#25);
#25=APPLICATION_CONTEXT(
'core data for automotive mechanical design processes');
#26=SHAPE_REPRESENTATION('AAA318770_A-None',(#294),#523);
#27=GEOMETRIC_CURVE_SET('None',(#407,#408,#274));
#28=SURFACE_STYLE_USAGE(.BOTH.,#29);
#29=SURFACE_SIDE_STYLE('',(#30));
#30=SURFACE_STYLE_FILL_AREA(#31);
#31=FILL_AREA_STYLE('',(#32));
#32=FILL_AREA_STYLE_COLOUR('',#293);
#33=MANIFOLD_SOLID_BREP('',#34);
#34=CLOSED_SHELL('',(#85,#86,#87,#88,#89,#90,#91,#92,#93,#94,#95,#96,#97,
#98,#99));
#35=CONICAL_SURFACE('',#314,3.17597767569965,20.);
#36=CONICAL_SURFACE('',#323,3.17597767569965,20.);
#37=PLANE('',#300);
#38=PLANE('',#307);
#39=PLANE('',#312);
#40=PLANE('',#315);
#41=PLANE('',#319);
#42=PLANE('',#321);
#43=PLANE('',#324);
#44=PLANE('',#325);
#45=FACE_OUTER_BOUND('',#121,.T.);
#46=FACE_OUTER_BOUND('',#122,.T.);
#47=FACE_OUTER_BOUND('',#123,.T.);
#48=FACE_OUTER_BOUND('',#124,.T.);
#49=FACE_OUTER_BOUND('',#125,.T.);
#50=FACE_OUTER_BOUND('',#130,.T.);
#51=FACE_OUTER_BOUND('',#131,.T.);
#52=FACE_OUTER_BOUND('',#132,.T.);
#53=LINE('',#460,#69);
#54=LINE('',#463,#70);
#55=LINE('',#465,#71);
#56=LINE('',#467,#72);
#57=LINE('',#473,#73);
#58=LINE('',#477,#74);
#59=LINE('',#481,#75);
#60=LINE('',#484,#76);
#61=LINE('',#485,#77);
#62=LINE('',#487,#78);
#63=LINE('',#499,#79);
#64=LINE('',#502,#80);
#65=LINE('',#503,#81);
#66=LINE('',#509,#82);
#67=LINE('',#511,#83);
#68=LINE('',#512,#84);
#69=VECTOR('',#338,1.);
#70=VECTOR('',#339,1.);
#71=VECTOR('',#340,1.);
#72=VECTOR('',#341,1.);
#73=VECTOR('',#348,1.);
#74=VECTOR('',#353,1.);
#75=VECTOR('',#358,1.);
#76=VECTOR('',#359,1.);
#77=VECTOR('',#360,1.);
#78=VECTOR('',#363,1.);
#79=VECTOR('',#378,1.);
#80=VECTOR('',#379,1.);
#81=VECTOR('',#380,1.);
#82=VECTOR('',#387,1.);
#83=VECTOR('',#390,1.);
#84=VECTOR('',#391,1.);
#85=ADVANCED_FACE('',(#105,#106),#100,.F.);
#86=ADVANCED_FACE('',(#45),#37,.F.);
#87=ADVANCED_FACE('',(#46),#101,.T.);
#88=ADVANCED_FACE('',(#47),#102,.T.);
#89=ADVANCED_FACE('',(#48),#38,.F.);
#90=ADVANCED_FACE('',(#49),#103,.T.);
#91=ADVANCED_FACE('',(#107,#108),#39,.T.);
#92=ADVANCED_FACE('',(#109,#110),#35,.F.);
#93=ADVANCED_FACE('',(#50),#40,.F.);
#94=ADVANCED_FACE('',(#51),#104,.T.);
#95=ADVANCED_FACE('',(#52),#41,.F.);
#96=ADVANCED_FACE('',(#111,#112),#42,.T.);
#97=ADVANCED_FACE('',(#113,#114),#36,.F.);
#98=ADVANCED_FACE('',(#115,#116),#43,.F.);
#99=ADVANCED_FACE('',(#117,#118),#44,.F.);
#100=CYLINDRICAL_SURFACE('',#299,2.578);
#101=CYLINDRICAL_SURFACE('',#303,0.0992000000000015);
#102=CYLINDRICAL_SURFACE('',#306,0.0992000000000024);
#103=CYLINDRICAL_SURFACE('',#310,0.0992000000000024);
#104=CYLINDRICAL_SURFACE('',#318,0.0992000000000015);
#105=FACE_BOUND('',#119,.T.);
#106=FACE_BOUND('',#120,.T.);
#107=FACE_BOUND('',#126,.T.);
#108=FACE_BOUND('',#127,.T.);
#109=FACE_BOUND('',#128,.T.);
#110=FACE_BOUND('',#129,.T.);
#111=FACE_BOUND('',#133,.T.);
#112=FACE_BOUND('',#134,.T.);
#113=FACE_BOUND('',#135,.T.);
#114=FACE_BOUND('',#136,.T.);
#115=FACE_BOUND('',#137,.T.);
#116=FACE_BOUND('',#138,.T.);
#117=FACE_BOUND('',#139,.T.);
#118=FACE_BOUND('',#140,.T.);
#119=EDGE_LOOP('',(#141));
#120=EDGE_LOOP('',(#142));
#121=EDGE_LOOP('',(#143,#144,#145,#146));
#122=EDGE_LOOP('',(#147,#148,#149,#150));
#123=EDGE_LOOP('',(#151,#152,#153,#154));
#124=EDGE_LOOP('',(#155,#156,#157,#158));
#125=EDGE_LOOP('',(#159,#160,#161,#162));
#126=EDGE_LOOP('',(#163));
#127=EDGE_LOOP('',(#164));
#128=EDGE_LOOP('',(#165));
#129=EDGE_LOOP('',(#166));
#130=EDGE_LOOP('',(#167,#168,#169,#170));
#131=EDGE_LOOP('',(#171,#172,#173,#174));
#132=EDGE_LOOP('',(#175,#176,#177,#178));
#133=EDGE_LOOP('',(#179));
#134=EDGE_LOOP('',(#180));
#135=EDGE_LOOP('',(#181));
#136=EDGE_LOOP('',(#182));
#137=EDGE_LOOP('',(#183));
#138=EDGE_LOOP('',(#184,#185,#186,#187,#188,#189,#190,#191));
#139=EDGE_LOOP('',(#192));
#140=EDGE_LOOP('',(#193,#194,#195,#196,#197,#198,#199,#200));
#141=ORIENTED_EDGE('',*,*,#223,.F.);
#142=ORIENTED_EDGE('',*,*,#224,.F.);
#143=ORIENTED_EDGE('',*,*,#225,.T.);
#144=ORIENTED_EDGE('',*,*,#226,.F.);
#145=ORIENTED_EDGE('',*,*,#227,.F.);
#146=ORIENTED_EDGE('',*,*,#228,.T.);
#147=ORIENTED_EDGE('',*,*,#229,.T.);
#148=ORIENTED_EDGE('',*,*,#225,.F.);
#149=ORIENTED_EDGE('',*,*,#230,.F.);
#150=ORIENTED_EDGE('',*,*,#231,.T.);
#151=ORIENTED_EDGE('',*,*,#227,.T.);
#152=ORIENTED_EDGE('',*,*,#232,.F.);
#153=ORIENTED_EDGE('',*,*,#233,.T.);
#154=ORIENTED_EDGE('',*,*,#234,.T.);
#155=ORIENTED_EDGE('',*,*,#235,.T.);
#156=ORIENTED_EDGE('',*,*,#236,.F.);
#157=ORIENTED_EDGE('',*,*,#231,.F.);
#158=ORIENTED_EDGE('',*,*,#237,.T.);
#159=ORIENTED_EDGE('',*,*,#238,.T.);
#160=ORIENTED_EDGE('',*,*,#239,.F.);
#161=ORIENTED_EDGE('',*,*,#235,.F.);
#162=ORIENTED_EDGE('',*,*,#240,.T.);
#163=ORIENTED_EDGE('',*,*,#223,.T.);
#164=ORIENTED_EDGE('',*,*,#241,.F.);
#165=ORIENTED_EDGE('',*,*,#242,.F.);
#166=ORIENTED_EDGE('',*,*,#241,.T.);
#167=ORIENTED_EDGE('',*,*,#243,.T.);
#168=ORIENTED_EDGE('',*,*,#244,.F.);
#169=ORIENTED_EDGE('',*,*,#238,.F.);
#170=ORIENTED_EDGE('',*,*,#245,.T.);
#171=ORIENTED_EDGE('',*,*,#246,.T.);
#172=ORIENTED_EDGE('',*,*,#243,.F.);
#173=ORIENTED_EDGE('',*,*,#247,.F.);
#174=ORIENTED_EDGE('',*,*,#248,.T.);
#175=ORIENTED_EDGE('',*,*,#233,.F.);
#176=ORIENTED_EDGE('',*,*,#249,.F.);
#177=ORIENTED_EDGE('',*,*,#248,.F.);
#178=ORIENTED_EDGE('',*,*,#250,.T.);
#179=ORIENTED_EDGE('',*,*,#224,.T.);
#180=ORIENTED_EDGE('',*,*,#251,.F.);
#181=ORIENTED_EDGE('',*,*,#252,.T.);
#182=ORIENTED_EDGE('',*,*,#251,.T.);
#183=ORIENTED_EDGE('',*,*,#242,.T.);
#184=ORIENTED_EDGE('',*,*,#234,.F.);
#185=ORIENTED_EDGE('',*,*,#250,.F.);
#186=ORIENTED_EDGE('',*,*,#247,.T.);
#187=ORIENTED_EDGE('',*,*,#245,.F.);
#188=ORIENTED_EDGE('',*,*,#240,.F.);
#189=ORIENTED_EDGE('',*,*,#237,.F.);
#190=ORIENTED_EDGE('',*,*,#230,.T.);
#191=ORIENTED_EDGE('',*,*,#228,.F.);
#192=ORIENTED_EDGE('',*,*,#252,.F.);
#193=ORIENTED_EDGE('',*,*,#229,.F.);
#194=ORIENTED_EDGE('',*,*,#236,.T.);
#195=ORIENTED_EDGE('',*,*,#239,.T.);
#196=ORIENTED_EDGE('',*,*,#244,.T.);
#197=ORIENTED_EDGE('',*,*,#246,.F.);
#198=ORIENTED_EDGE('',*,*,#249,.T.);
#199=ORIENTED_EDGE('',*,*,#232,.T.);
#200=ORIENTED_EDGE('',*,*,#226,.T.);
#201=VERTEX_POINT('',#456);
#202=VERTEX_POINT('',#458);
#203=VERTEX_POINT('',#461);
#204=VERTEX_POINT('',#462);
#205=VERTEX_POINT('',#464);
#206=VERTEX_POINT('',#466);
#207=VERTEX_POINT('',#470);
#208=VERTEX_POINT('',#472);
#209=VERTEX_POINT('',#476);
#210=VERTEX_POINT('',#478);
#211=VERTEX_POINT('',#482);
#212=VERTEX_POINT('',#483);
#213=VERTEX_POINT('',#488);
#214=VERTEX_POINT('',#489);
#215=VERTEX_POINT('',#494);
#216=VERTEX_POINT('',#497);
#217=VERTEX_POINT('',#500);
#218=VERTEX_POINT('',#501);
#219=VERTEX_POINT('',#506);
#220=VERTEX_POINT('',#508);
#221=VERTEX_POINT('',#515);
#222=VERTEX_POINT('',#518);
#223=EDGE_CURVE('',#201,#201,#253,.T.);
#224=EDGE_CURVE('',#202,#202,#254,.T.);
#225=EDGE_CURVE('',#203,#204,#53,.T.);
#226=EDGE_CURVE('',#205,#204,#54,.T.);
#227=EDGE_CURVE('',#206,#205,#55,.T.);
#228=EDGE_CURVE('',#206,#203,#56,.T.);
#229=EDGE_CURVE('',#207,#204,#255,.T.);
#230=EDGE_CURVE('',#208,#203,#256,.T.);
#231=EDGE_CURVE('',#208,#207,#57,.T.);
#232=EDGE_CURVE('',#209,#205,#257,.T.);
#233=EDGE_CURVE('',#209,#210,#58,.T.);
#234=EDGE_CURVE('',#210,#206,#258,.T.);
#235=EDGE_CURVE('',#211,#212,#59,.T.);
#236=EDGE_CURVE('',#207,#212,#60,.T.);
#237=EDGE_CURVE('',#208,#211,#61,.T.);
#238=EDGE_CURVE('',#213,#214,#62,.T.);
#239=EDGE_CURVE('',#212,#214,#259,.T.);
#240=EDGE_CURVE('',#211,#213,#260,.T.);
#241=EDGE_CURVE('',#215,#215,#261,.T.);
#242=EDGE_CURVE('',#216,#216,#262,.T.);
#243=EDGE_CURVE('',#217,#218,#63,.T.);
#244=EDGE_CURVE('',#214,#218,#64,.T.);
#245=EDGE_CURVE('',#213,#217,#65,.T.);
#246=EDGE_CURVE('',#219,#218,#263,.T.);
#247=EDGE_CURVE('',#220,#217,#264,.T.);
#248=EDGE_CURVE('',#220,#219,#66,.T.);
#249=EDGE_CURVE('',#219,#209,#67,.T.);
#250=EDGE_CURVE('',#220,#210,#68,.T.);
#251=EDGE_CURVE('',#221,#221,#265,.T.);
#252=EDGE_CURVE('',#222,#222,#266,.T.);
#253=CIRCLE('',#297,2.578);
#254=CIRCLE('',#298,2.578);
#255=CIRCLE('',#301,0.0992000000000015);
#256=CIRCLE('',#302,0.0992000000000015);
#257=CIRCLE('',#304,0.0992000000000024);
#258=CIRCLE('',#305,0.0992000000000024);
#259=CIRCLE('',#308,0.0992000000000024);
#260=CIRCLE('',#309,0.0992000000000024);
#261=CIRCLE('',#311,2.903);
#262=CIRCLE('',#313,3.13230124758771);
#263=CIRCLE('',#316,0.0992000000000015);
#264=CIRCLE('',#317,0.0992000000000015);
#265=CIRCLE('',#320,2.903);
#266=CIRCLE('',#322,3.17597767569965);
#267=CURVE_STYLE('',#271,POSITIVE_LENGTH_MEASURE(0.18),#270);
#268=CURVE_STYLE('',#272,POSITIVE_LENGTH_MEASURE(0.18),#292);
#269=CURVE_STYLE('',#273,POSITIVE_LENGTH_MEASURE(0.18),#292);
#270=DRAUGHTING_PRE_DEFINED_COLOUR('blue');
#271=DRAUGHTING_PRE_DEFINED_CURVE_FONT('continuous');
#272=DRAUGHTING_PRE_DEFINED_CURVE_FONT('continuous');
#273=DRAUGHTING_PRE_DEFINED_CURVE_FONT('continuous');
#274=B_SPLINE_CURVE_WITH_KNOTS('CUTTING EDGE LINE',3,(#409,#410,#411,#412,
#413,#414,#415,#416,#417,#418,#419,#420,#421,#422,#423,#424,#425,#426,#427,
#428,#429,#430,#431,#432,#433,#434,#435,#436,#437,#438,#439,#440,#441,#442,
#443,#444,#445,#446,#447,#448,#449,#450,#451,#452),.UNSPECIFIED.,.F.,.F.,
(1,1,2,1,1,1,1,1,1,1,1,1,1,1,1,1,1,1,1,1,1,1,1,1,1,1,1,1,1,1,1,1,1,1,1,
1,1,1,1,1,1,1,1,2,1,1),(-0.00134733764999995,-0.000673668824999973,0.,0.12348424515,
0.246736957340344,0.2469684903,0.2473895333125,0.247810576325,0.24865266235,
0.249494748375,0.2499157913875,0.2503368344,0.250568367359656,0.37382107955,
0.435563202125,0.497150969393563,0.4973053247,0.4976421591125,0.497978993525,
0.49865266235,0.499326331175,0.4996631655875,0.5,0.500154355306438,0.62348424515,
0.685226367725,0.746775546166953,0.7469684903,0.7473895333125,0.747810576325,
0.74865266235,0.749494748375,0.7499157913875,0.7503368344,0.750568367359656,
0.87382107955,0.935563202125,0.997150969393563,0.9973053247,0.9976421591125,
0.997978993525,0.99865266235,0.999326331175,1.,1.12348424515,1.24673695734034),
 .UNSPECIFIED.);
#275=PRESENTATION_LAYER_ASSIGNMENT('1','Layer 1',(#407,#408,#274,#295,#296,
#33));
#276=STYLED_ITEM('',(#282),#407);
#277=STYLED_ITEM('',(#283),#408);
#278=STYLED_ITEM('',(#284),#274);
#279=STYLED_ITEM('',(#285),#295);
#280=STYLED_ITEM('',(#286),#296);
#281=STYLED_ITEM('',(#287),#33);
#282=PRESENTATION_STYLE_ASSIGNMENT((#288));
#283=PRESENTATION_STYLE_ASSIGNMENT((#289));
#284=PRESENTATION_STYLE_ASSIGNMENT((#267));
#285=PRESENTATION_STYLE_ASSIGNMENT((#268));
#286=PRESENTATION_STYLE_ASSIGNMENT((#269));
#287=PRESENTATION_STYLE_ASSIGNMENT((#28));
#288=POINT_STYLE('',#290,POSITIVE_LENGTH_MEASURE(3.),#292);
#289=POINT_STYLE('',#291,POSITIVE_LENGTH_MEASURE(3.),#292);
#290=PRE_DEFINED_POINT_MARKER_SYMBOL('plus');
#291=PRE_DEFINED_POINT_MARKER_SYMBOL('plus');
#292=COLOUR_RGB('Medium Weak Red',0.6,0.4,0.4);
#293=COLOUR_RGB('Pale Dull Green',0.6,1.,0.6);
#294=AXIS2_PLACEMENT_3D('',#406,#326,#327);
#295=AXIS2_PLACEMENT_3D('MCS',#453,#328,#329);
#296=AXIS2_PLACEMENT_3D('PCS',#454,#330,#331);
#297=AXIS2_PLACEMENT_3D('',#455,#332,#333);
#298=AXIS2_PLACEMENT_3D('',#457,#334,#335);
#299=AXIS2_PLACEMENT_3D('',#459,#336,#337);
#300=AXIS2_PLACEMENT_3D('',#468,#342,#343);
#301=AXIS2_PLACEMENT_3D('',#469,#344,#345);
#302=AXIS2_PLACEMENT_3D('',#471,#346,#347);
#303=AXIS2_PLACEMENT_3D('',#474,#349,#350);
#304=AXIS2_PLACEMENT_3D('',#475,#351,#352);
#305=AXIS2_PLACEMENT_3D('',#479,#354,#355);
#306=AXIS2_PLACEMENT_3D('',#480,#356,#357);
#307=AXIS2_PLACEMENT_3D('',#486,#361,#362);
#308=AXIS2_PLACEMENT_3D('',#490,#364,#365);
#309=AXIS2_PLACEMENT_3D('',#491,#366,#367);
#310=AXIS2_PLACEMENT_3D('',#492,#368,#369);
#311=AXIS2_PLACEMENT_3D('',#493,#370,#371);
#312=AXIS2_PLACEMENT_3D('',#495,#372,#373);
#313=AXIS2_PLACEMENT_3D('',#496,#374,#375);
#314=AXIS2_PLACEMENT_3D('',#498,#376,#377);
#315=AXIS2_PLACEMENT_3D('',#504,#381,#382);
#316=AXIS2_PLACEMENT_3D('',#505,#383,#384);
#317=AXIS2_PLACEMENT_3D('',#507,#385,#386);
#318=AXIS2_PLACEMENT_3D('',#510,#388,#389);
#319=AXIS2_PLACEMENT_3D('',#513,#392,#393);
#320=AXIS2_PLACEMENT_3D('',#514,#394,#395);
#321=AXIS2_PLACEMENT_3D('',#516,#396,#397);
#322=AXIS2_PLACEMENT_3D('',#517,#398,#399);
#323=AXIS2_PLACEMENT_3D('',#519,#400,#401);
#324=AXIS2_PLACEMENT_3D('',#520,#402,#403);
#325=AXIS2_PLACEMENT_3D('',#521,#404,#405);
#326=DIRECTION('',(0.,0.,1.));
#327=DIRECTION('',(1.,0.,0.));
#328=DIRECTION('',(0.,0.,1.));
#329=DIRECTION('',(-6.83260194084858E-017,-1.,0.));
#330=DIRECTION('',(0.,0.,1.));
#331=DIRECTION('',(-6.83260194084858E-017,-1.,0.));
#332=DIRECTION('',(0.,0.,-1.));
#333=DIRECTION('',(1.,0.,0.));
#334=DIRECTION('',(0.,0.,1.));
#335=DIRECTION('',(-0.17364817766693,-0.984807753012208,0.));
#336=DIRECTION('',(0.,0.,1.));
#337=DIRECTION('',(1.,0.,0.));
#338=DIRECTION('',(0.,0.,-1.));
#339=DIRECTION('',(0.,1.,0.));
#340=DIRECTION('',(0.,0.,-1.));
#341=DIRECTION('',(0.,1.,0.));
#342=DIRECTION('',(1.,0.,0.));
#343=DIRECTION('',(0.,0.,-1.));
#344=DIRECTION('',(0.,0.,1.));
#345=DIRECTION('',(1.,0.,0.));
#346=DIRECTION('',(0.,0.,1.));
#347=DIRECTION('',(-1.,0.,0.));
#348=DIRECTION('',(0.,0.,-1.));
#349=DIRECTION('',(0.,0.,1.));
#350=DIRECTION('',(1.,0.,0.));
#351=DIRECTION('',(0.,0.,-1.));
#352=DIRECTION('',(1.,0.,0.));
#353=DIRECTION('',(0.,0.,1.));
#354=DIRECTION('',(0.,0.,-1.));
#355=DIRECTION('',(-1.,0.,0.));
#356=DIRECTION('',(0.,0.,-1.));
#357=DIRECTION('',(-1.,0.,0.));
#358=DIRECTION('',(0.,0.,-1.));
#359=DIRECTION('',(0.984807753012208,-0.173648177666931,0.));
#360=DIRECTION('',(0.984807753012208,-0.173648177666931,0.));
#361=DIRECTION('',(-0.173648177666931,-0.984807753012208,0.));
#362=DIRECTION('',(0.,0.,-1.));
#363=DIRECTION('',(0.,0.,-1.));
#364=DIRECTION('',(0.,0.,-1.));
#365=DIRECTION('',(1.,0.,0.));
#366=DIRECTION('',(0.,0.,-1.));
#367=DIRECTION('',(-1.,0.,0.));
#368=DIRECTION('',(0.,0.,-1.));
#369=DIRECTION('',(0.173648177666935,0.984807753012208,0.));
#370=DIRECTION('',(0.,0.,-1.));
#371=DIRECTION('',(1.,0.,0.));
#372=DIRECTION('',(0.,0.,1.));
#373=DIRECTION('',(0.642787609686539,-0.766044443118978,0.));
#374=DIRECTION('',(0.,0.,-1.));
#375=DIRECTION('',(-1.,0.,0.));
#376=DIRECTION('',(0.,0.,1.));
#377=DIRECTION('',(0.642787609686539,-0.766044443118978,-2.78214492899233E-016));
#378=DIRECTION('',(0.,0.,-1.));
#379=DIRECTION('',(0.,-1.,0.));
#380=DIRECTION('',(0.,-1.,0.));
#381=DIRECTION('',(-1.,0.,0.));
#382=DIRECTION('',(0.,0.,-1.));
#383=DIRECTION('',(0.,0.,1.));
#384=DIRECTION('',(1.,0.,0.));
#385=DIRECTION('',(0.,0.,1.));
#386=DIRECTION('',(-1.,0.,0.));
#387=DIRECTION('',(0.,0.,-1.));
#388=DIRECTION('',(0.,0.,1.));
#389=DIRECTION('',(-1.,0.,0.));
#390=DIRECTION('',(-0.984807753012208,0.173648177666931,0.));
#391=DIRECTION('',(-0.984807753012208,0.173648177666931,0.));
#392=DIRECTION('',(0.173648177666931,0.984807753012208,0.));
#393=DIRECTION('',(0.,0.,-1.));
#394=DIRECTION('',(0.,0.,1.));
#395=DIRECTION('',(-1.,0.,0.));
#396=DIRECTION('',(0.,0.,-1.));
#397=DIRECTION('',(0.642787609686539,-0.766044443118978,0.));
#398=DIRECTION('',(0.,0.,-1.));
#399=DIRECTION('',(1.,0.,0.));
#400=DIRECTION('',(0.,0.,-1.));
#401=DIRECTION('',(0.642787609686539,-0.766044443118978,-2.66955978857271E-016));
#402=DIRECTION('',(0.,0.,-1.));
#403=DIRECTION('',(-1.,0.,0.));
#404=DIRECTION('',(0.,0.,1.));
#405=DIRECTION('',(1.,0.,0.));
#406=CARTESIAN_POINT('',(0.,0.,0.));
#407=CARTESIAN_POINT('',(0.,0.,0.));
#408=CARTESIAN_POINT('',(-6.35,7.56763531297324,0.));
#409=CARTESIAN_POINT('',(-6.35,-5.2565864186828,0.));
#410=CARTESIAN_POINT('',(-6.35,-3.12930108603781,0.));
#411=CARTESIAN_POINT('',(-6.35,1.09821767309648,0.));
#412=CARTESIAN_POINT('',(-6.35,5.32970345014675,0.));
#413=CARTESIAN_POINT('',(-6.35021986050607,7.45266069098331,0.));
#414=CARTESIAN_POINT('',(-6.34840073344301,7.4710530776284,0.));
#415=CARTESIAN_POINT('',(-6.33910586286776,7.49854926005988,0.));
#416=CARTESIAN_POINT('',(-6.31662050834638,7.52785518385646,0.));
#417=CARTESIAN_POINT('',(-6.28385526652735,7.54491001507222,0.));
#418=CARTESIAN_POINT('',(-6.25516277555179,7.5492890137069,0.));
#419=CARTESIAN_POINT('',(-6.23673392248856,7.5478866997176,0.));
#420=CARTESIAN_POINT('',(-4.14606735077544,7.17902252325066,0.));
#421=CARTESIAN_POINT('',(-1.02066735077545,6.62793017774443,0.));
#422=CARTESIAN_POINT('',(3.14002139922454,5.89428849278925,0.));
#423=CARTESIAN_POINT('',(5.22362139922454,5.52689359578509,0.));
#424=CARTESIAN_POINT('',(6.27112527256273,5.34230878015317,0.));
#425=CARTESIAN_POINT('',(6.28489908371421,5.33872839302843,0.));
#426=CARTESIAN_POINT('',(6.30590625730655,5.32894931617107,0.));
#427=CARTESIAN_POINT('',(6.32835068479235,5.31011672557568,0.));
#428=CARTESIAN_POINT('',(6.34299973209363,5.2847430343328,0.));
#429=CARTESIAN_POINT('',(6.34898238538847,5.26235688803316,0.));
#430=CARTESIAN_POINT('',(6.35011658118156,5.24817060432293,0.));
#431=CARTESIAN_POINT('',(6.35,3.12665640742715,0.));
#432=CARTESIAN_POINT('',(6.35,-0.0469579253605428,0.));
#433=CARTESIAN_POINT('',(6.35,-4.27249317553683,0.));
#434=CARTESIAN_POINT('',(6.35,-6.38823606406196,0.));
#435=CARTESIAN_POINT('',(6.35018321708832,-7.45332180651995,0.));
#436=CARTESIAN_POINT('',(6.34840073344367,-7.47105307762766,0.));
#437=CARTESIAN_POINT('',(6.33910586286822,-7.49854926005888,0.));
#438=CARTESIAN_POINT('',(6.316620508336,-7.52785518386518,0.));
#439=CARTESIAN_POINT('',(6.2838552665284,-7.54491001507196,0.));
#440=CARTESIAN_POINT('',(6.25516277555263,-7.54928901370639,0.));
#441=CARTESIAN_POINT('',(6.23673392248845,-7.54788669971767,0.));
#442=CARTESIAN_POINT('',(4.14606735077544,-7.17902252325066,0.));
#443=CARTESIAN_POINT('',(1.02066735077545,-6.62793017774443,0.));
#444=CARTESIAN_POINT('',(-3.14002139922455,-5.89428849278925,0.));
#445=CARTESIAN_POINT('',(-5.22362139922454,-5.52689359578509,0.));
#446=CARTESIAN_POINT('',(-6.27112527256273,-5.34230878015317,0.));
#447=CARTESIAN_POINT('',(-6.28489908371421,-5.33872839302843,0.));
#448=CARTESIAN_POINT('',(-6.30590625730655,-5.32894931617107,0.));
#449=CARTESIAN_POINT('',(-6.32835068479234,-5.31011672557568,0.));
#450=CARTESIAN_POINT('',(-6.34592954155388,-5.27966829608423,0.));
#451=CARTESIAN_POINT('',(-6.35,-5.2565864186828,0.));
#452=CARTESIAN_POINT('',(-6.35,-3.12930108603781,0.));
#453=CARTESIAN_POINT('',(0.,0.,0.));
#454=CARTESIAN_POINT('',(-6.35,7.56763531297324,0.));
#455=CARTESIAN_POINT('',(0.,0.,-0.63));
#456=CARTESIAN_POINT('',(2.578,0.,-0.63));
#457=CARTESIAN_POINT('',(-3.82841992001039E-015,-3.21242574287247E-015,
-4.01));
#458=CARTESIAN_POINT('',(-0.44766500202535,-2.53883438726548,-4.01));
#459=CARTESIAN_POINT('',(0.,0.,0.22));
#460=CARTESIAN_POINT('',(-6.35,7.44941335658784,0.));
#461=CARTESIAN_POINT('',(-6.35,7.44941335658784,0.));
#462=CARTESIAN_POINT('',(-6.35,7.44941335658784,-4.76));
#463=CARTESIAN_POINT('',(-6.35,0.,-4.76));
#464=CARTESIAN_POINT('',(-6.35,-5.24504397456294,-4.76));
#465=CARTESIAN_POINT('',(-6.35,-5.24504397456294,-6.7793207045293));
#466=CARTESIAN_POINT('',(-6.35,-5.24504397456294,0.));
#467=CARTESIAN_POINT('',(-6.35,-7.72198,0.));
#468=CARTESIAN_POINT('',(-6.35,-7.72198,0.));
#469=CARTESIAN_POINT('',(-6.2508,7.44941335658789,-4.76));
#470=CARTESIAN_POINT('',(-6.23357410077544,7.5471062856867,-4.76));
#471=CARTESIAN_POINT('',(-6.2508,7.44941335658789,0.));
#472=CARTESIAN_POINT('',(-6.23357410077544,7.5471062856867,0.));
#473=CARTESIAN_POINT('',(-6.23357410077544,7.5471062856867,-6.7793207045293));
#474=CARTESIAN_POINT('',(-6.2508,7.44941335658789,-6.7793207045293));
#475=CARTESIAN_POINT('',(-6.2508,-5.24504397456294,-4.76));
#476=CARTESIAN_POINT('',(-6.26802589922454,-5.34273690366176,-4.76));
#477=CARTESIAN_POINT('',(-6.26802589922454,-5.34273690366176,0.));
#478=CARTESIAN_POINT('',(-6.26802589922454,-5.34273690366176,0.));
#479=CARTESIAN_POINT('',(-6.2508,-5.24504397456294,0.));
#480=CARTESIAN_POINT('',(-6.2508,-5.24504397456294,-6.7793207045293));
#481=CARTESIAN_POINT('',(6.26802589922454,5.34273690366176,0.));
#482=CARTESIAN_POINT('',(6.26802589922454,5.34273690366176,0.));
#483=CARTESIAN_POINT('',(6.26802589922454,5.34273690366176,-4.76));
#484=CARTESIAN_POINT('',(1.10266592818501,6.25352923162753,-4.76));
#485=CARTESIAN_POINT('',(8.70733170079022,4.91262147664704,0.));
#486=CARTESIAN_POINT('',(8.70733170079022,4.91262147664704,0.));
#487=CARTESIAN_POINT('',(6.35000000000001,5.24504397456294,-6.7793207045293));
#488=CARTESIAN_POINT('',(6.35000000000001,5.24504397456294,0.));
#489=CARTESIAN_POINT('',(6.35000000000001,5.24504397456294,-4.76));
#490=CARTESIAN_POINT('',(6.2508,5.24504397456294,-4.76));
#491=CARTESIAN_POINT('',(6.2508,5.24504397456294,0.));
#492=CARTESIAN_POINT('',(6.2508,5.24504397456294,-6.7793207045293));
#493=CARTESIAN_POINT('',(-1.77635683940025E-015,1.77635683940025E-015,-0.63));
#494=CARTESIAN_POINT('',(2.903,1.77635683940025E-015,-0.63));
#495=CARTESIAN_POINT('',(-1.97486257436073,-1.6571064577719,-0.63));
#496=CARTESIAN_POINT('',(-1.77635683940025E-015,1.77635683940025E-015,0.));
#497=CARTESIAN_POINT('',(-3.13230124758771,1.77635683940025E-015,0.));
#498=CARTESIAN_POINT('',(-1.77635683940025E-015,1.77635683940025E-015,0.12));
#499=CARTESIAN_POINT('',(6.35,-7.44941335658784,0.));
#500=CARTESIAN_POINT('',(6.35,-7.44941335658784,0.));
#501=CARTESIAN_POINT('',(6.35,-7.44941335658784,-4.76));
#502=CARTESIAN_POINT('',(6.35,0.,-4.76));
#503=CARTESIAN_POINT('',(6.35,7.72198,0.));
#504=CARTESIAN_POINT('',(6.35,7.72198,0.));
#505=CARTESIAN_POINT('',(6.2508,-7.44941335658789,-4.76));
#506=CARTESIAN_POINT('',(6.23357410077544,-7.5471062856867,-4.76));
#507=CARTESIAN_POINT('',(6.2508,-7.44941335658789,0.));
#508=CARTESIAN_POINT('',(6.23357410077544,-7.5471062856867,0.));
#509=CARTESIAN_POINT('',(6.23357410077544,-7.5471062856867,-6.7793207045293));
#510=CARTESIAN_POINT('',(6.2508,-7.44941335658789,-6.7793207045293));
#511=CARTESIAN_POINT('',(-1.10266592818501,-6.25352923162753,-4.76));
#512=CARTESIAN_POINT('',(-8.70733170079022,-4.91262147664704,0.));
#513=CARTESIAN_POINT('',(-8.70733170079022,-4.91262147664704,0.));
#514=CARTESIAN_POINT('',(-5.26932877951997E-015,-1.1545946272668E-015,-4.01));
#515=CARTESIAN_POINT('',(-2.90300000000001,-1.1545946272668E-015,-4.01));
#516=CARTESIAN_POINT('',(1.97486257436072,1.6571064577719,-4.01));
#517=CARTESIAN_POINT('',(-5.26932877951997E-015,-1.1545946272668E-015,-4.76));
#518=CARTESIAN_POINT('',(3.17597767569965,-1.1545946272668E-015,-4.76));
#519=CARTESIAN_POINT('',(-5.26932877951997E-015,-1.1545946272668E-015,-4.76));
#520=CARTESIAN_POINT('',(0.,0.,0.));
#521=CARTESIAN_POINT('',(0.,0.,-4.76));
#522=MECHANICAL_DESIGN_GEOMETRIC_PRESENTATION_REPRESENTATION('',(#276,#277,
#278,#279,#280,#281),#523);
#523=(
GEOMETRIC_REPRESENTATION_CONTEXT(3)
GLOBAL_UNCERTAINTY_ASSIGNED_CONTEXT((#524))
GLOBAL_UNIT_ASSIGNED_CONTEXT((#530,#526,#525))
REPRESENTATION_CONTEXT('aaa318770_a','TOP_LEVEL_ASSEMBLY_PART')
);
#524=UNCERTAINTY_MEASURE_WITH_UNIT(LENGTH_MEASURE(2.E-005),#530,
'DISTANCE_ACCURACY_VALUE','Maximum Tolerance applied to model');
#525=(
NAMED_UNIT(*)
SI_UNIT($,.STERADIAN.)
SOLID_ANGLE_UNIT()
);
#526=(
CONVERSION_BASED_UNIT('DEGREE',#528)
NAMED_UNIT(#527)
PLANE_ANGLE_UNIT()
);
#527=DIMENSIONAL_EXPONENTS(0.,0.,0.,0.,0.,0.,0.);
#528=PLANE_ANGLE_MEASURE_WITH_UNIT(PLANE_ANGLE_MEASURE(0.0174532925),#529);
#529=(
NAMED_UNIT(*)
PLANE_ANGLE_UNIT()
SI_UNIT($,.RADIAN.)
);
#530=(
LENGTH_UNIT()
NAMED_UNIT(*)
SI_UNIT(.MILLI.,.METRE.)
);
ENDSEC;
END-ISO-10303-21;
