ISO-10303-21;
HEADER;
/* Generated by software containing ST-Developer
 * from STEP Tools, Inc. (www.steptools.com) 
 */
/* OPTION: using custom schema-name function */

FILE_DESCRIPTION(
/* description */ (''),
/* implementation_level */ '2;1');

FILE_NAME(
/* name */ '1551885892544.stp',
/* time_stamp */ '2019-03-06T16:25:09+01:00',
/* author */ (''),
/* organization */ ('SMS'),
/* preprocessor_version */ 'ST-DEVELOPER v15',
/* originating_system */ 'SIEMENS PLM Software NX 8.5',
/* authorisation */ '');

FILE_SCHEMA (('AUTOMOTIVE_DESIGN { 1 0 10303 214 3 1 1 1 }'));
ENDSEC;

DATA;
#10=CONSTRUCTIVE_GEOMETRY_REPRESENTATION_RELATIONSHIP(
'supplemental geometry','',#26,#11);
#11=CONSTRUCTIVE_GEOMETRY_REPRESENTATION('supplemental geometry',(#179,
#180,#181),#292);
#12=GEOMETRICALLY_BOUNDED_WIREFRAME_SHAPE_REPRESENTATION(
'201612522mod000_01-None',(#27),#292);
#13=SHAPE_REPRESENTATION_RELATIONSHIP('None',
'relationship between 201612522mod000_01-None and 201612522mod000_01-N
one',#26,#15);
#14=SHAPE_REPRESENTATION_RELATIONSHIP('None',
'relationship between 201612522mod000_01-None and 201612522mod000_01-N
one',#26,#12);
#15=ADVANCED_BREP_SHAPE_REPRESENTATION('201612522mod000_01-None',(#39,#40),
#292);
#16=SHAPE_DEFINITION_REPRESENTATION(#17,#26);
#17=PRODUCT_DEFINITION_SHAPE('','',#18);
#18=PRODUCT_DEFINITION(' ','',#20,#19);
#19=PRODUCT_DEFINITION_CONTEXT('part definition',#25,'design');
#20=PRODUCT_DEFINITION_FORMATION_WITH_SPECIFIED_SOURCE(' ',' ',#22,
 .NOT_KNOWN.);
#21=PRODUCT_RELATED_PRODUCT_CATEGORY('part','',(#22));
#22=PRODUCT('201612522mod000_01','201612522mod000_01',' ',(#23));
#23=PRODUCT_CONTEXT(' ',#25,'mechanical');
#24=APPLICATION_PROTOCOL_DEFINITION('international standard',
'automotive_design',2010,#25);
#25=APPLICATION_CONTEXT(
'core data for automotive mechanical design processes');
#26=SHAPE_REPRESENTATION('201612522mod000_01-None',(#178),#292);
#27=GEOMETRIC_CURVE_SET('None',(#245,#246,#247,#248,#142));
#28=TOROIDAL_SURFACE('',#199,0.8,0.2);
#29=SURFACE_STYLE_USAGE(.BOTH.,#31);
#30=SURFACE_STYLE_USAGE(.BOTH.,#32);
#31=SURFACE_SIDE_STYLE('',(#33));
#32=SURFACE_SIDE_STYLE('',(#34));
#33=SURFACE_STYLE_FILL_AREA(#35);
#34=SURFACE_STYLE_FILL_AREA(#36);
#35=FILL_AREA_STYLE('',(#37));
#36=FILL_AREA_STYLE('',(#38));
#37=FILL_AREA_STYLE_COLOUR('',#176);
#38=FILL_AREA_STYLE_COLOUR('',#177);
#39=MANIFOLD_SOLID_BREP('NOCUT',#41);
#40=MANIFOLD_SOLID_BREP('CUT',#42);
#41=CLOSED_SHELL('',(#53,#54,#55,#56,#57,#58));
#42=CLOSED_SHELL('',(#59,#60,#61,#62));
#43=CONICAL_SURFACE('',#187,2.5,45.);
#44=CONICAL_SURFACE('',#192,0.96,15.0000000000001);
#45=PLANE('',#186);
#46=PLANE('',#189);
#47=PLANE('',#194);
#48=PLANE('',#196);
#49=FACE_OUTER_BOUND('',#80,.T.);
#50=FACE_OUTER_BOUND('',#83,.T.);
#51=FACE_OUTER_BOUND('',#88,.T.);
#52=FACE_OUTER_BOUND('',#89,.T.);
#53=ADVANCED_FACE('',(#66,#67),#63,.T.);
#54=ADVANCED_FACE('',(#49),#45,.T.);
#55=ADVANCED_FACE('',(#68,#69),#43,.T.);
#56=ADVANCED_FACE('',(#50),#46,.F.);
#57=ADVANCED_FACE('',(#70,#71),#64,.T.);
#58=ADVANCED_FACE('',(#72,#73),#44,.T.);
#59=ADVANCED_FACE('',(#51),#47,.T.);
#60=ADVANCED_FACE('',(#52),#48,.T.);
#61=ADVANCED_FACE('',(#74,#75),#65,.T.);
#62=ADVANCED_FACE('',(#76,#77),#28,.T.);
#63=CYLINDRICAL_SURFACE('',#184,3.);
#64=CYLINDRICAL_SURFACE('',#191,0.96);
#65=CYLINDRICAL_SURFACE('',#198,1.);
#66=FACE_BOUND('',#78,.T.);
#67=FACE_BOUND('',#79,.T.);
#68=FACE_BOUND('',#81,.T.);
#69=FACE_BOUND('',#82,.T.);
#70=FACE_BOUND('',#84,.T.);
#71=FACE_BOUND('',#85,.T.);
#72=FACE_BOUND('',#86,.T.);
#73=FACE_BOUND('',#87,.T.);
#74=FACE_BOUND('',#90,.T.);
#75=FACE_BOUND('',#91,.T.);
#76=FACE_BOUND('',#92,.T.);
#77=FACE_BOUND('',#93,.T.);
#78=EDGE_LOOP('',(#94));
#79=EDGE_LOOP('',(#95));
#80=EDGE_LOOP('',(#96));
#81=EDGE_LOOP('',(#97));
#82=EDGE_LOOP('',(#98));
#83=EDGE_LOOP('',(#99));
#84=EDGE_LOOP('',(#100));
#85=EDGE_LOOP('',(#101));
#86=EDGE_LOOP('',(#102));
#87=EDGE_LOOP('',(#103));
#88=EDGE_LOOP('',(#104));
#89=EDGE_LOOP('',(#105));
#90=EDGE_LOOP('',(#106));
#91=EDGE_LOOP('',(#107));
#92=EDGE_LOOP('',(#108));
#93=EDGE_LOOP('',(#109));
#94=ORIENTED_EDGE('',*,*,#118,.T.);
#95=ORIENTED_EDGE('',*,*,#119,.T.);
#96=ORIENTED_EDGE('',*,*,#120,.T.);
#97=ORIENTED_EDGE('',*,*,#119,.F.);
#98=ORIENTED_EDGE('',*,*,#120,.F.);
#99=ORIENTED_EDGE('',*,*,#121,.T.);
#100=ORIENTED_EDGE('',*,*,#121,.F.);
#101=ORIENTED_EDGE('',*,*,#122,.F.);
#102=ORIENTED_EDGE('',*,*,#118,.F.);
#103=ORIENTED_EDGE('',*,*,#122,.T.);
#104=ORIENTED_EDGE('',*,*,#123,.T.);
#105=ORIENTED_EDGE('',*,*,#124,.T.);
#106=ORIENTED_EDGE('',*,*,#125,.T.);
#107=ORIENTED_EDGE('',*,*,#124,.F.);
#108=ORIENTED_EDGE('',*,*,#123,.F.);
#109=ORIENTED_EDGE('',*,*,#125,.F.);
#110=VERTEX_POINT('',#266);
#111=VERTEX_POINT('',#268);
#112=VERTEX_POINT('',#271);
#113=VERTEX_POINT('',#275);
#114=VERTEX_POINT('',#278);
#115=VERTEX_POINT('',#282);
#116=VERTEX_POINT('',#285);
#117=VERTEX_POINT('',#288);
#118=EDGE_CURVE('',#110,#110,#126,.T.);
#119=EDGE_CURVE('',#111,#111,#127,.T.);
#120=EDGE_CURVE('',#112,#112,#128,.T.);
#121=EDGE_CURVE('',#113,#113,#129,.T.);
#122=EDGE_CURVE('',#114,#114,#130,.T.);
#123=EDGE_CURVE('',#115,#115,#131,.T.);
#124=EDGE_CURVE('',#116,#116,#132,.T.);
#125=EDGE_CURVE('',#117,#117,#133,.T.);
#126=CIRCLE('',#182,3.);
#127=CIRCLE('',#183,3.);
#128=CIRCLE('',#185,2.5);
#129=CIRCLE('',#188,0.96);
#130=CIRCLE('',#190,0.96);
#131=CIRCLE('',#193,0.8);
#132=CIRCLE('',#195,1.);
#133=CIRCLE('',#197,1.);
#134=CURVE_STYLE('',#138,POSITIVE_LENGTH_MEASURE(0.18),#144);
#135=CURVE_STYLE('',#139,POSITIVE_LENGTH_MEASURE(0.18),#174);
#136=CURVE_STYLE('',#140,POSITIVE_LENGTH_MEASURE(0.18),#175);
#137=CURVE_STYLE('',#141,POSITIVE_LENGTH_MEASURE(0.18),#175);
#138=DRAUGHTING_PRE_DEFINED_CURVE_FONT('continuous');
#139=DRAUGHTING_PRE_DEFINED_CURVE_FONT('continuous');
#140=DRAUGHTING_PRE_DEFINED_CURVE_FONT('continuous');
#141=DRAUGHTING_PRE_DEFINED_CURVE_FONT('continuous');
#142=TRIMMED_CURVE('CUTTING PART LINE',#143,(PARAMETER_VALUE(0.)),(
PARAMETER_VALUE(1.)),.T.,.PARAMETER.);
#143=(
BOUNDED_CURVE()
B_SPLINE_CURVE(3,(#249,#250,#251,#252,#253,#254,#255,#256,#257,#258,#259,
#260,#261),.UNSPECIFIED.,.F.,.F.)
B_SPLINE_CURVE_WITH_KNOTS((4,3,3,3,4),(0.,0.204386164644111,0.284648423796709,
0.74451729422041,1.),.UNSPECIFIED.)
CURVE()
GEOMETRIC_REPRESENTATION_ITEM()
RATIONAL_B_SPLINE_CURVE((1.,1.,1.,1.,0.804737854124365,0.804737854124365,
1.,1.,1.,1.,1.,1.,1.))
REPRESENTATION_ITEM('CUTTING PART LINE')
);
#144=DRAUGHTING_PRE_DEFINED_COLOUR('blue');
#145=PRESENTATION_LAYER_ASSIGNMENT('1','Layer 1',(#245,#246,#247,#248,#142,
#179,#180,#181,#39,#40));
#146=STYLED_ITEM('',(#156),#245);
#147=STYLED_ITEM('',(#157),#246);
#148=STYLED_ITEM('',(#158),#247);
#149=STYLED_ITEM('',(#159),#248);
#150=STYLED_ITEM('',(#160),#142);
#151=STYLED_ITEM('',(#161),#179);
#152=STYLED_ITEM('',(#162),#180);
#153=STYLED_ITEM('',(#163),#181);
#154=STYLED_ITEM('',(#164),#39);
#155=STYLED_ITEM('',(#165),#40);
#156=PRESENTATION_STYLE_ASSIGNMENT((#166));
#157=PRESENTATION_STYLE_ASSIGNMENT((#167));
#158=PRESENTATION_STYLE_ASSIGNMENT((#168));
#159=PRESENTATION_STYLE_ASSIGNMENT((#169));
#160=PRESENTATION_STYLE_ASSIGNMENT((#134));
#161=PRESENTATION_STYLE_ASSIGNMENT((#135));
#162=PRESENTATION_STYLE_ASSIGNMENT((#136));
#163=PRESENTATION_STYLE_ASSIGNMENT((#137));
#164=PRESENTATION_STYLE_ASSIGNMENT((#29));
#165=PRESENTATION_STYLE_ASSIGNMENT((#30));
#166=POINT_STYLE('',#170,POSITIVE_LENGTH_MEASURE(3.),#174);
#167=POINT_STYLE('',#171,POSITIVE_LENGTH_MEASURE(3.),#175);
#168=POINT_STYLE('',#172,POSITIVE_LENGTH_MEASURE(3.),#175);
#169=POINT_STYLE('',#173,POSITIVE_LENGTH_MEASURE(3.),#144);
#170=PRE_DEFINED_POINT_MARKER_SYMBOL('plus');
#171=PRE_DEFINED_POINT_MARKER_SYMBOL('plus');
#172=PRE_DEFINED_POINT_MARKER_SYMBOL('plus');
#173=PRE_DEFINED_POINT_MARKER_SYMBOL('plus');
#174=COLOUR_RGB('Medium Maroon',0.6,0.4,0.4);
#175=COLOUR_RGB('Strong Stone',0.576470588235294,0.54508278019379,0.392156862745098);
#176=COLOUR_RGB('Medium Gray',0.501960784313725,0.501960784313725,0.501960784313725);
#177=COLOUR_RGB('Light Gray',0.8,0.8,0.8);
#178=AXIS2_PLACEMENT_3D('',#244,#200,#201);
#179=AXIS2_PLACEMENT_3D('PCS',#262,#202,#203);
#180=AXIS2_PLACEMENT_3D('CIP',#263,#204,#205);
#181=AXIS2_PLACEMENT_3D('MCS',#264,#206,#207);
#182=AXIS2_PLACEMENT_3D('',#265,#208,#209);
#183=AXIS2_PLACEMENT_3D('',#267,#210,#211);
#184=AXIS2_PLACEMENT_3D('',#269,#212,#213);
#185=AXIS2_PLACEMENT_3D('',#270,#214,#215);
#186=AXIS2_PLACEMENT_3D('',#272,#216,#217);
#187=AXIS2_PLACEMENT_3D('',#273,#218,#219);
#188=AXIS2_PLACEMENT_3D('',#274,#220,#221);
#189=AXIS2_PLACEMENT_3D('',#276,#222,#223);
#190=AXIS2_PLACEMENT_3D('',#277,#224,#225);
#191=AXIS2_PLACEMENT_3D('',#279,#226,#227);
#192=AXIS2_PLACEMENT_3D('',#280,#228,#229);
#193=AXIS2_PLACEMENT_3D('',#281,#230,#231);
#194=AXIS2_PLACEMENT_3D('',#283,#232,#233);
#195=AXIS2_PLACEMENT_3D('',#284,#234,#235);
#196=AXIS2_PLACEMENT_3D('',#286,#236,#237);
#197=AXIS2_PLACEMENT_3D('',#287,#238,#239);
#198=AXIS2_PLACEMENT_3D('',#289,#240,#241);
#199=AXIS2_PLACEMENT_3D('',#290,#242,#243);
#200=DIRECTION('',(0.,0.,1.));
#201=DIRECTION('',(1.,0.,0.));
#202=DIRECTION('',(0.,0.,1.));
#203=DIRECTION('',(1.,0.,0.));
#204=DIRECTION('',(0.,0.,1.));
#205=DIRECTION('',(1.,0.,0.));
#206=DIRECTION('',(0.,0.,1.));
#207=DIRECTION('',(1.,0.,0.));
#208=DIRECTION('',(0.,0.,1.));
#209=DIRECTION('',(1.,0.,0.));
#210=DIRECTION('',(0.,0.,-1.));
#211=DIRECTION('',(1.,0.,0.));
#212=DIRECTION('',(0.,0.,1.));
#213=DIRECTION('',(1.,0.,0.));
#214=DIRECTION('',(0.,0.,1.));
#215=DIRECTION('',(1.,0.,0.));
#216=DIRECTION('',(0.,0.,1.));
#217=DIRECTION('',(1.,0.,0.));
#218=DIRECTION('',(0.,0.,-1.));
#219=DIRECTION('',(-1.,0.,0.));
#220=DIRECTION('',(0.,0.,-1.));
#221=DIRECTION('',(1.,0.,0.));
#222=DIRECTION('',(0.,0.,1.));
#223=DIRECTION('',(1.,0.,0.));
#224=DIRECTION('',(0.,0.,1.));
#225=DIRECTION('',(1.,0.,0.));
#226=DIRECTION('',(0.,0.,1.));
#227=DIRECTION('',(1.,0.,0.));
#228=DIRECTION('',(0.,0.,1.));
#229=DIRECTION('',(1.,0.,-1.80626987453363E-016));
#230=DIRECTION('',(0.,0.,-1.));
#231=DIRECTION('',(-1.,0.,0.));
#232=DIRECTION('',(0.,0.,-1.));
#233=DIRECTION('',(-1.,0.,0.));
#234=DIRECTION('',(0.,0.,1.));
#235=DIRECTION('',(-1.,1.22464679914735E-016,0.));
#236=DIRECTION('',(0.,0.,1.));
#237=DIRECTION('',(1.,0.,0.));
#238=DIRECTION('',(0.,0.,1.));
#239=DIRECTION('',(-1.,0.,0.));
#240=DIRECTION('',(0.,0.,1.));
#241=DIRECTION('',(1.,0.,0.));
#242=DIRECTION('',(0.,0.,-1.));
#243=DIRECTION('',(-1.,0.,0.));
#244=CARTESIAN_POINT('',(0.,0.,0.));
#245=CARTESIAN_POINT('',(0.,0.,0.));
#246=CARTESIAN_POINT('CIP',(0.,0.,-75.));
#247=CARTESIAN_POINT('MCS',(0.,0.,-36.));
#248=CARTESIAN_POINT('CRP_0',(1.,0.,-75.));
#249=CARTESIAN_POINT('',(0.,0.,-75.));
#250=CARTESIAN_POINT('',(0.,0.266666666666667,-75.));
#251=CARTESIAN_POINT('',(0.,0.533333333333334,-75.));
#252=CARTESIAN_POINT('',(0.,0.800000000000001,-75.));
#253=CARTESIAN_POINT('',(0.,0.917157287525383,-75.));
#254=CARTESIAN_POINT('',(0.,1.,-74.9171572875254));
#255=CARTESIAN_POINT('',(0.,1.,-74.8));
#256=CARTESIAN_POINT('',(0.,0.999999999999992,-74.2));
#257=CARTESIAN_POINT('',(0.,1.,-73.6));
#258=CARTESIAN_POINT('',(0.,1.,-73.));
#259=CARTESIAN_POINT('',(0.,0.666666666666667,-73.));
#260=CARTESIAN_POINT('',(0.,0.333333333333333,-73.));
#261=CARTESIAN_POINT('',(0.,0.,-73.));
#262=CARTESIAN_POINT('',(0.,0.,0.));
#263=CARTESIAN_POINT('',(0.,0.,-75.));
#264=CARTESIAN_POINT('',(0.,0.,-36.));
#265=CARTESIAN_POINT('',(0.,0.,-47.3866163525595));
#266=CARTESIAN_POINT('',(3.,0.,-47.3866163525595));
#267=CARTESIAN_POINT('',(0.,0.,-0.5));
#268=CARTESIAN_POINT('',(3.,0.,-0.5));
#269=CARTESIAN_POINT('',(0.,0.,-60.5));
#270=CARTESIAN_POINT('',(0.,0.,0.));
#271=CARTESIAN_POINT('',(2.5,0.,0.));
#272=CARTESIAN_POINT('',(0.,0.,0.));
#273=CARTESIAN_POINT('',(0.,0.,0.));
#274=CARTESIAN_POINT('',(0.,0.,-73.));
#275=CARTESIAN_POINT('',(0.96,0.,-73.));
#276=CARTESIAN_POINT('',(0.,0.,-73.));
#277=CARTESIAN_POINT('',(0.,0.,-55.));
#278=CARTESIAN_POINT('',(0.96,0.,-55.));
#279=CARTESIAN_POINT('',(0.,0.,-74.8));
#280=CARTESIAN_POINT('',(0.,0.,-55.));
#281=CARTESIAN_POINT('',(0.,0.,-75.));
#282=CARTESIAN_POINT('',(-0.8,0.,-75.));
#283=CARTESIAN_POINT('',(0.,0.,-75.));
#284=CARTESIAN_POINT('',(0.,0.,-73.));
#285=CARTESIAN_POINT('',(-1.,1.22464679914735E-016,-73.));
#286=CARTESIAN_POINT('',(0.,0.,-73.));
#287=CARTESIAN_POINT('',(0.,0.,-74.8));
#288=CARTESIAN_POINT('',(-1.,0.,-74.8));
#289=CARTESIAN_POINT('',(0.,0.,-75.2));
#290=CARTESIAN_POINT('',(0.,0.,-74.8));
#291=MECHANICAL_DESIGN_GEOMETRIC_PRESENTATION_REPRESENTATION('',(#146,#147,
#148,#149,#150,#151,#152,#153,#154,#155),#292);
#292=(
GEOMETRIC_REPRESENTATION_CONTEXT(3)
GLOBAL_UNCERTAINTY_ASSIGNED_CONTEXT((#293))
GLOBAL_UNIT_ASSIGNED_CONTEXT((#299,#295,#294))
REPRESENTATION_CONTEXT('1551885892544','TOP_LEVEL_ASSEMBLY_PART')
);
#293=UNCERTAINTY_MEASURE_WITH_UNIT(LENGTH_MEASURE(2.E-005),#299,
'DISTANCE_ACCURACY_VALUE','Maximum Tolerance applied to model');
#294=(
NAMED_UNIT(*)
SI_UNIT($,.STERADIAN.)
SOLID_ANGLE_UNIT()
);
#295=(
CONVERSION_BASED_UNIT('DEGREE',#297)
NAMED_UNIT(#296)
PLANE_ANGLE_UNIT()
);
#296=DIMENSIONAL_EXPONENTS(0.,0.,0.,0.,0.,0.,0.);
#297=PLANE_ANGLE_MEASURE_WITH_UNIT(PLANE_ANGLE_MEASURE(0.0174532925),#298);
#298=(
NAMED_UNIT(*)
PLANE_ANGLE_UNIT()
SI_UNIT($,.RADIAN.)
);
#299=(
LENGTH_UNIT()
NAMED_UNIT(*)
SI_UNIT(.MILLI.,.METRE.)
);
ENDSEC;
END-ISO-10303-21;
