ISO-10303-21;
HEADER;
/* Generated by software containing ST-Developer
 * from STEP Tools, Inc. (www.steptools.com) 
 */
/* OPTION: using custom schema-name function */

FILE_DESCRIPTION(
/* description */ (''),
/* implementation_level */ '2;1');

FILE_NAME(
/* name */ '1552661324707.stp',
/* time_stamp */ '2019-03-15T15:49:01+01:00',
/* author */ (''),
/* organization */ ('SMS'),
/* preprocessor_version */ 'ST-DEVELOPER v15',
/* originating_system */ 'SIEMENS PLM Software NX 8.5',
/* authorisation */ '');

FILE_SCHEMA (('AUTOMOTIVE_DESIGN { 1 0 10303 214 3 1 1 1 }'));
ENDSEC;

DATA;
#10=CONSTRUCTIVE_GEOMETRY_REPRESENTATION_RELATIONSHIP(
'supplemental geometry','',#26,#11);
#11=CONSTRUCTIVE_GEOMETRY_REPRESENTATION('supplemental geometry',(#168,
#169,#170),#299);
#12=GEOMETRICALLY_BOUNDED_WIREFRAME_SHAPE_REPRESENTATION(
'201574659mod000_02-None',(#27),#299);
#13=SHAPE_REPRESENTATION_RELATIONSHIP('None',
'relationship between 201574659mod000_02-None and 201574659mod000_02-N
one',#26,#15);
#14=SHAPE_REPRESENTATION_RELATIONSHIP('None',
'relationship between 201574659mod000_02-None and 201574659mod000_02-N
one',#26,#12);
#15=ADVANCED_BREP_SHAPE_REPRESENTATION('201574659mod000_02-None',(#40,#41),
#299);
#16=SHAPE_DEFINITION_REPRESENTATION(#17,#26);
#17=PRODUCT_DEFINITION_SHAPE('','',#18);
#18=PRODUCT_DEFINITION(' ','',#20,#19);
#19=PRODUCT_DEFINITION_CONTEXT('part definition',#25,'design');
#20=PRODUCT_DEFINITION_FORMATION_WITH_SPECIFIED_SOURCE(' ',' ',#22,
 .NOT_KNOWN.);
#21=PRODUCT_RELATED_PRODUCT_CATEGORY('part','',(#22));
#22=PRODUCT('201574659mod000_02','201574659mod000_02',' ',(#23));
#23=PRODUCT_CONTEXT(' ',#25,'mechanical');
#24=APPLICATION_PROTOCOL_DEFINITION('international standard',
'automotive_design',2010,#25);
#25=APPLICATION_CONTEXT(
'core data for automotive mechanical design processes');
#26=SHAPE_REPRESENTATION('201574659mod000_02-None',(#167),#299);
#27=GEOMETRIC_CURVE_SET('None',(#225,#226,#227,#228,#131));
#28=TOROIDAL_SURFACE('',#184,4.5,1.5);
#29=(
BOUNDED_SURFACE()
B_SPLINE_SURFACE(3,3,((#268,#269,#270,#271,#272,#273,#274),(#275,#276,#277,
#278,#279,#280,#281),(#282,#283,#284,#285,#286,#287,#288),(#289,#290,#291,
#292,#293,#294,#295)),.UNSPECIFIED.,.F.,.T.,.F.)
B_SPLINE_SURFACE_WITH_KNOTS((4,4),(1,3,3,3,1),(0.,1.),(-0.5,0.,0.5,1.,1.5),
 .UNSPECIFIED.)
GEOMETRIC_REPRESENTATION_ITEM()
RATIONAL_B_SPLINE_SURFACE(((1.,0.333333333333333,0.333333333333333,1.,0.333333333333333,
0.333333333333333,1.),(0.959784731196836,0.319928243732279,0.319928243732279,
0.959784731196836,0.319928243732279,0.319928243732279,0.959784731196836),
(0.959784731196836,0.319928243732279,0.319928243732279,0.959784731196836,
0.319928243732279,0.319928243732279,0.959784731196836),(1.,0.333333333333333,
0.333333333333333,1.,0.333333333333333,0.333333333333333,1.)))
REPRESENTATION_ITEM('')
SURFACE()
);
#30=SURFACE_STYLE_USAGE(.BOTH.,#32);
#31=SURFACE_STYLE_USAGE(.BOTH.,#33);
#32=SURFACE_SIDE_STYLE('',(#34));
#33=SURFACE_SIDE_STYLE('',(#35));
#34=SURFACE_STYLE_FILL_AREA(#36);
#35=SURFACE_STYLE_FILL_AREA(#37);
#36=FILL_AREA_STYLE('',(#38));
#37=FILL_AREA_STYLE('',(#39));
#38=FILL_AREA_STYLE_COLOUR('',#165);
#39=FILL_AREA_STYLE_COLOUR('',#166);
#40=MANIFOLD_SOLID_BREP('NOCUT',#42);
#41=MANIFOLD_SOLID_BREP('CUT',#43);
#42=CLOSED_SHELL('',(#57,#58,#59,#60));
#43=CLOSED_SHELL('',(#61,#62,#63,#64,#65));
#44=CONICAL_SURFACE('',#177,5.5,45.);
#45=CYLINDRICAL_SURFACE('',#174,6.);
#46=CYLINDRICAL_SURFACE('',#180,6.);
#47=FACE_BOUND('',#75,.T.);
#48=FACE_BOUND('',#76,.T.);
#49=FACE_BOUND('',#78,.T.);
#50=FACE_BOUND('',#79,.T.);
#51=FACE_BOUND('',#80,.T.);
#52=FACE_BOUND('',#81,.T.);
#53=FACE_BOUND('',#83,.T.);
#54=FACE_BOUND('',#84,.T.);
#55=FACE_BOUND('',#85,.T.);
#56=FACE_BOUND('',#86,.T.);
#57=ADVANCED_FACE('',(#70),#66,.F.);
#58=ADVANCED_FACE('',(#47,#48),#45,.T.);
#59=ADVANCED_FACE('',(#71),#67,.T.);
#60=ADVANCED_FACE('',(#49,#50),#44,.T.);
#61=ADVANCED_FACE('',(#51,#52),#46,.T.);
#62=ADVANCED_FACE('',(#72),#68,.T.);
#63=ADVANCED_FACE('',(#53,#54),#29,.T.);
#64=ADVANCED_FACE('',(#55,#56),#28,.T.);
#65=ADVANCED_FACE('',(#73),#69,.T.);
#66=PLANE('',#172);
#67=PLANE('',#176);
#68=PLANE('',#181);
#69=PLANE('',#185);
#70=FACE_OUTER_BOUND('',#74,.T.);
#71=FACE_OUTER_BOUND('',#77,.T.);
#72=FACE_OUTER_BOUND('',#82,.T.);
#73=FACE_OUTER_BOUND('',#87,.T.);
#74=EDGE_LOOP('',(#88));
#75=EDGE_LOOP('',(#89));
#76=EDGE_LOOP('',(#90));
#77=EDGE_LOOP('',(#91));
#78=EDGE_LOOP('',(#92));
#79=EDGE_LOOP('',(#93));
#80=EDGE_LOOP('',(#94));
#81=EDGE_LOOP('',(#95));
#82=EDGE_LOOP('',(#96));
#83=EDGE_LOOP('',(#97));
#84=EDGE_LOOP('',(#98));
#85=EDGE_LOOP('',(#99));
#86=EDGE_LOOP('',(#100));
#87=EDGE_LOOP('',(#101));
#88=ORIENTED_EDGE('',*,*,#109,.T.);
#89=ORIENTED_EDGE('',*,*,#110,.T.);
#90=ORIENTED_EDGE('',*,*,#109,.F.);
#91=ORIENTED_EDGE('',*,*,#111,.T.);
#92=ORIENTED_EDGE('',*,*,#110,.F.);
#93=ORIENTED_EDGE('',*,*,#111,.F.);
#94=ORIENTED_EDGE('',*,*,#112,.F.);
#95=ORIENTED_EDGE('',*,*,#113,.F.);
#96=ORIENTED_EDGE('',*,*,#112,.T.);
#97=ORIENTED_EDGE('',*,*,#114,.F.);
#98=ORIENTED_EDGE('',*,*,#115,.F.);
#99=ORIENTED_EDGE('',*,*,#113,.T.);
#100=ORIENTED_EDGE('',*,*,#114,.T.);
#101=ORIENTED_EDGE('',*,*,#115,.T.);
#102=VERTEX_POINT('',#249);
#103=VERTEX_POINT('',#252);
#104=VERTEX_POINT('',#255);
#105=VERTEX_POINT('',#259);
#106=VERTEX_POINT('',#261);
#107=VERTEX_POINT('',#265);
#108=VERTEX_POINT('',#267);
#109=EDGE_CURVE('',#102,#102,#116,.T.);
#110=EDGE_CURVE('',#103,#103,#117,.T.);
#111=EDGE_CURVE('',#104,#104,#118,.T.);
#112=EDGE_CURVE('',#105,#105,#119,.T.);
#113=EDGE_CURVE('',#106,#106,#120,.T.);
#114=EDGE_CURVE('',#107,#107,#121,.T.);
#115=EDGE_CURVE('',#108,#108,#122,.T.);
#116=CIRCLE('',#171,6.);
#117=CIRCLE('',#173,6.);
#118=CIRCLE('',#175,5.5);
#119=CIRCLE('',#178,6.);
#120=CIRCLE('',#179,6.);
#121=CIRCLE('',#182,5.46428571428571);
#122=CIRCLE('',#183,2.25);
#123=CURVE_STYLE('',#127,POSITIVE_LENGTH_MEASURE(0.18),#133);
#124=CURVE_STYLE('',#128,POSITIVE_LENGTH_MEASURE(0.18),#163);
#125=CURVE_STYLE('',#129,POSITIVE_LENGTH_MEASURE(0.18),#164);
#126=CURVE_STYLE('',#130,POSITIVE_LENGTH_MEASURE(0.18),#164);
#127=DRAUGHTING_PRE_DEFINED_CURVE_FONT('continuous');
#128=DRAUGHTING_PRE_DEFINED_CURVE_FONT('continuous');
#129=DRAUGHTING_PRE_DEFINED_CURVE_FONT('continuous');
#130=DRAUGHTING_PRE_DEFINED_CURVE_FONT('continuous');
#131=TRIMMED_CURVE('CUTTING PART LINE',#132,(PARAMETER_VALUE(0.)),(
PARAMETER_VALUE(1.)),.T.,.PARAMETER.);
#132=(
BOUNDED_CURVE()
B_SPLINE_CURVE(3,(#229,#230,#231,#232,#233,#234,#235,#236,#237,#238,#239,
#240,#241,#242,#243,#244),.UNSPECIFIED.,.F.,.F.)
B_SPLINE_CURVE_WITH_KNOTS((4,3,3,3,3,4),(0.,0.0966208986910749,0.215812053191726,
0.291899803740465,0.74754997302993,1.),.UNSPECIFIED.)
CURVE()
GEOMETRIC_REPRESENTATION_ITEM()
RATIONAL_B_SPLINE_CURVE((1.,1.,1.,1.,0.973428736719045,0.973428736719045,
1.,0.882502980698607,0.882502980698607,1.,1.,1.,1.,1.,1.,1.))
REPRESENTATION_ITEM('CUTTING PART LINE')
);
#133=DRAUGHTING_PRE_DEFINED_COLOUR('blue');
#134=PRESENTATION_LAYER_ASSIGNMENT('1','Layer 1',(#225,#226,#227,#228,#131,
#168,#169,#170,#40,#41));
#135=STYLED_ITEM('',(#145),#225);
#136=STYLED_ITEM('',(#146),#226);
#137=STYLED_ITEM('',(#147),#227);
#138=STYLED_ITEM('',(#148),#228);
#139=STYLED_ITEM('',(#149),#131);
#140=STYLED_ITEM('',(#150),#168);
#141=STYLED_ITEM('',(#151),#169);
#142=STYLED_ITEM('',(#152),#170);
#143=STYLED_ITEM('',(#153),#40);
#144=STYLED_ITEM('',(#154),#41);
#145=PRESENTATION_STYLE_ASSIGNMENT((#155));
#146=PRESENTATION_STYLE_ASSIGNMENT((#156));
#147=PRESENTATION_STYLE_ASSIGNMENT((#157));
#148=PRESENTATION_STYLE_ASSIGNMENT((#158));
#149=PRESENTATION_STYLE_ASSIGNMENT((#123));
#150=PRESENTATION_STYLE_ASSIGNMENT((#124));
#151=PRESENTATION_STYLE_ASSIGNMENT((#125));
#152=PRESENTATION_STYLE_ASSIGNMENT((#126));
#153=PRESENTATION_STYLE_ASSIGNMENT((#30));
#154=PRESENTATION_STYLE_ASSIGNMENT((#31));
#155=POINT_STYLE('',#159,POSITIVE_LENGTH_MEASURE(3.),#163);
#156=POINT_STYLE('',#160,POSITIVE_LENGTH_MEASURE(3.),#133);
#157=POINT_STYLE('',#161,POSITIVE_LENGTH_MEASURE(3.),#164);
#158=POINT_STYLE('',#162,POSITIVE_LENGTH_MEASURE(3.),#164);
#159=PRE_DEFINED_POINT_MARKER_SYMBOL('plus');
#160=PRE_DEFINED_POINT_MARKER_SYMBOL('plus');
#161=PRE_DEFINED_POINT_MARKER_SYMBOL('plus');
#162=PRE_DEFINED_POINT_MARKER_SYMBOL('plus');
#163=COLOUR_RGB('Strong Stone',0.576470588235294,0.54508278019379,0.392156862745098);
#164=COLOUR_RGB('Medium Maroon',0.6,0.4,0.4);
#165=COLOUR_RGB('Medium Gray',0.501960784313725,0.501960784313725,0.501960784313725);
#166=COLOUR_RGB('Light Gray',0.8,0.8,0.8);
#167=AXIS2_PLACEMENT_3D('',#224,#186,#187);
#168=AXIS2_PLACEMENT_3D('CIP',#245,#188,#189);
#169=AXIS2_PLACEMENT_3D('PCS',#246,#190,#191);
#170=AXIS2_PLACEMENT_3D('MCS',#247,#192,#193);
#171=AXIS2_PLACEMENT_3D('',#248,#194,#195);
#172=AXIS2_PLACEMENT_3D('',#250,#196,#197);
#173=AXIS2_PLACEMENT_3D('',#251,#198,#199);
#174=AXIS2_PLACEMENT_3D('',#253,#200,#201);
#175=AXIS2_PLACEMENT_3D('',#254,#202,#203);
#176=AXIS2_PLACEMENT_3D('',#256,#204,#205);
#177=AXIS2_PLACEMENT_3D('',#257,#206,#207);
#178=AXIS2_PLACEMENT_3D('',#258,#208,#209);
#179=AXIS2_PLACEMENT_3D('',#260,#210,#211);
#180=AXIS2_PLACEMENT_3D('',#262,#212,#213);
#181=AXIS2_PLACEMENT_3D('',#263,#214,#215);
#182=AXIS2_PLACEMENT_3D('',#264,#216,#217);
#183=AXIS2_PLACEMENT_3D('',#266,#218,#219);
#184=AXIS2_PLACEMENT_3D('',#296,#220,#221);
#185=AXIS2_PLACEMENT_3D('',#297,#222,#223);
#186=DIRECTION('',(0.,0.,1.));
#187=DIRECTION('',(1.,0.,0.));
#188=DIRECTION('',(0.,0.,1.));
#189=DIRECTION('',(1.,0.,0.));
#190=DIRECTION('',(0.,0.,1.));
#191=DIRECTION('',(1.,0.,0.));
#192=DIRECTION('',(0.,0.,1.));
#193=DIRECTION('',(1.,0.,0.));
#194=DIRECTION('',(0.,0.,-1.));
#195=DIRECTION('',(1.,0.,0.));
#196=DIRECTION('',(0.,0.,1.));
#197=DIRECTION('',(1.,0.,0.));
#198=DIRECTION('',(0.,0.,-1.));
#199=DIRECTION('',(1.,0.,0.));
#200=DIRECTION('',(0.,0.,1.));
#201=DIRECTION('',(1.,0.,0.));
#202=DIRECTION('',(0.,0.,1.));
#203=DIRECTION('',(1.,0.,0.));
#204=DIRECTION('',(0.,0.,1.));
#205=DIRECTION('',(1.,0.,0.));
#206=DIRECTION('',(0.,0.,-1.));
#207=DIRECTION('',(-1.,0.,0.));
#208=DIRECTION('',(0.,0.,1.));
#209=DIRECTION('',(-1.,1.22464679914735E-016,0.));
#210=DIRECTION('',(0.,0.,-1.));
#211=DIRECTION('',(-1.,0.,0.));
#212=DIRECTION('',(0.,0.,1.));
#213=DIRECTION('',(1.,0.,0.));
#214=DIRECTION('',(0.,0.,1.));
#215=DIRECTION('',(1.,0.,0.));
#216=DIRECTION('',(0.,0.,1.));
#217=DIRECTION('',(-1.,0.,0.));
#218=DIRECTION('',(0.,0.,-1.));
#219=DIRECTION('',(-1.,0.,0.));
#220=DIRECTION('',(0.,0.,-1.));
#221=DIRECTION('',(-1.,0.,0.));
#222=DIRECTION('',(0.,0.,-1.));
#223=DIRECTION('',(-1.,0.,0.));
#224=CARTESIAN_POINT('',(0.,0.,0.));
#225=CARTESIAN_POINT('CIP',(0.,0.,-93.));
#226=CARTESIAN_POINT('CRP',(6.,0.,-93.));
#227=CARTESIAN_POINT('PCS',(0.,0.,0.));
#228=CARTESIAN_POINT('MCS',(0.,0.,-45.));
#229=CARTESIAN_POINT('',(0.,0.,-93.));
#230=CARTESIAN_POINT('',(0.75,0.,-93.153093108924));
#231=CARTESIAN_POINT('',(1.5,0.,-93.3061862178479));
#232=CARTESIAN_POINT('',(2.25,0.,-93.4592793267719));
#233=CARTESIAN_POINT('',(3.18779047919368,0.,-93.6507050067439));
#234=CARTESIAN_POINT('',(4.14170872050345,0.,-93.5723802806635));
#235=CARTESIAN_POINT('',(5.03571428571427,0.,-93.2305487092848));
#236=CARTESIAN_POINT('',(5.6357762200711,0.,-93.0011092942211));
#237=CARTESIAN_POINT('',(6.00000000000001,0.,-92.4719044110396));
#238=CARTESIAN_POINT('',(6.,0.,-91.829474048861));
#239=CARTESIAN_POINT('',(5.99999999999997,0.,-88.2196493659073));
#240=CARTESIAN_POINT('',(6.,0.,-84.6098246829537));
#241=CARTESIAN_POINT('',(6.,0.,-81.));
#242=CARTESIAN_POINT('',(4.,0.,-81.));
#243=CARTESIAN_POINT('',(2.,0.,-81.));
#244=CARTESIAN_POINT('',(0.,0.,-81.));
#245=CARTESIAN_POINT('',(0.,0.,-93.));
#246=CARTESIAN_POINT('',(0.,0.,0.));
#247=CARTESIAN_POINT('',(0.,0.,-45.));
#248=CARTESIAN_POINT('',(0.,0.,-81.));
#249=CARTESIAN_POINT('',(6.,0.,-81.));
#250=CARTESIAN_POINT('',(0.,0.,-81.));
#251=CARTESIAN_POINT('',(0.,0.,-0.5));
#252=CARTESIAN_POINT('',(6.,0.,-0.5));
#253=CARTESIAN_POINT('',(0.,0.,-89.1));
#254=CARTESIAN_POINT('',(0.,0.,0.));
#255=CARTESIAN_POINT('',(5.5,0.,0.));
#256=CARTESIAN_POINT('',(0.,0.,0.));
#257=CARTESIAN_POINT('',(0.,0.,0.));
#258=CARTESIAN_POINT('',(0.,0.,-81.));
#259=CARTESIAN_POINT('',(-6.,7.34788079488412E-016,-81.));
#260=CARTESIAN_POINT('',(0.,0.,-90.6809513236909));
#261=CARTESIAN_POINT('',(-6.,0.,-90.6809513236909));
#262=CARTESIAN_POINT('',(0.,0.,-94.2));
#263=CARTESIAN_POINT('',(0.,0.,-81.));
#264=CARTESIAN_POINT('',(0.,0.,-91.8299304624156));
#265=CARTESIAN_POINT('',(-5.46428571428571,0.,-91.8299304624156));
#266=CARTESIAN_POINT('',(0.,0.,-93.));
#267=CARTESIAN_POINT('',(-2.25,0.,-93.));
#268=CARTESIAN_POINT('',(-2.25,0.,-93.));
#269=CARTESIAN_POINT('',(-2.25,4.5,-93.));
#270=CARTESIAN_POINT('',(2.25,4.5,-93.));
#271=CARTESIAN_POINT('',(2.25,0.,-93.));
#272=CARTESIAN_POINT('',(2.25,-4.5,-93.));
#273=CARTESIAN_POINT('',(-2.25,-4.5,-93.));
#274=CARTESIAN_POINT('',(-2.25,0.,-93.));
#275=CARTESIAN_POINT('',(-3.43798441987267,0.,-93.));
#276=CARTESIAN_POINT('',(-3.43798441987267,6.87596883974534,-93.));
#277=CARTESIAN_POINT('',(3.43798441987267,6.87596883974534,-93.));
#278=CARTESIAN_POINT('',(3.43798441987267,0.,-93.));
#279=CARTESIAN_POINT('',(3.43798441987267,-6.87596883974534,-93.));
#280=CARTESIAN_POINT('',(-3.43798441987267,-6.87596883974534,-93.));
#281=CARTESIAN_POINT('',(-3.43798441987267,0.,-93.));
#282=CARTESIAN_POINT('',(-4.55430617057661,0.,-92.5936347323337));
#283=CARTESIAN_POINT('',(-4.55430617057661,9.10861234115323,-92.5936347323337));
#284=CARTESIAN_POINT('',(4.55430617057661,9.10861234115323,-92.5936347323337));
#285=CARTESIAN_POINT('',(4.55430617057661,0.,-92.5936347323337));
#286=CARTESIAN_POINT('',(4.55430617057661,-9.10861234115323,-92.5936347323337));
#287=CARTESIAN_POINT('',(-4.55430617057661,-9.10861234115323,-92.5936347323337));
#288=CARTESIAN_POINT('',(-4.55430617057661,0.,-92.5936347323337));
#289=CARTESIAN_POINT('',(-5.4642857142857,0.,-91.8299304624156));
#290=CARTESIAN_POINT('',(-5.4642857142857,10.9285714285714,-91.8299304624156));
#291=CARTESIAN_POINT('',(5.4642857142857,10.9285714285714,-91.8299304624156));
#292=CARTESIAN_POINT('',(5.4642857142857,0.,-91.8299304624156));
#293=CARTESIAN_POINT('',(5.4642857142857,-10.9285714285714,-91.8299304624156));
#294=CARTESIAN_POINT('',(-5.4642857142857,-10.9285714285714,-91.8299304624156));
#295=CARTESIAN_POINT('',(-5.4642857142857,0.,-91.8299304624156));
#296=CARTESIAN_POINT('',(0.,0.,-90.6809513236909));
#297=CARTESIAN_POINT('',(0.,0.,-93.));
#298=MECHANICAL_DESIGN_GEOMETRIC_PRESENTATION_REPRESENTATION('',(#135,#136,
#137,#138,#139,#140,#141,#142,#143,#144),#299);
#299=(
GEOMETRIC_REPRESENTATION_CONTEXT(3)
GLOBAL_UNCERTAINTY_ASSIGNED_CONTEXT((#300))
GLOBAL_UNIT_ASSIGNED_CONTEXT((#306,#302,#301))
REPRESENTATION_CONTEXT('1552661324707','TOP_LEVEL_ASSEMBLY_PART')
);
#300=UNCERTAINTY_MEASURE_WITH_UNIT(LENGTH_MEASURE(0.0254),#306,
'DISTANCE_ACCURACY_VALUE','Maximum Tolerance applied to model');
#301=(
NAMED_UNIT(*)
SI_UNIT($,.STERADIAN.)
SOLID_ANGLE_UNIT()
);
#302=(
CONVERSION_BASED_UNIT('DEGREE',#304)
NAMED_UNIT(#303)
PLANE_ANGLE_UNIT()
);
#303=DIMENSIONAL_EXPONENTS(0.,0.,0.,0.,0.,0.,0.);
#304=PLANE_ANGLE_MEASURE_WITH_UNIT(PLANE_ANGLE_MEASURE(0.0174532925),#305);
#305=(
NAMED_UNIT(*)
PLANE_ANGLE_UNIT()
SI_UNIT($,.RADIAN.)
);
#306=(
LENGTH_UNIT()
NAMED_UNIT(*)
SI_UNIT(.MILLI.,.METRE.)
);
ENDSEC;
END-ISO-10303-21;
