ISO-10303-21;
HEADER;
/* Generated by software containing ST-Developer
 * from STEP Tools, Inc. (www.steptools.com) 
 */
/* OPTION: using custom schema-name function */

FILE_DESCRIPTION(
/* description */ (''),
/* implementation_level */ '2;1');

FILE_NAME(
/* name */ '1552659476556.stp',
/* time_stamp */ '2019-03-15T15:18:13+01:00',
/* author */ (''),
/* organization */ ('SMS'),
/* preprocessor_version */ 'ST-DEVELOPER v15',
/* originating_system */ 'SIEMENS PLM Software NX 8.5',
/* authorisation */ '');

FILE_SCHEMA (('AUTOMOTIVE_DESIGN { 1 0 10303 214 3 1 1 1 }'));
ENDSEC;

DATA;
#10=CONSTRUCTIVE_GEOMETRY_REPRESENTATION_RELATIONSHIP(
'supplemental geometry','',#26,#11);
#11=CONSTRUCTIVE_GEOMETRY_REPRESENTATION('supplemental geometry',(#167,
#168,#169),#298);
#12=GEOMETRICALLY_BOUNDED_WIREFRAME_SHAPE_REPRESENTATION(
'201570380mod000_01-None',(#27),#298);
#13=SHAPE_REPRESENTATION_RELATIONSHIP('None',
'relationship between 201570380mod000_01-None and 201570380mod000_01-N
one',#26,#15);
#14=SHAPE_REPRESENTATION_RELATIONSHIP('None',
'relationship between 201570380mod000_01-None and 201570380mod000_01-N
one',#26,#12);
#15=ADVANCED_BREP_SHAPE_REPRESENTATION('201570380mod000_01-None',(#40,#41),
#298);
#16=SHAPE_DEFINITION_REPRESENTATION(#17,#26);
#17=PRODUCT_DEFINITION_SHAPE('','',#18);
#18=PRODUCT_DEFINITION(' ','',#20,#19);
#19=PRODUCT_DEFINITION_CONTEXT('part definition',#25,'design');
#20=PRODUCT_DEFINITION_FORMATION_WITH_SPECIFIED_SOURCE(' ',' ',#22,
 .NOT_KNOWN.);
#21=PRODUCT_RELATED_PRODUCT_CATEGORY('part','',(#22));
#22=PRODUCT('201570380mod000_01','201570380mod000_01',' ',(#23));
#23=PRODUCT_CONTEXT(' ',#25,'mechanical');
#24=APPLICATION_PROTOCOL_DEFINITION('international standard',
'automotive_design',2010,#25);
#25=APPLICATION_CONTEXT(
'core data for automotive mechanical design processes');
#26=SHAPE_REPRESENTATION('201570380mod000_01-None',(#166),#298);
#27=GEOMETRIC_CURVE_SET('None',(#224,#225,#226,#227,#131));
#28=TOROIDAL_SURFACE('',#183,3.5,1.49999999999999);
#29=(
BOUNDED_SURFACE()
B_SPLINE_SURFACE(3,3,((#267,#268,#269,#270,#271,#272,#273),(#274,#275,#276,
#277,#278,#279,#280),(#281,#282,#283,#284,#285,#286,#287),(#288,#289,#290,
#291,#292,#293,#294)),.UNSPECIFIED.,.F.,.T.,.F.)
B_SPLINE_SURFACE_WITH_KNOTS((4,4),(1,3,3,3,1),(0.,1.),(-0.5,0.,0.5,1.,1.5),
 .UNSPECIFIED.)
GEOMETRIC_REPRESENTATION_ITEM()
RATIONAL_B_SPLINE_SURFACE(((1.,0.333333333333333,0.333333333333333,1.,0.333333333333333,
0.333333333333333,1.),(0.975831740666828,0.325277246888943,0.325277246888943,
0.975831740666828,0.325277246888943,0.325277246888943,0.975831740666828),
(0.975831740666828,0.325277246888943,0.325277246888943,0.975831740666828,
0.325277246888943,0.325277246888943,0.975831740666828),(1.,0.333333333333333,
0.333333333333333,1.,0.333333333333333,0.333333333333333,1.)))
REPRESENTATION_ITEM('')
SURFACE()
);
#30=SURFACE_STYLE_USAGE(.BOTH.,#32);
#31=SURFACE_STYLE_USAGE(.BOTH.,#33);
#32=SURFACE_SIDE_STYLE('',(#34));
#33=SURFACE_SIDE_STYLE('',(#35));
#34=SURFACE_STYLE_FILL_AREA(#36);
#35=SURFACE_STYLE_FILL_AREA(#37);
#36=FILL_AREA_STYLE('',(#38));
#37=FILL_AREA_STYLE('',(#39));
#38=FILL_AREA_STYLE_COLOUR('',#164);
#39=FILL_AREA_STYLE_COLOUR('',#165);
#40=MANIFOLD_SOLID_BREP('NOCUT',#42);
#41=MANIFOLD_SOLID_BREP('CUT',#43);
#42=CLOSED_SHELL('',(#57,#58,#59,#60));
#43=CLOSED_SHELL('',(#61,#62,#63,#64,#65));
#44=CONICAL_SURFACE('',#176,4.5,45.);
#45=CYLINDRICAL_SURFACE('',#173,5.);
#46=CYLINDRICAL_SURFACE('',#179,5.);
#47=FACE_BOUND('',#75,.T.);
#48=FACE_BOUND('',#76,.T.);
#49=FACE_BOUND('',#78,.T.);
#50=FACE_BOUND('',#79,.T.);
#51=FACE_BOUND('',#80,.T.);
#52=FACE_BOUND('',#81,.T.);
#53=FACE_BOUND('',#83,.T.);
#54=FACE_BOUND('',#84,.T.);
#55=FACE_BOUND('',#85,.T.);
#56=FACE_BOUND('',#86,.T.);
#57=ADVANCED_FACE('',(#70),#66,.F.);
#58=ADVANCED_FACE('',(#47,#48),#45,.T.);
#59=ADVANCED_FACE('',(#71),#67,.T.);
#60=ADVANCED_FACE('',(#49,#50),#44,.T.);
#61=ADVANCED_FACE('',(#51,#52),#46,.T.);
#62=ADVANCED_FACE('',(#72),#68,.T.);
#63=ADVANCED_FACE('',(#53,#54),#29,.T.);
#64=ADVANCED_FACE('',(#55,#56),#28,.T.);
#65=ADVANCED_FACE('',(#73),#69,.T.);
#66=PLANE('',#171);
#67=PLANE('',#175);
#68=PLANE('',#180);
#69=PLANE('',#184);
#70=FACE_OUTER_BOUND('',#74,.T.);
#71=FACE_OUTER_BOUND('',#77,.T.);
#72=FACE_OUTER_BOUND('',#82,.T.);
#73=FACE_OUTER_BOUND('',#87,.T.);
#74=EDGE_LOOP('',(#88));
#75=EDGE_LOOP('',(#89));
#76=EDGE_LOOP('',(#90));
#77=EDGE_LOOP('',(#91));
#78=EDGE_LOOP('',(#92));
#79=EDGE_LOOP('',(#93));
#80=EDGE_LOOP('',(#94));
#81=EDGE_LOOP('',(#95));
#82=EDGE_LOOP('',(#96));
#83=EDGE_LOOP('',(#97));
#84=EDGE_LOOP('',(#98));
#85=EDGE_LOOP('',(#99));
#86=EDGE_LOOP('',(#100));
#87=EDGE_LOOP('',(#101));
#88=ORIENTED_EDGE('',*,*,#109,.T.);
#89=ORIENTED_EDGE('',*,*,#110,.T.);
#90=ORIENTED_EDGE('',*,*,#109,.F.);
#91=ORIENTED_EDGE('',*,*,#111,.T.);
#92=ORIENTED_EDGE('',*,*,#110,.F.);
#93=ORIENTED_EDGE('',*,*,#111,.F.);
#94=ORIENTED_EDGE('',*,*,#112,.F.);
#95=ORIENTED_EDGE('',*,*,#113,.F.);
#96=ORIENTED_EDGE('',*,*,#112,.T.);
#97=ORIENTED_EDGE('',*,*,#114,.F.);
#98=ORIENTED_EDGE('',*,*,#115,.F.);
#99=ORIENTED_EDGE('',*,*,#113,.T.);
#100=ORIENTED_EDGE('',*,*,#114,.T.);
#101=ORIENTED_EDGE('',*,*,#115,.T.);
#102=VERTEX_POINT('',#248);
#103=VERTEX_POINT('',#251);
#104=VERTEX_POINT('',#254);
#105=VERTEX_POINT('',#258);
#106=VERTEX_POINT('',#260);
#107=VERTEX_POINT('',#264);
#108=VERTEX_POINT('',#266);
#109=EDGE_CURVE('',#102,#102,#116,.T.);
#110=EDGE_CURVE('',#103,#103,#117,.T.);
#111=EDGE_CURVE('',#104,#104,#118,.T.);
#112=EDGE_CURVE('',#105,#105,#119,.T.);
#113=EDGE_CURVE('',#106,#106,#120,.T.);
#114=EDGE_CURVE('',#107,#107,#121,.T.);
#115=EDGE_CURVE('',#108,#108,#122,.T.);
#116=CIRCLE('',#170,5.);
#117=CIRCLE('',#172,5.);
#118=CIRCLE('',#174,4.5);
#119=CIRCLE('',#177,5.);
#120=CIRCLE('',#178,4.99999999999999);
#121=CIRCLE('',#181,4.27142857142858);
#122=CIRCLE('',#182,1.7);
#123=CURVE_STYLE('',#127,POSITIVE_LENGTH_MEASURE(0.18),#133);
#124=CURVE_STYLE('',#128,POSITIVE_LENGTH_MEASURE(0.18),#163);
#125=CURVE_STYLE('',#129,POSITIVE_LENGTH_MEASURE(0.18),#163);
#126=CURVE_STYLE('',#130,POSITIVE_LENGTH_MEASURE(0.18),#163);
#127=DRAUGHTING_PRE_DEFINED_CURVE_FONT('continuous');
#128=DRAUGHTING_PRE_DEFINED_CURVE_FONT('continuous');
#129=DRAUGHTING_PRE_DEFINED_CURVE_FONT('continuous');
#130=DRAUGHTING_PRE_DEFINED_CURVE_FONT('continuous');
#131=TRIMMED_CURVE('CUTTING PART LINE',#132,(PARAMETER_VALUE(0.)),(
PARAMETER_VALUE(1.)),.T.,.PARAMETER.);
#132=(
BOUNDED_CURVE()
B_SPLINE_CURVE(3,(#228,#229,#230,#231,#232,#233,#234,#235,#236,#237,#238,
#239,#240,#241,#242,#243),.UNSPECIFIED.,.F.,.F.)
B_SPLINE_CURVE_WITH_KNOTS((4,3,3,3,3,4),(0.,0.143067772586358,0.829840757017006,
0.874075384740024,0.951356957320638,1.),.UNSPECIFIED.)
CURVE()
GEOMETRIC_REPRESENTATION_ITEM()
RATIONAL_B_SPLINE_CURVE((1.,1.,1.,1.,1.,1.,1.,0.913426374584422,0.913426374584421,
1.,0.975831740666829,0.975831740666829,1.,1.,1.,1.))
REPRESENTATION_ITEM('CUTTING PART LINE')
);
#133=DRAUGHTING_PRE_DEFINED_COLOUR('blue');
#134=PRESENTATION_LAYER_ASSIGNMENT('1','Layer 1',(#224,#225,#226,#227,#131,
#167,#168,#169,#40,#41));
#135=STYLED_ITEM('',(#145),#224);
#136=STYLED_ITEM('',(#146),#225);
#137=STYLED_ITEM('',(#147),#226);
#138=STYLED_ITEM('',(#148),#227);
#139=STYLED_ITEM('',(#149),#131);
#140=STYLED_ITEM('',(#150),#167);
#141=STYLED_ITEM('',(#151),#168);
#142=STYLED_ITEM('',(#152),#169);
#143=STYLED_ITEM('',(#153),#40);
#144=STYLED_ITEM('',(#154),#41);
#145=PRESENTATION_STYLE_ASSIGNMENT((#155));
#146=PRESENTATION_STYLE_ASSIGNMENT((#156));
#147=PRESENTATION_STYLE_ASSIGNMENT((#157));
#148=PRESENTATION_STYLE_ASSIGNMENT((#158));
#149=PRESENTATION_STYLE_ASSIGNMENT((#123));
#150=PRESENTATION_STYLE_ASSIGNMENT((#124));
#151=PRESENTATION_STYLE_ASSIGNMENT((#125));
#152=PRESENTATION_STYLE_ASSIGNMENT((#126));
#153=PRESENTATION_STYLE_ASSIGNMENT((#30));
#154=PRESENTATION_STYLE_ASSIGNMENT((#31));
#155=POINT_STYLE('',#159,POSITIVE_LENGTH_MEASURE(3.),#163);
#156=POINT_STYLE('',#160,POSITIVE_LENGTH_MEASURE(3.),#163);
#157=POINT_STYLE('',#161,POSITIVE_LENGTH_MEASURE(3.),#163);
#158=POINT_STYLE('',#162,POSITIVE_LENGTH_MEASURE(3.),#133);
#159=PRE_DEFINED_POINT_MARKER_SYMBOL('plus');
#160=PRE_DEFINED_POINT_MARKER_SYMBOL('plus');
#161=PRE_DEFINED_POINT_MARKER_SYMBOL('plus');
#162=PRE_DEFINED_POINT_MARKER_SYMBOL('plus');
#163=COLOUR_RGB('Strong Stone',0.576470588235294,0.54508278019379,0.392156862745098);
#164=COLOUR_RGB('Medium Gray',0.501960784313725,0.501960784313725,0.501960784313725);
#165=COLOUR_RGB('Light Gray',0.8,0.8,0.8);
#166=AXIS2_PLACEMENT_3D('',#223,#185,#186);
#167=AXIS2_PLACEMENT_3D('PCS',#244,#187,#188);
#168=AXIS2_PLACEMENT_3D('CIP',#245,#189,#190);
#169=AXIS2_PLACEMENT_3D('MCS',#246,#191,#192);
#170=AXIS2_PLACEMENT_3D('',#247,#193,#194);
#171=AXIS2_PLACEMENT_3D('',#249,#195,#196);
#172=AXIS2_PLACEMENT_3D('',#250,#197,#198);
#173=AXIS2_PLACEMENT_3D('',#252,#199,#200);
#174=AXIS2_PLACEMENT_3D('',#253,#201,#202);
#175=AXIS2_PLACEMENT_3D('',#255,#203,#204);
#176=AXIS2_PLACEMENT_3D('',#256,#205,#206);
#177=AXIS2_PLACEMENT_3D('',#257,#207,#208);
#178=AXIS2_PLACEMENT_3D('',#259,#209,#210);
#179=AXIS2_PLACEMENT_3D('',#261,#211,#212);
#180=AXIS2_PLACEMENT_3D('',#262,#213,#214);
#181=AXIS2_PLACEMENT_3D('',#263,#215,#216);
#182=AXIS2_PLACEMENT_3D('',#265,#217,#218);
#183=AXIS2_PLACEMENT_3D('',#295,#219,#220);
#184=AXIS2_PLACEMENT_3D('',#296,#221,#222);
#185=DIRECTION('',(0.,0.,1.));
#186=DIRECTION('',(1.,0.,0.));
#187=DIRECTION('',(0.,0.,1.));
#188=DIRECTION('',(1.,0.,0.));
#189=DIRECTION('',(0.,0.,1.));
#190=DIRECTION('',(1.,0.,0.));
#191=DIRECTION('',(0.,0.,1.));
#192=DIRECTION('',(1.,0.,0.));
#193=DIRECTION('',(0.,0.,-1.));
#194=DIRECTION('',(1.,0.,0.));
#195=DIRECTION('',(0.,0.,1.));
#196=DIRECTION('',(1.,0.,0.));
#197=DIRECTION('',(0.,0.,-1.));
#198=DIRECTION('',(1.,0.,0.));
#199=DIRECTION('',(0.,0.,1.));
#200=DIRECTION('',(1.,0.,0.));
#201=DIRECTION('',(0.,0.,1.));
#202=DIRECTION('',(1.,0.,0.));
#203=DIRECTION('',(0.,0.,1.));
#204=DIRECTION('',(1.,0.,0.));
#205=DIRECTION('',(0.,0.,-1.));
#206=DIRECTION('',(-1.,0.,0.));
#207=DIRECTION('',(0.,0.,1.));
#208=DIRECTION('',(-1.,1.22464679914735E-016,0.));
#209=DIRECTION('',(0.,0.,-1.));
#210=DIRECTION('',(-1.,0.,0.));
#211=DIRECTION('',(0.,0.,1.));
#212=DIRECTION('',(1.,0.,0.));
#213=DIRECTION('',(0.,0.,1.));
#214=DIRECTION('',(1.,0.,0.));
#215=DIRECTION('',(0.,0.,1.));
#216=DIRECTION('',(-1.,0.,0.));
#217=DIRECTION('',(0.,0.,-1.));
#218=DIRECTION('',(-1.,0.,0.));
#219=DIRECTION('',(0.,0.,-1.));
#220=DIRECTION('',(-1.,0.,0.));
#221=DIRECTION('',(0.,0.,-1.));
#222=DIRECTION('',(-1.,0.,0.));
#223=CARTESIAN_POINT('',(0.,0.,0.));
#224=CARTESIAN_POINT('PCS',(0.,0.,0.));
#225=CARTESIAN_POINT('CIP',(0.,0.,-72.));
#226=CARTESIAN_POINT('MCS',(0.,0.,-40.));
#227=CARTESIAN_POINT('CRP',(5.,0.,-72.));
#228=CARTESIAN_POINT('',(0.,0.,-46.));
#229=CARTESIAN_POINT('',(1.66666666666668,0.,-46.));
#230=CARTESIAN_POINT('',(3.33333333333335,0.,-46.));
#231=CARTESIAN_POINT('',(5.00000000000003,0.,-46.));
#232=CARTESIAN_POINT('',(5.00000000000002,0.,-54.0005554013202));
#233=CARTESIAN_POINT('',(5.00000000000002,0.,-62.0011108026405));
#234=CARTESIAN_POINT('',(5.00000000000002,0.,-70.0016662039607));
#235=CARTESIAN_POINT('',(5.00000000000002,0.,-70.5411791784232));
#236=CARTESIAN_POINT('',(4.73412510344075,0.,-71.0106307616489));
#237=CARTESIAN_POINT('',(4.2714285714286,0.,-71.2880945770868));
#238=CARTESIAN_POINT('',(3.48978401661708,0.,-71.7568209787114));
#239=CARTESIAN_POINT('',(2.61141244760343,0.,-72.));
#240=CARTESIAN_POINT('',(1.70000000000003,0.,-72.));
#241=CARTESIAN_POINT('',(1.13333333333335,0.,-72.));
#242=CARTESIAN_POINT('',(0.566666666666673,0.,-72.));
#243=CARTESIAN_POINT('',(0.,0.,-72.));
#244=CARTESIAN_POINT('',(0.,0.,0.));
#245=CARTESIAN_POINT('',(0.,0.,-72.));
#246=CARTESIAN_POINT('',(0.,0.,-40.));
#247=CARTESIAN_POINT('',(0.,0.,-46.));
#248=CARTESIAN_POINT('',(5.,0.,-46.));
#249=CARTESIAN_POINT('',(0.,0.,-46.));
#250=CARTESIAN_POINT('',(0.,0.,-0.5));
#251=CARTESIAN_POINT('',(5.,0.,-0.5));
#252=CARTESIAN_POINT('',(0.,0.,-50.6));
#253=CARTESIAN_POINT('',(0.,0.,0.));
#254=CARTESIAN_POINT('',(4.5,0.,0.));
#255=CARTESIAN_POINT('',(0.,0.,0.));
#256=CARTESIAN_POINT('',(0.,0.,0.));
#257=CARTESIAN_POINT('',(0.,0.,-46.));
#258=CARTESIAN_POINT('',(-5.,6.12323399573677E-016,-46.));
#259=CARTESIAN_POINT('',(0.,0.,-70.0016662039607));
#260=CARTESIAN_POINT('',(-4.99999999999999,0.,-70.0016662039607));
#261=CARTESIAN_POINT('',(0.,0.,-74.6));
#262=CARTESIAN_POINT('',(0.,0.,-46.));
#263=CARTESIAN_POINT('',(0.,0.,-71.2880945770868));
#264=CARTESIAN_POINT('',(-4.27142857142858,0.,-71.2880945770868));
#265=CARTESIAN_POINT('',(0.,0.,-72.));
#266=CARTESIAN_POINT('',(-1.7,0.,-72.));
#267=CARTESIAN_POINT('',(-1.7,0.,-72.));
#268=CARTESIAN_POINT('',(-1.7,3.4,-72.));
#269=CARTESIAN_POINT('',(1.7,3.4,-72.));
#270=CARTESIAN_POINT('',(1.7,0.,-72.));
#271=CARTESIAN_POINT('',(1.7,-3.4,-72.));
#272=CARTESIAN_POINT('',(-1.7,-3.4,-72.));
#273=CARTESIAN_POINT('',(-1.7,0.,-72.));
#274=CARTESIAN_POINT('',(-2.61141244760341,0.,-72.));
#275=CARTESIAN_POINT('',(-2.61141244760341,5.22282489520682,-72.));
#276=CARTESIAN_POINT('',(2.61141244760341,5.22282489520682,-72.));
#277=CARTESIAN_POINT('',(2.61141244760341,0.,-72.));
#278=CARTESIAN_POINT('',(2.61141244760341,-5.22282489520682,-72.));
#279=CARTESIAN_POINT('',(-2.61141244760341,-5.22282489520682,-72.));
#280=CARTESIAN_POINT('',(-2.61141244760341,0.,-72.));
#281=CARTESIAN_POINT('',(-3.48978401661708,0.,-71.7568209787114));
#282=CARTESIAN_POINT('',(-3.48978401661708,6.97956803323415,-71.7568209787114));
#283=CARTESIAN_POINT('',(3.48978401661708,6.97956803323415,-71.7568209787114));
#284=CARTESIAN_POINT('',(3.48978401661708,0.,-71.7568209787114));
#285=CARTESIAN_POINT('',(3.48978401661708,-6.97956803323415,-71.7568209787114));
#286=CARTESIAN_POINT('',(-3.48978401661708,-6.97956803323415,-71.7568209787114));
#287=CARTESIAN_POINT('',(-3.48978401661708,0.,-71.7568209787114));
#288=CARTESIAN_POINT('',(-4.27142857142858,0.,-71.2880945770868));
#289=CARTESIAN_POINT('',(-4.27142857142858,8.54285714285717,-71.2880945770868));
#290=CARTESIAN_POINT('',(4.27142857142858,8.54285714285717,-71.2880945770868));
#291=CARTESIAN_POINT('',(4.27142857142858,0.,-71.2880945770868));
#292=CARTESIAN_POINT('',(4.27142857142858,-8.54285714285717,-71.2880945770868));
#293=CARTESIAN_POINT('',(-4.27142857142858,-8.54285714285717,-71.2880945770868));
#294=CARTESIAN_POINT('',(-4.27142857142858,0.,-71.2880945770868));
#295=CARTESIAN_POINT('',(0.,0.,-70.0016662039607));
#296=CARTESIAN_POINT('',(0.,0.,-72.));
#297=MECHANICAL_DESIGN_GEOMETRIC_PRESENTATION_REPRESENTATION('',(#135,#136,
#137,#138,#139,#140,#141,#142,#143,#144),#298);
#298=(
GEOMETRIC_REPRESENTATION_CONTEXT(3)
GLOBAL_UNCERTAINTY_ASSIGNED_CONTEXT((#299))
GLOBAL_UNIT_ASSIGNED_CONTEXT((#305,#301,#300))
REPRESENTATION_CONTEXT('1552659476556','TOP_LEVEL_ASSEMBLY_PART')
);
#299=UNCERTAINTY_MEASURE_WITH_UNIT(LENGTH_MEASURE(0.0254),#305,
'DISTANCE_ACCURACY_VALUE','Maximum Tolerance applied to model');
#300=(
NAMED_UNIT(*)
SI_UNIT($,.STERADIAN.)
SOLID_ANGLE_UNIT()
);
#301=(
CONVERSION_BASED_UNIT('DEGREE',#303)
NAMED_UNIT(#302)
PLANE_ANGLE_UNIT()
);
#302=DIMENSIONAL_EXPONENTS(0.,0.,0.,0.,0.,0.,0.);
#303=PLANE_ANGLE_MEASURE_WITH_UNIT(PLANE_ANGLE_MEASURE(0.0174532925),#304);
#304=(
NAMED_UNIT(*)
PLANE_ANGLE_UNIT()
SI_UNIT($,.RADIAN.)
);
#305=(
LENGTH_UNIT()
NAMED_UNIT(*)
SI_UNIT(.MILLI.,.METRE.)
);
ENDSEC;
END-ISO-10303-21;
