ISO-10303-21;
HEADER;
/* Generated by software containing ST-Developer
 * from STEP Tools, Inc. (www.steptools.com) 
 */
/* OPTION: using custom schema-name function */

FILE_DESCRIPTION(
/* description */ (''),
/* implementation_level */ '2;1');

FILE_NAME(
/* name */ '1552559656622.stp',
/* time_stamp */ '2019-03-14T11:34:34+01:00',
/* author */ (''),
/* organization */ ('SMS'),
/* preprocessor_version */ 'ST-DEVELOPER v15',
/* originating_system */ 'SIEMENS PLM Software NX 8.5',
/* authorisation */ '');

FILE_SCHEMA (('AUTOMOTIVE_DESIGN { 1 0 10303 214 3 1 1 1 }'));
ENDSEC;

DATA;
#10=CONSTRUCTIVE_GEOMETRY_REPRESENTATION_RELATIONSHIP(
'supplemental geometry','',#26,#11);
#11=CONSTRUCTIVE_GEOMETRY_REPRESENTATION('supplemental geometry',(#189,
#190,#191),#314);
#12=GEOMETRICALLY_BOUNDED_WIREFRAME_SHAPE_REPRESENTATION(
'201567286mod000_01-None',(#27),#314);
#13=SHAPE_REPRESENTATION_RELATIONSHIP('None',
'relationship between 201567286mod000_01-None and 201567286mod000_01-N
one',#26,#15);
#14=SHAPE_REPRESENTATION_RELATIONSHIP('None',
'relationship between 201567286mod000_01-None and 201567286mod000_01-N
one',#26,#12);
#15=ADVANCED_BREP_SHAPE_REPRESENTATION('201567286mod000_01-None',(#40,#41),
#314);
#16=SHAPE_DEFINITION_REPRESENTATION(#17,#26);
#17=PRODUCT_DEFINITION_SHAPE('','',#18);
#18=PRODUCT_DEFINITION(' ','',#20,#19);
#19=PRODUCT_DEFINITION_CONTEXT('part definition',#25,'design');
#20=PRODUCT_DEFINITION_FORMATION_WITH_SPECIFIED_SOURCE(' ',' ',#22,
 .NOT_KNOWN.);
#21=PRODUCT_RELATED_PRODUCT_CATEGORY('part','',(#22));
#22=PRODUCT('201567286mod000_01','201567286mod000_01',' ',(#23));
#23=PRODUCT_CONTEXT(' ',#25,'mechanical');
#24=APPLICATION_PROTOCOL_DEFINITION('international standard',
'automotive_design',2010,#25);
#25=APPLICATION_CONTEXT(
'core data for automotive mechanical design processes');
#26=SHAPE_REPRESENTATION('201567286mod000_01-None',(#188),#314);
#27=GEOMETRIC_CURVE_SET('None',(#261,#262,#263,#264,#153));
#28=TOROIDAL_SURFACE('',#208,4.,2.);
#29=TOROIDAL_SURFACE('',#210,4.,2.);
#30=SURFACE_STYLE_USAGE(.BOTH.,#32);
#31=SURFACE_STYLE_USAGE(.BOTH.,#33);
#32=SURFACE_SIDE_STYLE('',(#34));
#33=SURFACE_SIDE_STYLE('',(#35));
#34=SURFACE_STYLE_FILL_AREA(#36);
#35=SURFACE_STYLE_FILL_AREA(#37);
#36=FILL_AREA_STYLE('',(#38));
#37=FILL_AREA_STYLE('',(#39));
#38=FILL_AREA_STYLE_COLOUR('',#186);
#39=FILL_AREA_STYLE_COLOUR('',#187);
#40=MANIFOLD_SOLID_BREP('NOCUT',#42);
#41=MANIFOLD_SOLID_BREP('CUT',#43);
#42=CLOSED_SHELL('',(#54,#55,#56,#57,#58,#59));
#43=CLOSED_SHELL('',(#60,#61,#62,#63,#64));
#44=CONICAL_SURFACE('',#197,5.5,45.);
#45=CONICAL_SURFACE('',#202,6.,30.);
#46=PLANE('',#196);
#47=PLANE('',#199);
#48=PLANE('',#207);
#49=PLANE('',#211);
#50=FACE_OUTER_BOUND('',#84,.T.);
#51=FACE_OUTER_BOUND('',#87,.T.);
#52=FACE_OUTER_BOUND('',#94,.T.);
#53=FACE_OUTER_BOUND('',#99,.T.);
#54=ADVANCED_FACE('',(#68,#69),#65,.T.);
#55=ADVANCED_FACE('',(#50),#46,.T.);
#56=ADVANCED_FACE('',(#70,#71),#44,.T.);
#57=ADVANCED_FACE('',(#51),#47,.F.);
#58=ADVANCED_FACE('',(#72,#73),#66,.T.);
#59=ADVANCED_FACE('',(#74,#75),#45,.T.);
#60=ADVANCED_FACE('',(#76,#77),#67,.T.);
#61=ADVANCED_FACE('',(#52),#48,.T.);
#62=ADVANCED_FACE('',(#78,#79),#28,.T.);
#63=ADVANCED_FACE('',(#80,#81),#29,.T.);
#64=ADVANCED_FACE('',(#53),#49,.T.);
#65=CYLINDRICAL_SURFACE('',#194,6.);
#66=CYLINDRICAL_SURFACE('',#201,5.7);
#67=CYLINDRICAL_SURFACE('',#205,6.);
#68=FACE_BOUND('',#82,.T.);
#69=FACE_BOUND('',#83,.T.);
#70=FACE_BOUND('',#85,.T.);
#71=FACE_BOUND('',#86,.T.);
#72=FACE_BOUND('',#88,.T.);
#73=FACE_BOUND('',#89,.T.);
#74=FACE_BOUND('',#90,.T.);
#75=FACE_BOUND('',#91,.T.);
#76=FACE_BOUND('',#92,.T.);
#77=FACE_BOUND('',#93,.T.);
#78=FACE_BOUND('',#95,.T.);
#79=FACE_BOUND('',#96,.T.);
#80=FACE_BOUND('',#97,.T.);
#81=FACE_BOUND('',#98,.T.);
#82=EDGE_LOOP('',(#100));
#83=EDGE_LOOP('',(#101));
#84=EDGE_LOOP('',(#102));
#85=EDGE_LOOP('',(#103));
#86=EDGE_LOOP('',(#104));
#87=EDGE_LOOP('',(#105));
#88=EDGE_LOOP('',(#106));
#89=EDGE_LOOP('',(#107));
#90=EDGE_LOOP('',(#108));
#91=EDGE_LOOP('',(#109));
#92=EDGE_LOOP('',(#110));
#93=EDGE_LOOP('',(#111));
#94=EDGE_LOOP('',(#112));
#95=EDGE_LOOP('',(#113));
#96=EDGE_LOOP('',(#114));
#97=EDGE_LOOP('',(#115));
#98=EDGE_LOOP('',(#116));
#99=EDGE_LOOP('',(#117));
#100=ORIENTED_EDGE('',*,*,#127,.T.);
#101=ORIENTED_EDGE('',*,*,#128,.F.);
#102=ORIENTED_EDGE('',*,*,#129,.T.);
#103=ORIENTED_EDGE('',*,*,#127,.F.);
#104=ORIENTED_EDGE('',*,*,#129,.F.);
#105=ORIENTED_EDGE('',*,*,#130,.T.);
#106=ORIENTED_EDGE('',*,*,#131,.T.);
#107=ORIENTED_EDGE('',*,*,#130,.F.);
#108=ORIENTED_EDGE('',*,*,#131,.F.);
#109=ORIENTED_EDGE('',*,*,#128,.T.);
#110=ORIENTED_EDGE('',*,*,#132,.T.);
#111=ORIENTED_EDGE('',*,*,#133,.T.);
#112=ORIENTED_EDGE('',*,*,#134,.T.);
#113=ORIENTED_EDGE('',*,*,#134,.F.);
#114=ORIENTED_EDGE('',*,*,#132,.F.);
#115=ORIENTED_EDGE('',*,*,#135,.T.);
#116=ORIENTED_EDGE('',*,*,#133,.F.);
#117=ORIENTED_EDGE('',*,*,#135,.F.);
#118=VERTEX_POINT('',#285);
#119=VERTEX_POINT('',#287);
#120=VERTEX_POINT('',#290);
#121=VERTEX_POINT('',#294);
#122=VERTEX_POINT('',#297);
#123=VERTEX_POINT('',#301);
#124=VERTEX_POINT('',#303);
#125=VERTEX_POINT('',#306);
#126=VERTEX_POINT('',#310);
#127=EDGE_CURVE('',#118,#118,#136,.T.);
#128=EDGE_CURVE('',#119,#119,#137,.T.);
#129=EDGE_CURVE('',#120,#120,#138,.T.);
#130=EDGE_CURVE('',#121,#121,#139,.T.);
#131=EDGE_CURVE('',#122,#122,#140,.T.);
#132=EDGE_CURVE('',#123,#123,#141,.T.);
#133=EDGE_CURVE('',#124,#124,#142,.T.);
#134=EDGE_CURVE('',#125,#125,#143,.T.);
#135=EDGE_CURVE('',#126,#126,#144,.T.);
#136=CIRCLE('',#192,6.);
#137=CIRCLE('',#193,6.);
#138=CIRCLE('',#195,5.5);
#139=CIRCLE('',#198,5.7);
#140=CIRCLE('',#200,5.7);
#141=CIRCLE('',#203,6.);
#142=CIRCLE('',#204,6.);
#143=CIRCLE('',#206,4.);
#144=CIRCLE('',#209,5.7);
#145=CURVE_STYLE('',#149,POSITIVE_LENGTH_MEASURE(0.18),#155);
#146=CURVE_STYLE('',#150,POSITIVE_LENGTH_MEASURE(0.18),#185);
#147=CURVE_STYLE('',#151,POSITIVE_LENGTH_MEASURE(0.18),#185);
#148=CURVE_STYLE('',#152,POSITIVE_LENGTH_MEASURE(0.18),#185);
#149=DRAUGHTING_PRE_DEFINED_CURVE_FONT('continuous');
#150=DRAUGHTING_PRE_DEFINED_CURVE_FONT('continuous');
#151=DRAUGHTING_PRE_DEFINED_CURVE_FONT('continuous');
#152=DRAUGHTING_PRE_DEFINED_CURVE_FONT('continuous');
#153=TRIMMED_CURVE('CUTTING PART LINE',#154,(PARAMETER_VALUE(0.)),(
PARAMETER_VALUE(1.)),.T.,.PARAMETER.);
#154=(
BOUNDED_CURVE()
B_SPLINE_CURVE(3,(#265,#266,#267,#268,#269,#270,#271,#272,#273,#274,#275,
#276,#277,#278,#279,#280),.UNSPECIFIED.,.F.,.F.)
B_SPLINE_CURVE_WITH_KNOTS((4,3,3,3,3,4),(0.,0.190919402191383,0.340867150028897,
0.674977756503927,0.72793985187525,1.),.UNSPECIFIED.)
CURVE()
GEOMETRIC_REPRESENTATION_ITEM()
RATIONAL_B_SPLINE_CURVE((1.,1.,1.,1.,0.804737854124365,0.804737854124365,
1.,1.,1.,1.,0.974512802055711,0.974512802055711,1.,1.,1.,1.))
REPRESENTATION_ITEM('CUTTING PART LINE')
);
#155=DRAUGHTING_PRE_DEFINED_COLOUR('blue');
#156=PRESENTATION_LAYER_ASSIGNMENT('1','Layer 1',(#261,#262,#263,#264,#153,
#189,#190,#191,#40,#41));
#157=STYLED_ITEM('',(#167),#261);
#158=STYLED_ITEM('',(#168),#262);
#159=STYLED_ITEM('',(#169),#263);
#160=STYLED_ITEM('',(#170),#264);
#161=STYLED_ITEM('',(#171),#153);
#162=STYLED_ITEM('',(#172),#189);
#163=STYLED_ITEM('',(#173),#190);
#164=STYLED_ITEM('',(#174),#191);
#165=STYLED_ITEM('',(#175),#40);
#166=STYLED_ITEM('',(#176),#41);
#167=PRESENTATION_STYLE_ASSIGNMENT((#177));
#168=PRESENTATION_STYLE_ASSIGNMENT((#178));
#169=PRESENTATION_STYLE_ASSIGNMENT((#179));
#170=PRESENTATION_STYLE_ASSIGNMENT((#180));
#171=PRESENTATION_STYLE_ASSIGNMENT((#145));
#172=PRESENTATION_STYLE_ASSIGNMENT((#146));
#173=PRESENTATION_STYLE_ASSIGNMENT((#147));
#174=PRESENTATION_STYLE_ASSIGNMENT((#148));
#175=PRESENTATION_STYLE_ASSIGNMENT((#30));
#176=PRESENTATION_STYLE_ASSIGNMENT((#31));
#177=POINT_STYLE('',#181,POSITIVE_LENGTH_MEASURE(3.),#185);
#178=POINT_STYLE('',#182,POSITIVE_LENGTH_MEASURE(3.),#185);
#179=POINT_STYLE('',#183,POSITIVE_LENGTH_MEASURE(3.),#185);
#180=POINT_STYLE('',#184,POSITIVE_LENGTH_MEASURE(3.),#155);
#181=PRE_DEFINED_POINT_MARKER_SYMBOL('plus');
#182=PRE_DEFINED_POINT_MARKER_SYMBOL('plus');
#183=PRE_DEFINED_POINT_MARKER_SYMBOL('plus');
#184=PRE_DEFINED_POINT_MARKER_SYMBOL('plus');
#185=COLOUR_RGB('Strong Stone',0.576470588235294,0.54508278019379,0.392156862745098);
#186=COLOUR_RGB('Medium Gray',0.501960784313725,0.501960784313725,0.501960784313725);
#187=COLOUR_RGB('Light Gray',0.8,0.8,0.8);
#188=AXIS2_PLACEMENT_3D('',#260,#212,#213);
#189=AXIS2_PLACEMENT_3D('PCS',#281,#214,#215);
#190=AXIS2_PLACEMENT_3D('CIP',#282,#216,#217);
#191=AXIS2_PLACEMENT_3D('MCS',#283,#218,#219);
#192=AXIS2_PLACEMENT_3D('',#284,#220,#221);
#193=AXIS2_PLACEMENT_3D('',#286,#222,#223);
#194=AXIS2_PLACEMENT_3D('',#288,#224,#225);
#195=AXIS2_PLACEMENT_3D('',#289,#226,#227);
#196=AXIS2_PLACEMENT_3D('',#291,#228,#229);
#197=AXIS2_PLACEMENT_3D('',#292,#230,#231);
#198=AXIS2_PLACEMENT_3D('',#293,#232,#233);
#199=AXIS2_PLACEMENT_3D('',#295,#234,#235);
#200=AXIS2_PLACEMENT_3D('',#296,#236,#237);
#201=AXIS2_PLACEMENT_3D('',#298,#238,#239);
#202=AXIS2_PLACEMENT_3D('',#299,#240,#241);
#203=AXIS2_PLACEMENT_3D('',#300,#242,#243);
#204=AXIS2_PLACEMENT_3D('',#302,#244,#245);
#205=AXIS2_PLACEMENT_3D('',#304,#246,#247);
#206=AXIS2_PLACEMENT_3D('',#305,#248,#249);
#207=AXIS2_PLACEMENT_3D('',#307,#250,#251);
#208=AXIS2_PLACEMENT_3D('',#308,#252,#253);
#209=AXIS2_PLACEMENT_3D('',#309,#254,#255);
#210=AXIS2_PLACEMENT_3D('',#311,#256,#257);
#211=AXIS2_PLACEMENT_3D('',#312,#258,#259);
#212=DIRECTION('',(0.,0.,1.));
#213=DIRECTION('',(1.,0.,0.));
#214=DIRECTION('',(0.,0.,1.));
#215=DIRECTION('',(1.,0.,0.));
#216=DIRECTION('',(0.,0.,1.));
#217=DIRECTION('',(1.,0.,0.));
#218=DIRECTION('',(0.,0.,1.));
#219=DIRECTION('',(1.,0.,0.));
#220=DIRECTION('',(0.,0.,-1.));
#221=DIRECTION('',(1.,0.,0.));
#222=DIRECTION('',(0.,0.,-1.));
#223=DIRECTION('',(1.,0.,0.));
#224=DIRECTION('',(0.,0.,1.));
#225=DIRECTION('',(1.,0.,0.));
#226=DIRECTION('',(0.,0.,1.));
#227=DIRECTION('',(1.,0.,0.));
#228=DIRECTION('',(0.,0.,1.));
#229=DIRECTION('',(1.,0.,0.));
#230=DIRECTION('',(0.,0.,-1.));
#231=DIRECTION('',(-1.,0.,0.));
#232=DIRECTION('',(0.,0.,-1.));
#233=DIRECTION('',(1.,0.,0.));
#234=DIRECTION('',(0.,0.,1.));
#235=DIRECTION('',(1.,0.,0.));
#236=DIRECTION('',(0.,0.,-1.));
#237=DIRECTION('',(1.,0.,0.));
#238=DIRECTION('',(0.,0.,1.));
#239=DIRECTION('',(1.,0.,0.));
#240=DIRECTION('',(0.,0.,1.));
#241=DIRECTION('',(1.,0.,4.75796053958905E-017));
#242=DIRECTION('',(0.,0.,1.));
#243=DIRECTION('',(-1.,0.,0.));
#244=DIRECTION('',(0.,0.,-1.));
#245=DIRECTION('',(-1.,0.,0.));
#246=DIRECTION('',(0.,0.,1.));
#247=DIRECTION('',(1.,0.,0.));
#248=DIRECTION('',(0.,0.,-1.));
#249=DIRECTION('',(-1.,0.,0.));
#250=DIRECTION('',(0.,0.,-1.));
#251=DIRECTION('',(-1.,0.,0.));
#252=DIRECTION('',(0.,0.,-1.));
#253=DIRECTION('',(-1.,0.,0.));
#254=DIRECTION('',(0.,0.,-1.));
#255=DIRECTION('',(-1.,0.,0.));
#256=DIRECTION('',(0.,0.,-1.));
#257=DIRECTION('',(-1.,0.,0.));
#258=DIRECTION('',(0.,0.,1.));
#259=DIRECTION('',(1.,0.,0.));
#260=CARTESIAN_POINT('',(0.,0.,0.));
#261=CARTESIAN_POINT('PCS',(0.,0.,0.));
#262=CARTESIAN_POINT('CIP',(0.,0.,-65.));
#263=CARTESIAN_POINT('MCS',(0.,0.,-45.));
#264=CARTESIAN_POINT('CRP',(6.,0.,-65.));
#265=CARTESIAN_POINT('',(0.,0.,-65.));
#266=CARTESIAN_POINT('',(1.33333333333333,0.,-65.));
#267=CARTESIAN_POINT('',(2.66666666666667,0.,-65.));
#268=CARTESIAN_POINT('',(4.,0.,-65.));
#269=CARTESIAN_POINT('',(5.17157287525381,0.,-65.));
#270=CARTESIAN_POINT('',(6.,0.,-64.1715728752538));
#271=CARTESIAN_POINT('',(6.,0.,-63.));
#272=CARTESIAN_POINT('',(6.,0.,-60.6666551250951));
#273=CARTESIAN_POINT('',(6.,0.,-58.3333102501902));
#274=CARTESIAN_POINT('',(6.,0.,-55.9999653752853));
#275=CARTESIAN_POINT('',(6.,0.,-55.6252669917444));
#276=CARTESIAN_POINT('',(5.89738462153698,0.,-55.2648936260097));
#277=CARTESIAN_POINT('',(5.7,0.,-54.9464));
#278=CARTESIAN_POINT('',(3.8,0.,-54.9464));
#279=CARTESIAN_POINT('',(1.9,0.,-54.9464));
#280=CARTESIAN_POINT('',(0.,0.,-54.9464));
#281=CARTESIAN_POINT('',(0.,0.,0.));
#282=CARTESIAN_POINT('',(0.,0.,-65.));
#283=CARTESIAN_POINT('',(0.,0.,-45.));
#284=CARTESIAN_POINT('',(0.,0.,-0.5));
#285=CARTESIAN_POINT('',(6.,0.,-0.5));
#286=CARTESIAN_POINT('',(0.,0.,-46.4804));
#287=CARTESIAN_POINT('',(6.,0.,-46.4804));
#288=CARTESIAN_POINT('',(0.,0.,-51.12844));
#289=CARTESIAN_POINT('',(0.,0.,0.));
#290=CARTESIAN_POINT('',(5.5,0.,0.));
#291=CARTESIAN_POINT('',(0.,0.,0.));
#292=CARTESIAN_POINT('',(0.,0.,0.));
#293=CARTESIAN_POINT('',(0.,0.,-54.9464));
#294=CARTESIAN_POINT('',(5.7,0.,-54.9464));
#295=CARTESIAN_POINT('',(0.,0.,-54.9464));
#296=CARTESIAN_POINT('',(0.,0.,-47.0000152422707));
#297=CARTESIAN_POINT('',(5.7,0.,-47.0000152422707));
#298=CARTESIAN_POINT('',(0.,0.,-55.793));
#299=CARTESIAN_POINT('',(0.,0.,-46.4804));
#300=CARTESIAN_POINT('',(0.,0.,-63.));
#301=CARTESIAN_POINT('',(-6.,0.,-63.));
#302=CARTESIAN_POINT('',(0.,0.,-55.9999653752853));
#303=CARTESIAN_POINT('',(-6.,0.,-55.9999653752853));
#304=CARTESIAN_POINT('',(0.,0.,-66.00536));
#305=CARTESIAN_POINT('',(0.,0.,-65.));
#306=CARTESIAN_POINT('',(-4.,0.,-65.));
#307=CARTESIAN_POINT('',(0.,0.,-65.));
#308=CARTESIAN_POINT('',(0.,0.,-63.));
#309=CARTESIAN_POINT('',(0.,0.,-54.9464));
#310=CARTESIAN_POINT('',(-5.7,0.,-54.9464));
#311=CARTESIAN_POINT('',(0.,0.,-55.9999653752853));
#312=CARTESIAN_POINT('',(0.,0.,-54.9464));
#313=MECHANICAL_DESIGN_GEOMETRIC_PRESENTATION_REPRESENTATION('',(#157,#158,
#159,#160,#161,#162,#163,#164,#165,#166),#314);
#314=(
GEOMETRIC_REPRESENTATION_CONTEXT(3)
GLOBAL_UNCERTAINTY_ASSIGNED_CONTEXT((#315))
GLOBAL_UNIT_ASSIGNED_CONTEXT((#321,#317,#316))
REPRESENTATION_CONTEXT('1552559656622','TOP_LEVEL_ASSEMBLY_PART')
);
#315=UNCERTAINTY_MEASURE_WITH_UNIT(LENGTH_MEASURE(2.E-005),#321,
'DISTANCE_ACCURACY_VALUE','Maximum Tolerance applied to model');
#316=(
NAMED_UNIT(*)
SI_UNIT($,.STERADIAN.)
SOLID_ANGLE_UNIT()
);
#317=(
CONVERSION_BASED_UNIT('DEGREE',#319)
NAMED_UNIT(#318)
PLANE_ANGLE_UNIT()
);
#318=DIMENSIONAL_EXPONENTS(0.,0.,0.,0.,0.,0.,0.);
#319=PLANE_ANGLE_MEASURE_WITH_UNIT(PLANE_ANGLE_MEASURE(0.0174532925),#320);
#320=(
NAMED_UNIT(*)
PLANE_ANGLE_UNIT()
SI_UNIT($,.RADIAN.)
);
#321=(
LENGTH_UNIT()
NAMED_UNIT(*)
SI_UNIT(.MILLI.,.METRE.)
);
ENDSEC;
END-ISO-10303-21;
