ISO-10303-21;
HEADER;
/* Generated by software containing ST-Developer
 * from STEP Tools, Inc. (www.steptools.com) 
 */
/* OPTION: using custom schema-name function */

FILE_DESCRIPTION(
/* description */ (''),
/* implementation_level */ '2;1');

FILE_NAME(
/* name */ '1552559218151.stp',
/* time_stamp */ '2019-03-14T11:27:16+01:00',
/* author */ (''),
/* organization */ ('SMS'),
/* preprocessor_version */ 'ST-DEVELOPER v15',
/* originating_system */ 'SIEMENS PLM Software NX 8.5',
/* authorisation */ '');

FILE_SCHEMA (('AUTOMOTIVE_DESIGN { 1 0 10303 214 3 1 1 1 }'));
ENDSEC;

DATA;
#10=CONSTRUCTIVE_GEOMETRY_REPRESENTATION_RELATIONSHIP(
'supplemental geometry','',#26,#11);
#11=CONSTRUCTIVE_GEOMETRY_REPRESENTATION('supplemental geometry',(#190,
#191,#192),#315);
#12=GEOMETRICALLY_BOUNDED_WIREFRAME_SHAPE_REPRESENTATION(
'201567284mod000_01-None',(#27),#315);
#13=SHAPE_REPRESENTATION_RELATIONSHIP('None',
'relationship between 201567284mod000_01-None and 201567284mod000_01-N
one',#26,#15);
#14=SHAPE_REPRESENTATION_RELATIONSHIP('None',
'relationship between 201567284mod000_01-None and 201567284mod000_01-N
one',#26,#12);
#15=ADVANCED_BREP_SHAPE_REPRESENTATION('201567284mod000_01-None',(#40,#41),
#315);
#16=SHAPE_DEFINITION_REPRESENTATION(#17,#26);
#17=PRODUCT_DEFINITION_SHAPE('','',#18);
#18=PRODUCT_DEFINITION(' ','',#20,#19);
#19=PRODUCT_DEFINITION_CONTEXT('part definition',#25,'design');
#20=PRODUCT_DEFINITION_FORMATION_WITH_SPECIFIED_SOURCE(' ',' ',#22,
 .NOT_KNOWN.);
#21=PRODUCT_RELATED_PRODUCT_CATEGORY('part','',(#22));
#22=PRODUCT('201567284mod000_01','201567284mod000_01',' ',(#23));
#23=PRODUCT_CONTEXT(' ',#25,'mechanical');
#24=APPLICATION_PROTOCOL_DEFINITION('international standard',
'automotive_design',2010,#25);
#25=APPLICATION_CONTEXT(
'core data for automotive mechanical design processes');
#26=SHAPE_REPRESENTATION('201567284mod000_01-None',(#189),#315);
#27=GEOMETRIC_CURVE_SET('None',(#262,#263,#264,#265,#153));
#28=TOROIDAL_SURFACE('',#209,3.,2.);
#29=TOROIDAL_SURFACE('',#211,3.,2.);
#30=SURFACE_STYLE_USAGE(.BOTH.,#32);
#31=SURFACE_STYLE_USAGE(.BOTH.,#33);
#32=SURFACE_SIDE_STYLE('',(#34));
#33=SURFACE_SIDE_STYLE('',(#35));
#34=SURFACE_STYLE_FILL_AREA(#36);
#35=SURFACE_STYLE_FILL_AREA(#37);
#36=FILL_AREA_STYLE('',(#38));
#37=FILL_AREA_STYLE('',(#39));
#38=FILL_AREA_STYLE_COLOUR('',#187);
#39=FILL_AREA_STYLE_COLOUR('',#188);
#40=MANIFOLD_SOLID_BREP('NOCUT',#42);
#41=MANIFOLD_SOLID_BREP('CUT',#43);
#42=CLOSED_SHELL('',(#54,#55,#56,#57,#58,#59));
#43=CLOSED_SHELL('',(#60,#61,#62,#63,#64));
#44=CONICAL_SURFACE('',#198,4.5,45.);
#45=CONICAL_SURFACE('',#203,5.,29.9999999999999);
#46=PLANE('',#197);
#47=PLANE('',#200);
#48=PLANE('',#208);
#49=PLANE('',#212);
#50=FACE_OUTER_BOUND('',#84,.T.);
#51=FACE_OUTER_BOUND('',#87,.T.);
#52=FACE_OUTER_BOUND('',#94,.T.);
#53=FACE_OUTER_BOUND('',#99,.T.);
#54=ADVANCED_FACE('',(#68,#69),#65,.T.);
#55=ADVANCED_FACE('',(#50),#46,.T.);
#56=ADVANCED_FACE('',(#70,#71),#44,.T.);
#57=ADVANCED_FACE('',(#51),#47,.F.);
#58=ADVANCED_FACE('',(#72,#73),#66,.T.);
#59=ADVANCED_FACE('',(#74,#75),#45,.T.);
#60=ADVANCED_FACE('',(#76,#77),#67,.T.);
#61=ADVANCED_FACE('',(#52),#48,.T.);
#62=ADVANCED_FACE('',(#78,#79),#28,.T.);
#63=ADVANCED_FACE('',(#80,#81),#29,.T.);
#64=ADVANCED_FACE('',(#53),#49,.T.);
#65=CYLINDRICAL_SURFACE('',#195,5.);
#66=CYLINDRICAL_SURFACE('',#202,4.75);
#67=CYLINDRICAL_SURFACE('',#206,5.);
#68=FACE_BOUND('',#82,.T.);
#69=FACE_BOUND('',#83,.T.);
#70=FACE_BOUND('',#85,.T.);
#71=FACE_BOUND('',#86,.T.);
#72=FACE_BOUND('',#88,.T.);
#73=FACE_BOUND('',#89,.T.);
#74=FACE_BOUND('',#90,.T.);
#75=FACE_BOUND('',#91,.T.);
#76=FACE_BOUND('',#92,.T.);
#77=FACE_BOUND('',#93,.T.);
#78=FACE_BOUND('',#95,.T.);
#79=FACE_BOUND('',#96,.T.);
#80=FACE_BOUND('',#97,.T.);
#81=FACE_BOUND('',#98,.T.);
#82=EDGE_LOOP('',(#100));
#83=EDGE_LOOP('',(#101));
#84=EDGE_LOOP('',(#102));
#85=EDGE_LOOP('',(#103));
#86=EDGE_LOOP('',(#104));
#87=EDGE_LOOP('',(#105));
#88=EDGE_LOOP('',(#106));
#89=EDGE_LOOP('',(#107));
#90=EDGE_LOOP('',(#108));
#91=EDGE_LOOP('',(#109));
#92=EDGE_LOOP('',(#110));
#93=EDGE_LOOP('',(#111));
#94=EDGE_LOOP('',(#112));
#95=EDGE_LOOP('',(#113));
#96=EDGE_LOOP('',(#114));
#97=EDGE_LOOP('',(#115));
#98=EDGE_LOOP('',(#116));
#99=EDGE_LOOP('',(#117));
#100=ORIENTED_EDGE('',*,*,#127,.T.);
#101=ORIENTED_EDGE('',*,*,#128,.F.);
#102=ORIENTED_EDGE('',*,*,#129,.T.);
#103=ORIENTED_EDGE('',*,*,#127,.F.);
#104=ORIENTED_EDGE('',*,*,#129,.F.);
#105=ORIENTED_EDGE('',*,*,#130,.T.);
#106=ORIENTED_EDGE('',*,*,#131,.T.);
#107=ORIENTED_EDGE('',*,*,#130,.F.);
#108=ORIENTED_EDGE('',*,*,#131,.F.);
#109=ORIENTED_EDGE('',*,*,#128,.T.);
#110=ORIENTED_EDGE('',*,*,#132,.T.);
#111=ORIENTED_EDGE('',*,*,#133,.T.);
#112=ORIENTED_EDGE('',*,*,#134,.T.);
#113=ORIENTED_EDGE('',*,*,#134,.F.);
#114=ORIENTED_EDGE('',*,*,#132,.F.);
#115=ORIENTED_EDGE('',*,*,#135,.T.);
#116=ORIENTED_EDGE('',*,*,#133,.F.);
#117=ORIENTED_EDGE('',*,*,#135,.F.);
#118=VERTEX_POINT('',#286);
#119=VERTEX_POINT('',#288);
#120=VERTEX_POINT('',#291);
#121=VERTEX_POINT('',#295);
#122=VERTEX_POINT('',#298);
#123=VERTEX_POINT('',#302);
#124=VERTEX_POINT('',#304);
#125=VERTEX_POINT('',#307);
#126=VERTEX_POINT('',#311);
#127=EDGE_CURVE('',#118,#118,#136,.T.);
#128=EDGE_CURVE('',#119,#119,#137,.T.);
#129=EDGE_CURVE('',#120,#120,#138,.T.);
#130=EDGE_CURVE('',#121,#121,#139,.T.);
#131=EDGE_CURVE('',#122,#122,#140,.T.);
#132=EDGE_CURVE('',#123,#123,#141,.T.);
#133=EDGE_CURVE('',#124,#124,#142,.T.);
#134=EDGE_CURVE('',#125,#125,#143,.T.);
#135=EDGE_CURVE('',#126,#126,#144,.T.);
#136=CIRCLE('',#193,5.);
#137=CIRCLE('',#194,5.);
#138=CIRCLE('',#196,4.5);
#139=CIRCLE('',#199,4.75);
#140=CIRCLE('',#201,4.75);
#141=CIRCLE('',#204,5.);
#142=CIRCLE('',#205,5.);
#143=CIRCLE('',#207,3.);
#144=CIRCLE('',#210,4.75);
#145=CURVE_STYLE('',#149,POSITIVE_LENGTH_MEASURE(0.18),#155);
#146=CURVE_STYLE('',#150,POSITIVE_LENGTH_MEASURE(0.18),#185);
#147=CURVE_STYLE('',#151,POSITIVE_LENGTH_MEASURE(0.18),#185);
#148=CURVE_STYLE('',#152,POSITIVE_LENGTH_MEASURE(0.18),#186);
#149=DRAUGHTING_PRE_DEFINED_CURVE_FONT('continuous');
#150=DRAUGHTING_PRE_DEFINED_CURVE_FONT('continuous');
#151=DRAUGHTING_PRE_DEFINED_CURVE_FONT('continuous');
#152=DRAUGHTING_PRE_DEFINED_CURVE_FONT('continuous');
#153=TRIMMED_CURVE('CUTTING PART LINE',#154,(PARAMETER_VALUE(0.)),(
PARAMETER_VALUE(1.)),.T.,.PARAMETER.);
#154=(
BOUNDED_CURVE()
B_SPLINE_CURVE(3,(#266,#267,#268,#269,#270,#271,#272,#273,#274,#275,#276,
#277,#278,#279,#280,#281),.UNSPECIFIED.,.F.,.F.)
B_SPLINE_CURVE_WITH_KNOTS((4,3,3,3,3,4),(0.,0.172391324393194,0.352919097146144,
0.668967224600142,0.727047069707423,1.),.UNSPECIFIED.)
CURVE()
GEOMETRIC_REPRESENTATION_ITEM()
RATIONAL_B_SPLINE_CURVE((1.,1.,1.,1.,0.804737854124365,0.804737854124365,
1.,1.,1.,1.,0.978830557701236,0.978830557701236,1.,1.,1.,1.))
REPRESENTATION_ITEM('CUTTING PART LINE')
);
#155=DRAUGHTING_PRE_DEFINED_COLOUR('blue');
#156=PRESENTATION_LAYER_ASSIGNMENT('1','Layer 1',(#262,#263,#264,#265,#153,
#190,#191,#192,#40,#41));
#157=STYLED_ITEM('',(#167),#262);
#158=STYLED_ITEM('',(#168),#263);
#159=STYLED_ITEM('',(#169),#264);
#160=STYLED_ITEM('',(#170),#265);
#161=STYLED_ITEM('',(#171),#153);
#162=STYLED_ITEM('',(#172),#190);
#163=STYLED_ITEM('',(#173),#191);
#164=STYLED_ITEM('',(#174),#192);
#165=STYLED_ITEM('',(#175),#40);
#166=STYLED_ITEM('',(#176),#41);
#167=PRESENTATION_STYLE_ASSIGNMENT((#177));
#168=PRESENTATION_STYLE_ASSIGNMENT((#178));
#169=PRESENTATION_STYLE_ASSIGNMENT((#179));
#170=PRESENTATION_STYLE_ASSIGNMENT((#180));
#171=PRESENTATION_STYLE_ASSIGNMENT((#145));
#172=PRESENTATION_STYLE_ASSIGNMENT((#146));
#173=PRESENTATION_STYLE_ASSIGNMENT((#147));
#174=PRESENTATION_STYLE_ASSIGNMENT((#148));
#175=PRESENTATION_STYLE_ASSIGNMENT((#30));
#176=PRESENTATION_STYLE_ASSIGNMENT((#31));
#177=POINT_STYLE('',#181,POSITIVE_LENGTH_MEASURE(3.),#185);
#178=POINT_STYLE('',#182,POSITIVE_LENGTH_MEASURE(3.),#185);
#179=POINT_STYLE('',#183,POSITIVE_LENGTH_MEASURE(3.),#155);
#180=POINT_STYLE('',#184,POSITIVE_LENGTH_MEASURE(3.),#186);
#181=PRE_DEFINED_POINT_MARKER_SYMBOL('plus');
#182=PRE_DEFINED_POINT_MARKER_SYMBOL('plus');
#183=PRE_DEFINED_POINT_MARKER_SYMBOL('plus');
#184=PRE_DEFINED_POINT_MARKER_SYMBOL('plus');
#185=COLOUR_RGB('Strong Stone',0.576470588235294,0.54508278019379,0.392156862745098);
#186=COLOUR_RGB('Medium Maroon',0.6,0.4,0.4);
#187=COLOUR_RGB('Medium Gray',0.501960784313725,0.501960784313725,0.501960784313725);
#188=COLOUR_RGB('Light Gray',0.8,0.8,0.8);
#189=AXIS2_PLACEMENT_3D('',#261,#213,#214);
#190=AXIS2_PLACEMENT_3D('CIP',#282,#215,#216);
#191=AXIS2_PLACEMENT_3D('MCS',#283,#217,#218);
#192=AXIS2_PLACEMENT_3D('PCS',#284,#219,#220);
#193=AXIS2_PLACEMENT_3D('',#285,#221,#222);
#194=AXIS2_PLACEMENT_3D('',#287,#223,#224);
#195=AXIS2_PLACEMENT_3D('',#289,#225,#226);
#196=AXIS2_PLACEMENT_3D('',#290,#227,#228);
#197=AXIS2_PLACEMENT_3D('',#292,#229,#230);
#198=AXIS2_PLACEMENT_3D('',#293,#231,#232);
#199=AXIS2_PLACEMENT_3D('',#294,#233,#234);
#200=AXIS2_PLACEMENT_3D('',#296,#235,#236);
#201=AXIS2_PLACEMENT_3D('',#297,#237,#238);
#202=AXIS2_PLACEMENT_3D('',#299,#239,#240);
#203=AXIS2_PLACEMENT_3D('',#300,#241,#242);
#204=AXIS2_PLACEMENT_3D('',#301,#243,#244);
#205=AXIS2_PLACEMENT_3D('',#303,#245,#246);
#206=AXIS2_PLACEMENT_3D('',#305,#247,#248);
#207=AXIS2_PLACEMENT_3D('',#306,#249,#250);
#208=AXIS2_PLACEMENT_3D('',#308,#251,#252);
#209=AXIS2_PLACEMENT_3D('',#309,#253,#254);
#210=AXIS2_PLACEMENT_3D('',#310,#255,#256);
#211=AXIS2_PLACEMENT_3D('',#312,#257,#258);
#212=AXIS2_PLACEMENT_3D('',#313,#259,#260);
#213=DIRECTION('',(0.,0.,1.));
#214=DIRECTION('',(1.,0.,0.));
#215=DIRECTION('',(0.,0.,1.));
#216=DIRECTION('',(1.,0.,0.));
#217=DIRECTION('',(0.,0.,1.));
#218=DIRECTION('',(1.,0.,0.));
#219=DIRECTION('',(0.,0.,1.));
#220=DIRECTION('',(1.,0.,0.));
#221=DIRECTION('',(0.,0.,-1.));
#222=DIRECTION('',(1.,0.,0.));
#223=DIRECTION('',(0.,0.,-1.));
#224=DIRECTION('',(1.,0.,0.));
#225=DIRECTION('',(0.,0.,1.));
#226=DIRECTION('',(1.,0.,0.));
#227=DIRECTION('',(0.,0.,1.));
#228=DIRECTION('',(1.,0.,0.));
#229=DIRECTION('',(0.,0.,1.));
#230=DIRECTION('',(1.,0.,0.));
#231=DIRECTION('',(0.,0.,-1.));
#232=DIRECTION('',(-1.,0.,0.));
#233=DIRECTION('',(0.,0.,-1.));
#234=DIRECTION('',(1.,0.,0.));
#235=DIRECTION('',(0.,0.,1.));
#236=DIRECTION('',(1.,0.,0.));
#237=DIRECTION('',(0.,0.,-1.));
#238=DIRECTION('',(1.,0.,0.));
#239=DIRECTION('',(0.,0.,1.));
#240=DIRECTION('',(1.,0.,0.));
#241=DIRECTION('',(0.,0.,1.));
#242=DIRECTION('',(1.,0.,-3.57459810925981E-017));
#243=DIRECTION('',(0.,0.,1.));
#244=DIRECTION('',(-1.,0.,0.));
#245=DIRECTION('',(0.,0.,-1.));
#246=DIRECTION('',(-1.,0.,0.));
#247=DIRECTION('',(0.,0.,1.));
#248=DIRECTION('',(1.,0.,0.));
#249=DIRECTION('',(0.,0.,-1.));
#250=DIRECTION('',(-1.,0.,0.));
#251=DIRECTION('',(0.,0.,-1.));
#252=DIRECTION('',(-1.,0.,0.));
#253=DIRECTION('',(0.,0.,-1.));
#254=DIRECTION('',(-1.,0.,0.));
#255=DIRECTION('',(0.,0.,-1.));
#256=DIRECTION('',(-1.,0.,0.));
#257=DIRECTION('',(0.,0.,-1.));
#258=DIRECTION('',(-1.,0.,0.));
#259=DIRECTION('',(0.,0.,1.));
#260=DIRECTION('',(1.,0.,0.));
#261=CARTESIAN_POINT('',(0.,0.,0.));
#262=CARTESIAN_POINT('CIP',(0.,0.,-60.));
#263=CARTESIAN_POINT('MCS',(0.,0.,-40.));
#264=CARTESIAN_POINT('CRP',(5.,0.,-60.));
#265=CARTESIAN_POINT('',(0.,0.,0.));
#266=CARTESIAN_POINT('',(0.,0.,-60.));
#267=CARTESIAN_POINT('',(1.,0.,-60.));
#268=CARTESIAN_POINT('',(2.,0.,-60.));
#269=CARTESIAN_POINT('',(3.,0.,-60.));
#270=CARTESIAN_POINT('',(4.17157287525381,0.,-60.));
#271=CARTESIAN_POINT('',(5.,0.,-59.1715728752538));
#272=CARTESIAN_POINT('',(5.,0.,-58.));
#273=CARTESIAN_POINT('',(5.,0.,-56.1666819455173));
#274=CARTESIAN_POINT('',(5.,0.,-54.3333638910346));
#275=CARTESIAN_POINT('',(5.,0.,-52.5000458365519));
#276=CARTESIAN_POINT('',(5.,0.,-52.1595034099687));
#277=CARTESIAN_POINT('',(4.91486439335421,0.,-51.8297746232603));
#278=CARTESIAN_POINT('',(4.75,0.,-51.5318));
#279=CARTESIAN_POINT('',(3.16666666666667,0.,-51.5318));
#280=CARTESIAN_POINT('',(1.58333333333333,0.,-51.5318));
#281=CARTESIAN_POINT('',(0.,0.,-51.5318));
#282=CARTESIAN_POINT('',(0.,0.,-60.));
#283=CARTESIAN_POINT('',(0.,0.,-40.));
#284=CARTESIAN_POINT('',(0.,0.,0.));
#285=CARTESIAN_POINT('',(0.,0.,-0.5));
#286=CARTESIAN_POINT('',(5.,0.,-0.5));
#287=CARTESIAN_POINT('',(0.,0.,-44.567));
#288=CARTESIAN_POINT('',(5.,0.,-44.567));
#289=CARTESIAN_POINT('',(0.,0.,-49.0237));
#290=CARTESIAN_POINT('',(0.,0.,0.));
#291=CARTESIAN_POINT('',(4.5,0.,0.));
#292=CARTESIAN_POINT('',(0.,0.,0.));
#293=CARTESIAN_POINT('',(0.,0.,0.));
#294=CARTESIAN_POINT('',(0.,0.,-51.5318));
#295=CARTESIAN_POINT('',(4.75,0.,-51.5318));
#296=CARTESIAN_POINT('',(0.,0.,-51.5318));
#297=CARTESIAN_POINT('',(0.,0.,-45.0000127018922));
#298=CARTESIAN_POINT('',(4.75,0.,-45.0000127018922));
#299=CARTESIAN_POINT('',(0.,0.,-52.22828));
#300=CARTESIAN_POINT('',(0.,0.,-44.567));
#301=CARTESIAN_POINT('',(0.,0.,-58.));
#302=CARTESIAN_POINT('',(-5.,0.,-58.));
#303=CARTESIAN_POINT('',(0.,0.,-52.5000458365519));
#304=CARTESIAN_POINT('',(-5.,0.,-52.5000458365519));
#305=CARTESIAN_POINT('',(0.,0.,-60.84682));
#306=CARTESIAN_POINT('',(0.,0.,-60.));
#307=CARTESIAN_POINT('',(-3.,0.,-60.));
#308=CARTESIAN_POINT('',(0.,0.,-60.));
#309=CARTESIAN_POINT('',(0.,0.,-58.));
#310=CARTESIAN_POINT('',(0.,0.,-51.5318));
#311=CARTESIAN_POINT('',(-4.75,0.,-51.5318));
#312=CARTESIAN_POINT('',(0.,0.,-52.5000458365519));
#313=CARTESIAN_POINT('',(0.,0.,-51.5318));
#314=MECHANICAL_DESIGN_GEOMETRIC_PRESENTATION_REPRESENTATION('',(#157,#158,
#159,#160,#161,#162,#163,#164,#165,#166),#315);
#315=(
GEOMETRIC_REPRESENTATION_CONTEXT(3)
GLOBAL_UNCERTAINTY_ASSIGNED_CONTEXT((#316))
GLOBAL_UNIT_ASSIGNED_CONTEXT((#322,#318,#317))
REPRESENTATION_CONTEXT('1552559218151','TOP_LEVEL_ASSEMBLY_PART')
);
#316=UNCERTAINTY_MEASURE_WITH_UNIT(LENGTH_MEASURE(2.E-005),#322,
'DISTANCE_ACCURACY_VALUE','Maximum Tolerance applied to model');
#317=(
NAMED_UNIT(*)
SI_UNIT($,.STERADIAN.)
SOLID_ANGLE_UNIT()
);
#318=(
CONVERSION_BASED_UNIT('DEGREE',#320)
NAMED_UNIT(#319)
PLANE_ANGLE_UNIT()
);
#319=DIMENSIONAL_EXPONENTS(0.,0.,0.,0.,0.,0.,0.);
#320=PLANE_ANGLE_MEASURE_WITH_UNIT(PLANE_ANGLE_MEASURE(0.0174532925),#321);
#321=(
NAMED_UNIT(*)
PLANE_ANGLE_UNIT()
SI_UNIT($,.RADIAN.)
);
#322=(
LENGTH_UNIT()
NAMED_UNIT(*)
SI_UNIT(.MILLI.,.METRE.)
);
ENDSEC;
END-ISO-10303-21;
