ISO-10303-21;
HEADER;
/* Generated by software containing ST-Developer
 * from STEP Tools, Inc. (www.steptools.com) 
 */
/* OPTION: using custom schema-name function */

FILE_DESCRIPTION(
/* description */ (''),
/* implementation_level */ '2;1');

FILE_NAME(
/* name */ '1552557861965.stp',
/* time_stamp */ '2019-03-14T11:04:41+01:00',
/* author */ (''),
/* organization */ ('SMS'),
/* preprocessor_version */ 'ST-DEVELOPER v15',
/* originating_system */ 'SIEMENS PLM Software NX 8.5',
/* authorisation */ '');

FILE_SCHEMA (('AUTOMOTIVE_DESIGN { 1 0 10303 214 3 1 1 1 }'));
ENDSEC;

DATA;
#10=CONSTRUCTIVE_GEOMETRY_REPRESENTATION_RELATIONSHIP(
'supplemental geometry','',#26,#11);
#11=CONSTRUCTIVE_GEOMETRY_REPRESENTATION('supplemental geometry',(#200,
#201,#202),#361);
#12=GEOMETRICALLY_BOUNDED_WIREFRAME_SHAPE_REPRESENTATION(
'201567282mod000_01-None',(#27),#361);
#13=SHAPE_REPRESENTATION_RELATIONSHIP('None',
'relationship between 201567282mod000_01-None and 201567282mod000_01-N
one',#26,#15);
#14=SHAPE_REPRESENTATION_RELATIONSHIP('None',
'relationship between 201567282mod000_01-None and 201567282mod000_01-N
one',#26,#12);
#15=ADVANCED_BREP_SHAPE_REPRESENTATION('201567282mod000_01-None',(#41,#42),
#361);
#16=SHAPE_DEFINITION_REPRESENTATION(#17,#26);
#17=PRODUCT_DEFINITION_SHAPE('','',#18);
#18=PRODUCT_DEFINITION(' ','',#20,#19);
#19=PRODUCT_DEFINITION_CONTEXT('part definition',#25,'design');
#20=PRODUCT_DEFINITION_FORMATION_WITH_SPECIFIED_SOURCE(' ',' ',#22,
 .NOT_KNOWN.);
#21=PRODUCT_RELATED_PRODUCT_CATEGORY('part','',(#22));
#22=PRODUCT('201567282mod000_01','201567282mod000_01',' ',(#23));
#23=PRODUCT_CONTEXT(' ',#25,'mechanical');
#24=APPLICATION_PROTOCOL_DEFINITION('international standard',
'automotive_design',2010,#25);
#25=APPLICATION_CONTEXT(
'core data for automotive mechanical design processes');
#26=SHAPE_REPRESENTATION('201567282mod000_01-None',(#199),#361);
#27=GEOMETRIC_CURVE_SET('None',(#275,#276,#277,#278,#164));
#28=(
BOUNDED_SURFACE()
B_SPLINE_SURFACE(3,3,((#327,#328,#329,#330,#331,#332,#333),(#334,#335,#336,
#337,#338,#339,#340),(#341,#342,#343,#344,#345,#346,#347),(#348,#349,#350,
#351,#352,#353,#354)),.UNSPECIFIED.,.F.,.T.,.F.)
B_SPLINE_SURFACE_WITH_KNOTS((4,4),(1,3,3,3,1),(0.,1.),(-0.5,0.,0.5,1.,1.5),
 .UNSPECIFIED.)
GEOMETRIC_REPRESENTATION_ITEM()
RATIONAL_B_SPLINE_SURFACE(((1.,0.333333333333333,0.333333333333333,1.,0.333333333333333,
0.333333333333333,1.),(0.975831740666828,0.325277246888943,0.325277246888943,
0.975831740666828,0.325277246888943,0.325277246888943,0.975831740666828),
(0.975831740666828,0.325277246888943,0.325277246888943,0.975831740666828,
0.325277246888943,0.325277246888943,0.975831740666828),(1.,0.333333333333333,
0.333333333333333,1.,0.333333333333333,0.333333333333333,1.)))
REPRESENTATION_ITEM('')
SURFACE()
);
#29=TOROIDAL_SURFACE('',#218,3.5,1.5);
#30=TOROIDAL_SURFACE('',#221,3.,2.);
#31=SURFACE_STYLE_USAGE(.BOTH.,#33);
#32=SURFACE_STYLE_USAGE(.BOTH.,#34);
#33=SURFACE_SIDE_STYLE('',(#35));
#34=SURFACE_SIDE_STYLE('',(#36));
#35=SURFACE_STYLE_FILL_AREA(#37);
#36=SURFACE_STYLE_FILL_AREA(#38);
#37=FILL_AREA_STYLE('',(#39));
#38=FILL_AREA_STYLE('',(#40));
#39=FILL_AREA_STYLE_COLOUR('',#197);
#40=FILL_AREA_STYLE_COLOUR('',#198);
#41=MANIFOLD_SOLID_BREP('NOCUT',#43);
#42=MANIFOLD_SOLID_BREP('CUT',#44);
#43=CLOSED_SHELL('',(#55,#56,#57,#58,#59,#60));
#44=CLOSED_SHELL('',(#61,#62,#63,#64,#65,#66));
#45=CONICAL_SURFACE('',#208,4.5,45.);
#46=CONICAL_SURFACE('',#213,5.,29.9999999999999);
#47=PLANE('',#207);
#48=PLANE('',#210);
#49=PLANE('',#222);
#50=PLANE('',#223);
#51=FACE_OUTER_BOUND('',#88,.T.);
#52=FACE_OUTER_BOUND('',#91,.T.);
#53=FACE_OUTER_BOUND('',#104,.T.);
#54=FACE_OUTER_BOUND('',#105,.T.);
#55=ADVANCED_FACE('',(#70,#71),#67,.T.);
#56=ADVANCED_FACE('',(#51),#47,.T.);
#57=ADVANCED_FACE('',(#72,#73),#45,.T.);
#58=ADVANCED_FACE('',(#52),#48,.F.);
#59=ADVANCED_FACE('',(#74,#75),#68,.T.);
#60=ADVANCED_FACE('',(#76,#77),#46,.T.);
#61=ADVANCED_FACE('',(#78,#79),#69,.T.);
#62=ADVANCED_FACE('',(#80,#81),#29,.T.);
#63=ADVANCED_FACE('',(#82,#83),#28,.T.);
#64=ADVANCED_FACE('',(#84,#85),#30,.T.);
#65=ADVANCED_FACE('',(#53),#49,.T.);
#66=ADVANCED_FACE('',(#54),#50,.T.);
#67=CYLINDRICAL_SURFACE('',#205,5.);
#68=CYLINDRICAL_SURFACE('',#212,4.75);
#69=CYLINDRICAL_SURFACE('',#216,5.);
#70=FACE_BOUND('',#86,.T.);
#71=FACE_BOUND('',#87,.T.);
#72=FACE_BOUND('',#89,.T.);
#73=FACE_BOUND('',#90,.T.);
#74=FACE_BOUND('',#92,.T.);
#75=FACE_BOUND('',#93,.T.);
#76=FACE_BOUND('',#94,.T.);
#77=FACE_BOUND('',#95,.T.);
#78=FACE_BOUND('',#96,.T.);
#79=FACE_BOUND('',#97,.T.);
#80=FACE_BOUND('',#98,.T.);
#81=FACE_BOUND('',#99,.T.);
#82=FACE_BOUND('',#100,.T.);
#83=FACE_BOUND('',#101,.T.);
#84=FACE_BOUND('',#102,.T.);
#85=FACE_BOUND('',#103,.T.);
#86=EDGE_LOOP('',(#106));
#87=EDGE_LOOP('',(#107));
#88=EDGE_LOOP('',(#108));
#89=EDGE_LOOP('',(#109));
#90=EDGE_LOOP('',(#110));
#91=EDGE_LOOP('',(#111));
#92=EDGE_LOOP('',(#112));
#93=EDGE_LOOP('',(#113));
#94=EDGE_LOOP('',(#114));
#95=EDGE_LOOP('',(#115));
#96=EDGE_LOOP('',(#116));
#97=EDGE_LOOP('',(#117));
#98=EDGE_LOOP('',(#118));
#99=EDGE_LOOP('',(#119));
#100=EDGE_LOOP('',(#120));
#101=EDGE_LOOP('',(#121));
#102=EDGE_LOOP('',(#122));
#103=EDGE_LOOP('',(#123));
#104=EDGE_LOOP('',(#124));
#105=EDGE_LOOP('',(#125));
#106=ORIENTED_EDGE('',*,*,#136,.T.);
#107=ORIENTED_EDGE('',*,*,#137,.F.);
#108=ORIENTED_EDGE('',*,*,#138,.T.);
#109=ORIENTED_EDGE('',*,*,#136,.F.);
#110=ORIENTED_EDGE('',*,*,#138,.F.);
#111=ORIENTED_EDGE('',*,*,#139,.T.);
#112=ORIENTED_EDGE('',*,*,#140,.T.);
#113=ORIENTED_EDGE('',*,*,#139,.F.);
#114=ORIENTED_EDGE('',*,*,#140,.F.);
#115=ORIENTED_EDGE('',*,*,#137,.T.);
#116=ORIENTED_EDGE('',*,*,#141,.T.);
#117=ORIENTED_EDGE('',*,*,#142,.F.);
#118=ORIENTED_EDGE('',*,*,#142,.T.);
#119=ORIENTED_EDGE('',*,*,#143,.T.);
#120=ORIENTED_EDGE('',*,*,#143,.F.);
#121=ORIENTED_EDGE('',*,*,#144,.F.);
#122=ORIENTED_EDGE('',*,*,#145,.F.);
#123=ORIENTED_EDGE('',*,*,#141,.F.);
#124=ORIENTED_EDGE('',*,*,#144,.T.);
#125=ORIENTED_EDGE('',*,*,#145,.T.);
#126=VERTEX_POINT('',#302);
#127=VERTEX_POINT('',#304);
#128=VERTEX_POINT('',#307);
#129=VERTEX_POINT('',#311);
#130=VERTEX_POINT('',#314);
#131=VERTEX_POINT('',#318);
#132=VERTEX_POINT('',#320);
#133=VERTEX_POINT('',#323);
#134=VERTEX_POINT('',#326);
#135=VERTEX_POINT('',#356);
#136=EDGE_CURVE('',#126,#126,#146,.T.);
#137=EDGE_CURVE('',#127,#127,#147,.T.);
#138=EDGE_CURVE('',#128,#128,#148,.T.);
#139=EDGE_CURVE('',#129,#129,#149,.T.);
#140=EDGE_CURVE('',#130,#130,#150,.T.);
#141=EDGE_CURVE('',#131,#131,#151,.T.);
#142=EDGE_CURVE('',#132,#132,#152,.T.);
#143=EDGE_CURVE('',#133,#133,#153,.T.);
#144=EDGE_CURVE('',#134,#134,#154,.T.);
#145=EDGE_CURVE('',#135,#135,#155,.T.);
#146=CIRCLE('',#203,5.);
#147=CIRCLE('',#204,5.);
#148=CIRCLE('',#206,4.5);
#149=CIRCLE('',#209,4.75);
#150=CIRCLE('',#211,4.75);
#151=CIRCLE('',#214,5.);
#152=CIRCLE('',#215,5.);
#153=CIRCLE('',#217,4.27142857142857);
#154=CIRCLE('',#219,1.7);
#155=CIRCLE('',#220,4.75);
#156=CURVE_STYLE('',#160,POSITIVE_LENGTH_MEASURE(0.18),#166);
#157=CURVE_STYLE('',#161,POSITIVE_LENGTH_MEASURE(0.18),#196);
#158=CURVE_STYLE('',#162,POSITIVE_LENGTH_MEASURE(0.18),#196);
#159=CURVE_STYLE('',#163,POSITIVE_LENGTH_MEASURE(0.18),#196);
#160=DRAUGHTING_PRE_DEFINED_CURVE_FONT('continuous');
#161=DRAUGHTING_PRE_DEFINED_CURVE_FONT('continuous');
#162=DRAUGHTING_PRE_DEFINED_CURVE_FONT('continuous');
#163=DRAUGHTING_PRE_DEFINED_CURVE_FONT('continuous');
#164=TRIMMED_CURVE('CUTTING PART LINE',#165,(PARAMETER_VALUE(0.)),(
PARAMETER_VALUE(1.)),.T.,.PARAMETER.);
#165=(
BOUNDED_CURVE()
B_SPLINE_CURVE(3,(#279,#280,#281,#282,#283,#284,#285,#286,#287,#288,#289,
#290,#291,#292,#293,#294,#295,#296,#297),.UNSPECIFIED.,.F.,.F.)
B_SPLINE_CURVE_WITH_KNOTS((4,3,3,3,3,3,4),(0.,0.098784676105496,0.255728705421705,
0.345560737539208,0.665252376391567,0.723983993240454,1.),.UNSPECIFIED.)
CURVE()
GEOMETRIC_REPRESENTATION_ITEM()
RATIONAL_B_SPLINE_CURVE((1.,1.,1.,1.,0.975831740666829,0.975831740666829,
1.,0.913426374584421,0.913426374584421,1.,1.,1.,1.,0.978830557701235,0.978830557701235,
1.,1.,1.,1.))
REPRESENTATION_ITEM('CUTTING PART LINE')
);
#166=DRAUGHTING_PRE_DEFINED_COLOUR('blue');
#167=PRESENTATION_LAYER_ASSIGNMENT('1','Layer 1',(#275,#276,#277,#278,#164,
#200,#201,#202,#41,#42));
#168=STYLED_ITEM('',(#178),#275);
#169=STYLED_ITEM('',(#179),#276);
#170=STYLED_ITEM('',(#180),#277);
#171=STYLED_ITEM('',(#181),#278);
#172=STYLED_ITEM('',(#182),#164);
#173=STYLED_ITEM('',(#183),#200);
#174=STYLED_ITEM('',(#184),#201);
#175=STYLED_ITEM('',(#185),#202);
#176=STYLED_ITEM('',(#186),#41);
#177=STYLED_ITEM('',(#187),#42);
#178=PRESENTATION_STYLE_ASSIGNMENT((#188));
#179=PRESENTATION_STYLE_ASSIGNMENT((#189));
#180=PRESENTATION_STYLE_ASSIGNMENT((#190));
#181=PRESENTATION_STYLE_ASSIGNMENT((#191));
#182=PRESENTATION_STYLE_ASSIGNMENT((#156));
#183=PRESENTATION_STYLE_ASSIGNMENT((#157));
#184=PRESENTATION_STYLE_ASSIGNMENT((#158));
#185=PRESENTATION_STYLE_ASSIGNMENT((#159));
#186=PRESENTATION_STYLE_ASSIGNMENT((#31));
#187=PRESENTATION_STYLE_ASSIGNMENT((#32));
#188=POINT_STYLE('',#192,POSITIVE_LENGTH_MEASURE(3.),#196);
#189=POINT_STYLE('',#193,POSITIVE_LENGTH_MEASURE(3.),#196);
#190=POINT_STYLE('',#194,POSITIVE_LENGTH_MEASURE(3.),#196);
#191=POINT_STYLE('',#195,POSITIVE_LENGTH_MEASURE(3.),#166);
#192=PRE_DEFINED_POINT_MARKER_SYMBOL('plus');
#193=PRE_DEFINED_POINT_MARKER_SYMBOL('plus');
#194=PRE_DEFINED_POINT_MARKER_SYMBOL('plus');
#195=PRE_DEFINED_POINT_MARKER_SYMBOL('plus');
#196=COLOUR_RGB('Strong Stone',0.576470588235294,0.54508278019379,0.392156862745098);
#197=COLOUR_RGB('Medium Gray',0.501960784313725,0.501960784313725,0.501960784313725);
#198=COLOUR_RGB('Light Gray',0.8,0.8,0.8);
#199=AXIS2_PLACEMENT_3D('',#274,#224,#225);
#200=AXIS2_PLACEMENT_3D('PCS',#298,#226,#227);
#201=AXIS2_PLACEMENT_3D('CIP',#299,#228,#229);
#202=AXIS2_PLACEMENT_3D('MCS',#300,#230,#231);
#203=AXIS2_PLACEMENT_3D('',#301,#232,#233);
#204=AXIS2_PLACEMENT_3D('',#303,#234,#235);
#205=AXIS2_PLACEMENT_3D('',#305,#236,#237);
#206=AXIS2_PLACEMENT_3D('',#306,#238,#239);
#207=AXIS2_PLACEMENT_3D('',#308,#240,#241);
#208=AXIS2_PLACEMENT_3D('',#309,#242,#243);
#209=AXIS2_PLACEMENT_3D('',#310,#244,#245);
#210=AXIS2_PLACEMENT_3D('',#312,#246,#247);
#211=AXIS2_PLACEMENT_3D('',#313,#248,#249);
#212=AXIS2_PLACEMENT_3D('',#315,#250,#251);
#213=AXIS2_PLACEMENT_3D('',#316,#252,#253);
#214=AXIS2_PLACEMENT_3D('',#317,#254,#255);
#215=AXIS2_PLACEMENT_3D('',#319,#256,#257);
#216=AXIS2_PLACEMENT_3D('',#321,#258,#259);
#217=AXIS2_PLACEMENT_3D('',#322,#260,#261);
#218=AXIS2_PLACEMENT_3D('',#324,#262,#263);
#219=AXIS2_PLACEMENT_3D('',#325,#264,#265);
#220=AXIS2_PLACEMENT_3D('',#355,#266,#267);
#221=AXIS2_PLACEMENT_3D('',#357,#268,#269);
#222=AXIS2_PLACEMENT_3D('',#358,#270,#271);
#223=AXIS2_PLACEMENT_3D('',#359,#272,#273);
#224=DIRECTION('',(0.,0.,1.));
#225=DIRECTION('',(1.,0.,0.));
#226=DIRECTION('',(0.,0.,1.));
#227=DIRECTION('',(1.,0.,0.));
#228=DIRECTION('',(0.,0.,1.));
#229=DIRECTION('',(1.,0.,0.));
#230=DIRECTION('',(0.,0.,1.));
#231=DIRECTION('',(1.,0.,0.));
#232=DIRECTION('',(0.,0.,-1.));
#233=DIRECTION('',(1.,0.,0.));
#234=DIRECTION('',(0.,0.,-1.));
#235=DIRECTION('',(1.,0.,0.));
#236=DIRECTION('',(0.,0.,1.));
#237=DIRECTION('',(1.,0.,0.));
#238=DIRECTION('',(0.,0.,1.));
#239=DIRECTION('',(1.,0.,0.));
#240=DIRECTION('',(0.,0.,1.));
#241=DIRECTION('',(1.,0.,0.));
#242=DIRECTION('',(0.,0.,-1.));
#243=DIRECTION('',(-1.,0.,0.));
#244=DIRECTION('',(0.,0.,-1.));
#245=DIRECTION('',(1.,0.,0.));
#246=DIRECTION('',(0.,0.,1.));
#247=DIRECTION('',(1.,0.,0.));
#248=DIRECTION('',(0.,0.,-1.));
#249=DIRECTION('',(1.,0.,0.));
#250=DIRECTION('',(0.,0.,1.));
#251=DIRECTION('',(1.,0.,0.));
#252=DIRECTION('',(0.,0.,1.));
#253=DIRECTION('',(1.,0.,0.));
#254=DIRECTION('',(0.,0.,-1.));
#255=DIRECTION('',(-1.,0.,0.));
#256=DIRECTION('',(0.,0.,-1.));
#257=DIRECTION('',(-1.,0.,0.));
#258=DIRECTION('',(0.,0.,1.));
#259=DIRECTION('',(1.,0.,0.));
#260=DIRECTION('',(0.,0.,1.));
#261=DIRECTION('',(-1.,0.,0.));
#262=DIRECTION('',(0.,0.,-1.));
#263=DIRECTION('',(-1.,0.,0.));
#264=DIRECTION('',(0.,0.,-1.));
#265=DIRECTION('',(-1.,0.,0.));
#266=DIRECTION('',(0.,0.,1.));
#267=DIRECTION('',(-1.,0.,0.));
#268=DIRECTION('',(0.,0.,-1.));
#269=DIRECTION('',(-1.,0.,0.));
#270=DIRECTION('',(0.,0.,-1.));
#271=DIRECTION('',(-1.,0.,0.));
#272=DIRECTION('',(0.,0.,1.));
#273=DIRECTION('',(1.,0.,0.));
#274=CARTESIAN_POINT('',(0.,0.,0.));
#275=CARTESIAN_POINT('PCS',(0.,0.,0.));
#276=CARTESIAN_POINT('CIP',(0.,0.,-60.));
#277=CARTESIAN_POINT('MCS',(0.,0.,-40.));
#278=CARTESIAN_POINT('CRP',(5.,0.,-60.));
#279=CARTESIAN_POINT('',(0.,0.,-60.));
#280=CARTESIAN_POINT('',(0.566666666666672,0.,-60.));
#281=CARTESIAN_POINT('',(1.13333333333334,0.,-60.));
#282=CARTESIAN_POINT('',(1.70000000000002,0.,-60.));
#283=CARTESIAN_POINT('',(2.61141244760343,0.,-60.));
#284=CARTESIAN_POINT('',(3.48978401661709,0.,-59.7568209787114));
#285=CARTESIAN_POINT('',(4.27142857142859,0.,-59.2880945770868));
#286=CARTESIAN_POINT('',(4.73412510344075,0.,-59.0106307616489));
#287=CARTESIAN_POINT('',(5.00000000000003,0.,-58.5411791784233));
#288=CARTESIAN_POINT('',(5.00000000000002,0.,-58.0016662039607));
#289=CARTESIAN_POINT('',(5.,0.,-56.1677927481578));
#290=CARTESIAN_POINT('',(5.00000000000002,0.,-54.3339192923548));
#291=CARTESIAN_POINT('',(5.00000000000002,0.,-52.5000458365519));
#292=CARTESIAN_POINT('',(5.00000000000002,0.,-52.1595034099687));
#293=CARTESIAN_POINT('',(4.91486439335422,0.,-51.8297746232603));
#294=CARTESIAN_POINT('',(4.75,0.,-51.5318));
#295=CARTESIAN_POINT('',(3.16666666666667,0.,-51.5318));
#296=CARTESIAN_POINT('',(1.58333333333333,0.,-51.5318));
#297=CARTESIAN_POINT('',(0.,0.,-51.5318));
#298=CARTESIAN_POINT('',(0.,0.,0.));
#299=CARTESIAN_POINT('',(0.,0.,-60.));
#300=CARTESIAN_POINT('',(0.,0.,-40.));
#301=CARTESIAN_POINT('',(0.,0.,-0.5));
#302=CARTESIAN_POINT('',(5.,0.,-0.5));
#303=CARTESIAN_POINT('',(0.,0.,-44.57));
#304=CARTESIAN_POINT('',(5.,0.,-44.57));
#305=CARTESIAN_POINT('',(0.,0.,-49.027));
#306=CARTESIAN_POINT('',(0.,0.,0.));
#307=CARTESIAN_POINT('',(4.5,0.,0.));
#308=CARTESIAN_POINT('',(0.,0.,0.));
#309=CARTESIAN_POINT('',(0.,0.,0.));
#310=CARTESIAN_POINT('',(0.,0.,-51.5318));
#311=CARTESIAN_POINT('',(4.75,0.,-51.5318));
#312=CARTESIAN_POINT('',(0.,0.,-51.5318));
#313=CARTESIAN_POINT('',(0.,0.,-45.0030127018922));
#314=CARTESIAN_POINT('',(4.75,0.,-45.0030127018922));
#315=CARTESIAN_POINT('',(0.,0.,-52.22798));
#316=CARTESIAN_POINT('',(0.,0.,-44.57));
#317=CARTESIAN_POINT('',(0.,0.,-52.5000458365519));
#318=CARTESIAN_POINT('',(-5.,0.,-52.5000458365519));
#319=CARTESIAN_POINT('',(0.,0.,-58.0016662039607));
#320=CARTESIAN_POINT('',(-5.,0.,-58.0016662039607));
#321=CARTESIAN_POINT('',(0.,0.,-60.84682));
#322=CARTESIAN_POINT('',(0.,0.,-59.2880945770868));
#323=CARTESIAN_POINT('',(-4.27142857142857,0.,-59.2880945770868));
#324=CARTESIAN_POINT('',(0.,0.,-58.0016662039607));
#325=CARTESIAN_POINT('',(0.,0.,-60.));
#326=CARTESIAN_POINT('',(-1.7,0.,-60.));
#327=CARTESIAN_POINT('',(-1.7,0.,-60.));
#328=CARTESIAN_POINT('',(-1.7,3.4,-60.));
#329=CARTESIAN_POINT('',(1.7,3.4,-60.));
#330=CARTESIAN_POINT('',(1.7,0.,-60.));
#331=CARTESIAN_POINT('',(1.7,-3.4,-60.));
#332=CARTESIAN_POINT('',(-1.7,-3.4,-60.));
#333=CARTESIAN_POINT('',(-1.7,0.,-60.));
#334=CARTESIAN_POINT('',(-2.6114124476034,0.,-60.));
#335=CARTESIAN_POINT('',(-2.6114124476034,5.22282489520681,-60.));
#336=CARTESIAN_POINT('',(2.6114124476034,5.22282489520681,-60.));
#337=CARTESIAN_POINT('',(2.6114124476034,0.,-60.));
#338=CARTESIAN_POINT('',(2.6114124476034,-5.22282489520681,-60.));
#339=CARTESIAN_POINT('',(-2.6114124476034,-5.22282489520681,-60.));
#340=CARTESIAN_POINT('',(-2.6114124476034,0.,-60.));
#341=CARTESIAN_POINT('',(-3.48978401661707,0.,-59.7568209787114));
#342=CARTESIAN_POINT('',(-3.48978401661707,6.97956803323414,-59.7568209787114));
#343=CARTESIAN_POINT('',(3.48978401661707,6.97956803323414,-59.7568209787114));
#344=CARTESIAN_POINT('',(3.48978401661707,0.,-59.7568209787114));
#345=CARTESIAN_POINT('',(3.48978401661707,-6.97956803323414,-59.7568209787114));
#346=CARTESIAN_POINT('',(-3.48978401661707,-6.97956803323414,-59.7568209787114));
#347=CARTESIAN_POINT('',(-3.48978401661707,0.,-59.7568209787114));
#348=CARTESIAN_POINT('',(-4.27142857142857,0.,-59.2880945770868));
#349=CARTESIAN_POINT('',(-4.27142857142857,8.54285714285714,-59.2880945770868));
#350=CARTESIAN_POINT('',(4.27142857142857,8.54285714285714,-59.2880945770868));
#351=CARTESIAN_POINT('',(4.27142857142857,0.,-59.2880945770868));
#352=CARTESIAN_POINT('',(4.27142857142857,-8.54285714285714,-59.2880945770868));
#353=CARTESIAN_POINT('',(-4.27142857142857,-8.54285714285714,-59.2880945770868));
#354=CARTESIAN_POINT('',(-4.27142857142857,0.,-59.2880945770868));
#355=CARTESIAN_POINT('',(0.,0.,-51.5318));
#356=CARTESIAN_POINT('',(-4.75,0.,-51.5318));
#357=CARTESIAN_POINT('',(0.,0.,-52.5000458365519));
#358=CARTESIAN_POINT('',(0.,0.,-60.));
#359=CARTESIAN_POINT('',(0.,0.,-51.5318));
#360=MECHANICAL_DESIGN_GEOMETRIC_PRESENTATION_REPRESENTATION('',(#168,#169,
#170,#171,#172,#173,#174,#175,#176,#177),#361);
#361=(
GEOMETRIC_REPRESENTATION_CONTEXT(3)
GLOBAL_UNCERTAINTY_ASSIGNED_CONTEXT((#362))
GLOBAL_UNIT_ASSIGNED_CONTEXT((#368,#364,#363))
REPRESENTATION_CONTEXT('1552557861965','TOP_LEVEL_ASSEMBLY_PART')
);
#362=UNCERTAINTY_MEASURE_WITH_UNIT(LENGTH_MEASURE(0.0254),#368,
'DISTANCE_ACCURACY_VALUE','Maximum Tolerance applied to model');
#363=(
NAMED_UNIT(*)
SI_UNIT($,.STERADIAN.)
SOLID_ANGLE_UNIT()
);
#364=(
CONVERSION_BASED_UNIT('DEGREE',#366)
NAMED_UNIT(#365)
PLANE_ANGLE_UNIT()
);
#365=DIMENSIONAL_EXPONENTS(0.,0.,0.,0.,0.,0.,0.);
#366=PLANE_ANGLE_MEASURE_WITH_UNIT(PLANE_ANGLE_MEASURE(0.0174532925),#367);
#367=(
NAMED_UNIT(*)
PLANE_ANGLE_UNIT()
SI_UNIT($,.RADIAN.)
);
#368=(
LENGTH_UNIT()
NAMED_UNIT(*)
SI_UNIT(.MILLI.,.METRE.)
);
ENDSEC;
END-ISO-10303-21;
