ISO-10303-21;
HEADER;
/* Generated by software containing ST-Developer
 * from STEP Tools, Inc. (www.steptools.com) 
 */
/* OPTION: using custom schema-name function */

FILE_DESCRIPTION(
/* description */ (''),
/* implementation_level */ '2;1');

FILE_NAME(
/* name */ '1505836914436.stp',
/* time_stamp */ '2017-09-19T18:02:19+02:00',
/* author */ (''),
/* organization */ ('SMS'),
/* preprocessor_version */ 'ST-DEVELOPER v15',
/* originating_system */ 'SIEMENS PLM Software NX 8.5',
/* authorisation */ '');

FILE_SCHEMA (('AUTOMOTIVE_DESIGN { 1 0 10303 214 3 1 1 1 }'));
ENDSEC;

DATA;
#10=CONSTRUCTIVE_GEOMETRY_REPRESENTATION_RELATIONSHIP(
'supplemental geometry','',#24,#11);
#11=CONSTRUCTIVE_GEOMETRY_REPRESENTATION('supplemental geometry',(#258,
#259,#260),#377);
#12=SHAPE_REPRESENTATION_RELATIONSHIP('None',
'relationship between 1232xxxxx-None and 1232xxxxx-None',#24,#13);
#13=ADVANCED_BREP_SHAPE_REPRESENTATION('1232xxxxx-None',(#102),#377);
#14=SHAPE_DEFINITION_REPRESENTATION(#15,#24);
#15=PRODUCT_DEFINITION_SHAPE('','',#16);
#16=PRODUCT_DEFINITION(' ','',#18,#17);
#17=PRODUCT_DEFINITION_CONTEXT('part definition',#23,'design');
#18=PRODUCT_DEFINITION_FORMATION_WITH_SPECIFIED_SOURCE(' ',' ',#20,
 .NOT_KNOWN.);
#19=PRODUCT_RELATED_PRODUCT_CATEGORY('part','',(#20));
#20=PRODUCT('1232xxxxx','1232xxxxx',' ',(#21));
#21=PRODUCT_CONTEXT(' ',#23,'mechanical');
#22=APPLICATION_PROTOCOL_DEFINITION('international standard',
'automotive_design',2010,#23);
#23=APPLICATION_CONTEXT(
'core data for automotive mechanical design processes');
#24=SHAPE_REPRESENTATION('1232xxxxx-None',(#257),#377);
#25=OVER_RIDING_STYLED_ITEM('',(#236),#114,#231);
#26=OVER_RIDING_STYLED_ITEM('',(#237),#115,#231);
#27=OVER_RIDING_STYLED_ITEM('',(#238),#116,#231);
#28=OVER_RIDING_STYLED_ITEM('',(#239),#117,#231);
#29=OVER_RIDING_STYLED_ITEM('',(#240),#118,#231);
#30=OVER_RIDING_STYLED_ITEM('',(#241),#119,#231);
#31=OVER_RIDING_STYLED_ITEM('',(#242),#120,#231);
#32=OVER_RIDING_STYLED_ITEM('',(#243),#121,#231);
#33=OVER_RIDING_STYLED_ITEM('',(#244),#122,#231);
#34=OVER_RIDING_STYLED_ITEM('',(#245),#123,#231);
#35=OVER_RIDING_STYLED_ITEM('',(#246),#124,#231);
#36=OVER_RIDING_STYLED_ITEM('',(#247),#125,#231);
#37=SURFACE_STYLE_USAGE(.BOTH.,#50);
#38=SURFACE_STYLE_USAGE(.BOTH.,#51);
#39=SURFACE_STYLE_USAGE(.BOTH.,#52);
#40=SURFACE_STYLE_USAGE(.BOTH.,#53);
#41=SURFACE_STYLE_USAGE(.BOTH.,#54);
#42=SURFACE_STYLE_USAGE(.BOTH.,#55);
#43=SURFACE_STYLE_USAGE(.BOTH.,#56);
#44=SURFACE_STYLE_USAGE(.BOTH.,#57);
#45=SURFACE_STYLE_USAGE(.BOTH.,#58);
#46=SURFACE_STYLE_USAGE(.BOTH.,#59);
#47=SURFACE_STYLE_USAGE(.BOTH.,#60);
#48=SURFACE_STYLE_USAGE(.BOTH.,#61);
#49=SURFACE_STYLE_USAGE(.BOTH.,#62);
#50=SURFACE_SIDE_STYLE('',(#63));
#51=SURFACE_SIDE_STYLE('',(#64));
#52=SURFACE_SIDE_STYLE('',(#65));
#53=SURFACE_SIDE_STYLE('',(#66));
#54=SURFACE_SIDE_STYLE('',(#67));
#55=SURFACE_SIDE_STYLE('',(#68));
#56=SURFACE_SIDE_STYLE('',(#69));
#57=SURFACE_SIDE_STYLE('',(#70));
#58=SURFACE_SIDE_STYLE('',(#71));
#59=SURFACE_SIDE_STYLE('',(#72));
#60=SURFACE_SIDE_STYLE('',(#73));
#61=SURFACE_SIDE_STYLE('',(#74));
#62=SURFACE_SIDE_STYLE('',(#75));
#63=SURFACE_STYLE_FILL_AREA(#76);
#64=SURFACE_STYLE_FILL_AREA(#77);
#65=SURFACE_STYLE_FILL_AREA(#78);
#66=SURFACE_STYLE_FILL_AREA(#79);
#67=SURFACE_STYLE_FILL_AREA(#80);
#68=SURFACE_STYLE_FILL_AREA(#81);
#69=SURFACE_STYLE_FILL_AREA(#82);
#70=SURFACE_STYLE_FILL_AREA(#83);
#71=SURFACE_STYLE_FILL_AREA(#84);
#72=SURFACE_STYLE_FILL_AREA(#85);
#73=SURFACE_STYLE_FILL_AREA(#86);
#74=SURFACE_STYLE_FILL_AREA(#87);
#75=SURFACE_STYLE_FILL_AREA(#88);
#76=FILL_AREA_STYLE('',(#89));
#77=FILL_AREA_STYLE('',(#90));
#78=FILL_AREA_STYLE('',(#91));
#79=FILL_AREA_STYLE('',(#92));
#80=FILL_AREA_STYLE('',(#93));
#81=FILL_AREA_STYLE('',(#94));
#82=FILL_AREA_STYLE('',(#95));
#83=FILL_AREA_STYLE('',(#96));
#84=FILL_AREA_STYLE('',(#97));
#85=FILL_AREA_STYLE('',(#98));
#86=FILL_AREA_STYLE('',(#99));
#87=FILL_AREA_STYLE('',(#100));
#88=FILL_AREA_STYLE('',(#101));
#89=FILL_AREA_STYLE_COLOUR('',#252);
#90=FILL_AREA_STYLE_COLOUR('',#253);
#91=FILL_AREA_STYLE_COLOUR('',#253);
#92=FILL_AREA_STYLE_COLOUR('',#253);
#93=FILL_AREA_STYLE_COLOUR('',#253);
#94=FILL_AREA_STYLE_COLOUR('',#253);
#95=FILL_AREA_STYLE_COLOUR('',#253);
#96=FILL_AREA_STYLE_COLOUR('',#253);
#97=FILL_AREA_STYLE_COLOUR('',#253);
#98=FILL_AREA_STYLE_COLOUR('',#253);
#99=FILL_AREA_STYLE_COLOUR('',#253);
#100=FILL_AREA_STYLE_COLOUR('',#253);
#101=FILL_AREA_STYLE_COLOUR('',#253);
#102=MANIFOLD_SOLID_BREP('NOCUT',#103);
#103=CLOSED_SHELL('',(#114,#115,#116,#117,#118,#119,#120,#121,#122,#123,
#124,#125));
#104=CYLINDRICAL_SURFACE('',#273,14.6);
#105=FACE_OUTER_BOUND('',#156,.T.);
#106=FACE_OUTER_BOUND('',#171,.T.);
#107=CONICAL_SURFACE('',#268,16.5,8.00000000000015);
#108=CONICAL_SURFACE('',#275,16.2178203230275,30.);
#109=CONICAL_SURFACE('',#277,16.4464101615138,30.);
#110=PLANE('',#266);
#111=PLANE('',#269);
#112=PLANE('',#282);
#113=PLANE('',#283);
#114=ADVANCED_FACE('',(#130,#131),#126,.T.);
#115=ADVANCED_FACE('',(#132,#133),#110,.F.);
#116=ADVANCED_FACE('',(#134,#135),#107,.T.);
#117=ADVANCED_FACE('',(#105),#111,.F.);
#118=ADVANCED_FACE('',(#136,#137),#127,.F.);
#119=ADVANCED_FACE('',(#138,#139),#104,.T.);
#120=ADVANCED_FACE('',(#140,#141),#108,.T.);
#121=ADVANCED_FACE('',(#142,#143),#109,.T.);
#122=ADVANCED_FACE('',(#144,#145),#128,.T.);
#123=ADVANCED_FACE('',(#146,#147),#129,.F.);
#124=ADVANCED_FACE('',(#148,#149),#112,.F.);
#125=ADVANCED_FACE('',(#106),#113,.T.);
#126=TOROIDAL_SURFACE('',#263,11.8965021863512,0.3);
#127=TOROIDAL_SURFACE('',#271,14.8,0.2);
#128=TOROIDAL_SURFACE('',#279,13.3552359521597,0.25);
#129=TOROIDAL_SURFACE('',#281,14.8,0.2);
#130=FACE_BOUND('',#150,.T.);
#131=FACE_BOUND('',#151,.T.);
#132=FACE_BOUND('',#152,.T.);
#133=FACE_BOUND('',#153,.T.);
#134=FACE_BOUND('',#154,.T.);
#135=FACE_BOUND('',#155,.T.);
#136=FACE_BOUND('',#157,.T.);
#137=FACE_BOUND('',#158,.T.);
#138=FACE_BOUND('',#159,.T.);
#139=FACE_BOUND('',#160,.T.);
#140=FACE_BOUND('',#161,.T.);
#141=FACE_BOUND('',#162,.T.);
#142=FACE_BOUND('',#163,.T.);
#143=FACE_BOUND('',#164,.T.);
#144=FACE_BOUND('',#165,.T.);
#145=FACE_BOUND('',#166,.T.);
#146=FACE_BOUND('',#167,.T.);
#147=FACE_BOUND('',#168,.T.);
#148=FACE_BOUND('',#169,.T.);
#149=FACE_BOUND('',#170,.T.);
#150=EDGE_LOOP('',(#172));
#151=EDGE_LOOP('',(#173));
#152=EDGE_LOOP('',(#174));
#153=EDGE_LOOP('',(#175));
#154=EDGE_LOOP('',(#176));
#155=EDGE_LOOP('',(#177));
#156=EDGE_LOOP('',(#178));
#157=EDGE_LOOP('',(#179));
#158=EDGE_LOOP('',(#180));
#159=EDGE_LOOP('',(#181));
#160=EDGE_LOOP('',(#182));
#161=EDGE_LOOP('',(#183));
#162=EDGE_LOOP('',(#184));
#163=EDGE_LOOP('',(#185));
#164=EDGE_LOOP('',(#186));
#165=EDGE_LOOP('',(#187));
#166=EDGE_LOOP('',(#188));
#167=EDGE_LOOP('',(#189));
#168=EDGE_LOOP('',(#190));
#169=EDGE_LOOP('',(#191));
#170=EDGE_LOOP('',(#192));
#171=EDGE_LOOP('',(#193));
#172=ORIENTED_EDGE('',*,*,#205,.T.);
#173=ORIENTED_EDGE('',*,*,#206,.F.);
#174=ORIENTED_EDGE('',*,*,#207,.F.);
#175=ORIENTED_EDGE('',*,*,#208,.T.);
#176=ORIENTED_EDGE('',*,*,#209,.T.);
#177=ORIENTED_EDGE('',*,*,#205,.F.);
#178=ORIENTED_EDGE('',*,*,#206,.T.);
#179=ORIENTED_EDGE('',*,*,#210,.F.);
#180=ORIENTED_EDGE('',*,*,#207,.T.);
#181=ORIENTED_EDGE('',*,*,#211,.F.);
#182=ORIENTED_EDGE('',*,*,#210,.T.);
#183=ORIENTED_EDGE('',*,*,#208,.F.);
#184=ORIENTED_EDGE('',*,*,#212,.T.);
#185=ORIENTED_EDGE('',*,*,#212,.F.);
#186=ORIENTED_EDGE('',*,*,#213,.T.);
#187=ORIENTED_EDGE('',*,*,#213,.F.);
#188=ORIENTED_EDGE('',*,*,#214,.T.);
#189=ORIENTED_EDGE('',*,*,#211,.T.);
#190=ORIENTED_EDGE('',*,*,#215,.F.);
#191=ORIENTED_EDGE('',*,*,#215,.T.);
#192=ORIENTED_EDGE('',*,*,#209,.F.);
#193=ORIENTED_EDGE('',*,*,#214,.F.);
#194=VERTEX_POINT('',#343);
#195=VERTEX_POINT('',#345);
#196=VERTEX_POINT('',#348);
#197=VERTEX_POINT('',#350);
#198=VERTEX_POINT('',#353);
#199=VERTEX_POINT('',#357);
#200=VERTEX_POINT('',#360);
#201=VERTEX_POINT('',#363);
#202=VERTEX_POINT('',#366);
#203=VERTEX_POINT('',#369);
#204=VERTEX_POINT('',#372);
#205=EDGE_CURVE('',#194,#194,#216,.T.);
#206=EDGE_CURVE('',#195,#195,#217,.T.);
#207=EDGE_CURVE('',#196,#196,#218,.T.);
#208=EDGE_CURVE('',#197,#197,#219,.T.);
#209=EDGE_CURVE('',#198,#198,#220,.T.);
#210=EDGE_CURVE('',#199,#199,#221,.T.);
#211=EDGE_CURVE('',#200,#200,#222,.T.);
#212=EDGE_CURVE('',#201,#201,#223,.T.);
#213=EDGE_CURVE('',#202,#202,#224,.T.);
#214=EDGE_CURVE('',#203,#203,#225,.T.);
#215=EDGE_CURVE('',#204,#204,#226,.T.);
#216=CIRCLE('',#261,12.1935826069736);
#217=CIRCLE('',#262,11.8965021863512);
#218=CIRCLE('',#264,14.8);
#219=CIRCLE('',#265,16.2178203230275);
#220=CIRCLE('',#267,16.5);
#221=CIRCLE('',#270,14.6);
#222=CIRCLE('',#272,14.6);
#223=CIRCLE('',#274,16.4464101615138);
#224=CIRCLE('',#276,13.5717423031058);
#225=CIRCLE('',#278,13.3552359521597);
#226=CIRCLE('',#280,14.8);
#227=PRESENTATION_LAYER_ASSIGNMENT('1','Layer 1',(#258,#259,#260,#102));
#228=STYLED_ITEM('',(#232),#258);
#229=STYLED_ITEM('',(#233),#259);
#230=STYLED_ITEM('',(#234),#260);
#231=STYLED_ITEM('',(#235),#102);
#232=PRESENTATION_STYLE_ASSIGNMENT((#248));
#233=PRESENTATION_STYLE_ASSIGNMENT((#249));
#234=PRESENTATION_STYLE_ASSIGNMENT((#250));
#235=PRESENTATION_STYLE_ASSIGNMENT((#37));
#236=PRESENTATION_STYLE_ASSIGNMENT((#38));
#237=PRESENTATION_STYLE_ASSIGNMENT((#39));
#238=PRESENTATION_STYLE_ASSIGNMENT((#40));
#239=PRESENTATION_STYLE_ASSIGNMENT((#41));
#240=PRESENTATION_STYLE_ASSIGNMENT((#42));
#241=PRESENTATION_STYLE_ASSIGNMENT((#43));
#242=PRESENTATION_STYLE_ASSIGNMENT((#44));
#243=PRESENTATION_STYLE_ASSIGNMENT((#45));
#244=PRESENTATION_STYLE_ASSIGNMENT((#46));
#245=PRESENTATION_STYLE_ASSIGNMENT((#47));
#246=PRESENTATION_STYLE_ASSIGNMENT((#48));
#247=PRESENTATION_STYLE_ASSIGNMENT((#49));
#248=CURVE_STYLE('',#254,POSITIVE_LENGTH_MEASURE(0.13),#251);
#249=CURVE_STYLE('',#255,POSITIVE_LENGTH_MEASURE(0.13),#251);
#250=CURVE_STYLE('',#256,POSITIVE_LENGTH_MEASURE(0.13),#251);
#251=COLOUR_RGB('Strong Stone',0.576470588235294,0.54508278019379,0.392156862745098);
#252=COLOUR_RGB('Medium Steel',0.596063172350652,0.666666666666667,0.686259250782025);
#253=COLOUR_RGB('Medium Gray',0.490196078431373,0.490196078431373,0.490196078431373);
#254=DRAUGHTING_PRE_DEFINED_CURVE_FONT('continuous');
#255=DRAUGHTING_PRE_DEFINED_CURVE_FONT('continuous');
#256=DRAUGHTING_PRE_DEFINED_CURVE_FONT('continuous');
#257=AXIS2_PLACEMENT_3D('',#338,#284,#285);
#258=AXIS2_PLACEMENT_3D('CSW',#339,#286,#287);
#259=AXIS2_PLACEMENT_3D('PCS',#340,#288,#289);
#260=AXIS2_PLACEMENT_3D('MCS',#341,#290,#291);
#261=AXIS2_PLACEMENT_3D('',#342,#292,#293);
#262=AXIS2_PLACEMENT_3D('',#344,#294,#295);
#263=AXIS2_PLACEMENT_3D('',#346,#296,#297);
#264=AXIS2_PLACEMENT_3D('',#347,#298,#299);
#265=AXIS2_PLACEMENT_3D('',#349,#300,#301);
#266=AXIS2_PLACEMENT_3D('',#351,#302,#303);
#267=AXIS2_PLACEMENT_3D('',#352,#304,#305);
#268=AXIS2_PLACEMENT_3D('',#354,#306,#307);
#269=AXIS2_PLACEMENT_3D('',#355,#308,#309);
#270=AXIS2_PLACEMENT_3D('',#356,#310,#311);
#271=AXIS2_PLACEMENT_3D('',#358,#312,#313);
#272=AXIS2_PLACEMENT_3D('',#359,#314,#315);
#273=AXIS2_PLACEMENT_3D('',#361,#316,#317);
#274=AXIS2_PLACEMENT_3D('',#362,#318,#319);
#275=AXIS2_PLACEMENT_3D('',#364,#320,#321);
#276=AXIS2_PLACEMENT_3D('',#365,#322,#323);
#277=AXIS2_PLACEMENT_3D('',#367,#324,#325);
#278=AXIS2_PLACEMENT_3D('',#368,#326,#327);
#279=AXIS2_PLACEMENT_3D('',#370,#328,#329);
#280=AXIS2_PLACEMENT_3D('',#371,#330,#331);
#281=AXIS2_PLACEMENT_3D('',#373,#332,#333);
#282=AXIS2_PLACEMENT_3D('',#374,#334,#335);
#283=AXIS2_PLACEMENT_3D('',#375,#336,#337);
#284=DIRECTION('',(0.,0.,1.));
#285=DIRECTION('',(1.,0.,0.));
#286=DIRECTION('',(0.,0.,1.));
#287=DIRECTION('',(1.,0.,0.));
#288=DIRECTION('',(0.,0.,1.));
#289=DIRECTION('',(1.,0.,0.));
#290=DIRECTION('',(0.,0.,1.));
#291=DIRECTION('',(1.,0.,0.));
#292=DIRECTION('',(-6.12323399573677E-017,0.,1.));
#293=DIRECTION('',(1.,0.,0.));
#294=DIRECTION('',(-6.12323399573677E-017,0.,1.));
#295=DIRECTION('',(1.,0.,0.));
#296=DIRECTION('',(-6.12323399573677E-017,0.,1.));
#297=DIRECTION('',(-1.,0.,0.));
#298=DIRECTION('',(-6.34867233107054E-017,0.,1.));
#299=DIRECTION('',(1.,0.,5.86055228370543E-017));
#300=DIRECTION('',(-6.12323399573677E-017,0.,1.));
#301=DIRECTION('',(1.,0.,5.34820167391327E-017));
#302=DIRECTION('',(6.34867233107054E-017,0.,-1.));
#303=DIRECTION('',(1.,0.,6.33174068731535E-017));
#304=DIRECTION('',(-6.12323399573677E-017,0.,1.));
#305=DIRECTION('',(1.,0.,5.25673780599032E-017));
#306=DIRECTION('',(6.12323399573677E-017,0.,-1.));
#307=DIRECTION('',(1.,0.,-4.69468644055101E-017));
#308=DIRECTION('',(6.12323399573677E-017,0.,-1.));
#309=DIRECTION('',(1.,0.,6.24500451351651E-017));
#310=DIRECTION('',(-6.34867233107054E-017,0.,1.));
#311=DIRECTION('',(1.,0.,5.94083382183838E-017));
#312=DIRECTION('',(-6.34867233107054E-017,0.,1.));
#313=DIRECTION('',(-1.,0.,-5.78241158658936E-017));
#314=DIRECTION('',(-6.34867233107054E-017,0.,1.));
#315=DIRECTION('',(1.,0.,5.94083382183838E-017));
#316=DIRECTION('',(6.34867233107054E-017,0.,-1.));
#317=DIRECTION('',(-1.,0.,0.));
#318=DIRECTION('',(-6.12323399573677E-017,0.,1.));
#319=DIRECTION('',(1.,0.,5.27386663393641E-017));
#320=DIRECTION('',(6.12323399573677E-017,0.,-1.));
#321=DIRECTION('',(1.,0.,-9.20598503503357E-017));
#322=DIRECTION('',(-6.12323399573677E-017,0.,1.));
#323=DIRECTION('',(1.,0.,0.));
#324=DIRECTION('',(-6.12323399573677E-017,0.,1.));
#325=DIRECTION('',(-1.,0.,2.92140986351153E-018));
#326=DIRECTION('',(-6.12323399573677E-017,0.,1.));
#327=DIRECTION('',(1.,0.,0.));
#328=DIRECTION('',(-6.12323399573677E-017,0.,1.));
#329=DIRECTION('',(-1.,0.,0.));
#330=DIRECTION('',(-6.34867233107054E-017,0.,1.));
#331=DIRECTION('',(1.,0.,5.86055228370543E-017));
#332=DIRECTION('',(-6.34867233107054E-017,0.,1.));
#333=DIRECTION('',(-1.,0.,-5.78241158658936E-017));
#334=DIRECTION('',(-6.34867233107054E-017,0.,1.));
#335=DIRECTION('',(-1.,0.,-6.33174068731535E-017));
#336=DIRECTION('',(6.12323399573677E-017,0.,-1.));
#337=DIRECTION('',(1.,0.,6.07153216591882E-017));
#338=CARTESIAN_POINT('',(0.,0.,0.));
#339=CARTESIAN_POINT('',(0.,0.,-12.66));
#340=CARTESIAN_POINT('',(0.,0.,0.));
#341=CARTESIAN_POINT('',(0.,0.,0.));
#342=CARTESIAN_POINT('',(-2.44572693268824E-015,0.,27.081751930288));
#343=CARTESIAN_POINT('',(12.1935826069736,0.,27.081751930288));
#344=CARTESIAN_POINT('',(-2.46154006628618E-015,0.,27.34));
#345=CARTESIAN_POINT('',(11.8965021863512,0.,27.34));
#346=CARTESIAN_POINT('',(-2.44317036429897E-015,0.,27.04));
#347=CARTESIAN_POINT('',(-3.61874322871021E-016,0.,-7.16));
#348=CARTESIAN_POINT('',(14.8,0.,-7.16));
#349=CARTESIAN_POINT('',(-3.49024337756995E-016,0.,-7.16));
#350=CARTESIAN_POINT('',(16.2178203230275,0.,-7.16));
#351=CARTESIAN_POINT('',(16.5690598923242,0.,-7.16));
#352=CARTESIAN_POINT('',(-5.69460761603519E-016,0.,-3.56));
#353=CARTESIAN_POINT('',(16.5,0.,-3.56));
#354=CARTESIAN_POINT('',(-5.69460761603519E-016,0.,-3.56));
#355=CARTESIAN_POINT('',(-2.46154006628618E-015,11.8965021863512,27.34));
#356=CARTESIAN_POINT('',(-3.74571667533161E-016,0.,-6.96));
#357=CARTESIAN_POINT('',(14.6,0.,-6.96));
#358=CARTESIAN_POINT('',(-3.61270805748469E-016,0.,-6.96));
#359=CARTESIAN_POINT('',(-5.77729182127419E-016,0.,-3.76));
#360=CARTESIAN_POINT('',(14.6,0.,-3.76));
#361=CARTESIAN_POINT('',(-2.15854859256398E-015,0.,21.14));
#362=CARTESIAN_POINT('',(-3.24780665504734E-016,0.,-7.55592921435211));
#363=CARTESIAN_POINT('',(16.4464101615138,0.,-7.55592921435211));
#364=CARTESIAN_POINT('',(-3.49024337756995E-016,0.,-7.16));
#365=CARTESIAN_POINT('',(-1.99005104861449E-017,0.,-12.535));
#366=CARTESIAN_POINT('',(13.5717423031058,0.,-12.535));
#367=CARTESIAN_POINT('',(-3.24780665504734E-016,0.,-7.55592921435211));
#368=CARTESIAN_POINT('',(-1.22464679914739E-017,0.,-12.66));
#369=CARTESIAN_POINT('',(13.3552359521597,0.,-12.66));
#370=CARTESIAN_POINT('',(-2.75545529808156E-017,0.,-12.41));
#371=CARTESIAN_POINT('',(-5.9042652678956E-016,0.,-3.56));
#372=CARTESIAN_POINT('',(14.8,0.,-3.56));
#373=CARTESIAN_POINT('',(-5.57214293612046E-016,0.,-3.76));
#374=CARTESIAN_POINT('',(14.8,0.,-3.56));
#375=CARTESIAN_POINT('',(-1.22464679914736E-017,13.3552359521597,-12.66));
#376=MECHANICAL_DESIGN_GEOMETRIC_PRESENTATION_REPRESENTATION('',(#228,#229,
#230,#231,#25,#26,#27,#28,#29,#30,#31,#32,#33,#34,#35,#36),#377);
#377=(
GEOMETRIC_REPRESENTATION_CONTEXT(3)
GLOBAL_UNCERTAINTY_ASSIGNED_CONTEXT((#378))
GLOBAL_UNIT_ASSIGNED_CONTEXT((#384,#380,#379))
REPRESENTATION_CONTEXT('1505836914436','TOP_LEVEL_ASSEMBLY_PART')
);
#378=UNCERTAINTY_MEASURE_WITH_UNIT(LENGTH_MEASURE(2.E-005),#384,
'DISTANCE_ACCURACY_VALUE','Maximum Tolerance applied to model');
#379=(
NAMED_UNIT(*)
SI_UNIT($,.STERADIAN.)
SOLID_ANGLE_UNIT()
);
#380=(
CONVERSION_BASED_UNIT('DEGREE',#382)
NAMED_UNIT(#381)
PLANE_ANGLE_UNIT()
);
#381=DIMENSIONAL_EXPONENTS(0.,0.,0.,0.,0.,0.,0.);
#382=PLANE_ANGLE_MEASURE_WITH_UNIT(PLANE_ANGLE_MEASURE(0.0174532925),#383);
#383=(
NAMED_UNIT(*)
PLANE_ANGLE_UNIT()
SI_UNIT($,.RADIAN.)
);
#384=(
LENGTH_UNIT()
NAMED_UNIT(*)
SI_UNIT(.MILLI.,.METRE.)
);
ENDSEC;
END-ISO-10303-21;
