ISO-10303-21;
HEADER;
/* Generated by software containing ST-Developer
 * from STEP Tools, Inc. (www.steptools.com) 
 */
/* OPTION: using custom schema-name function */

FILE_DESCRIPTION(
/* description */ (''),
/* implementation_level */ '2;1');

FILE_NAME(
/* name */ '1505831445060.stp',
/* time_stamp */ '2017-09-19T16:30:51+02:00',
/* author */ (''),
/* organization */ ('SMS'),
/* preprocessor_version */ 'ST-DEVELOPER v15',
/* originating_system */ 'SIEMENS PLM Software NX 8.5',
/* authorisation */ '');

FILE_SCHEMA (('AUTOMOTIVE_DESIGN { 1 0 10303 214 3 1 1 1 }'));
ENDSEC;

DATA;
#10=CONSTRUCTIVE_GEOMETRY_REPRESENTATION_RELATIONSHIP(
'supplemental geometry','',#24,#11);
#11=CONSTRUCTIVE_GEOMETRY_REPRESENTATION('supplemental geometry',(#294,
#295,#296),#431);
#12=SHAPE_REPRESENTATION_RELATIONSHIP('None',
'relationship between 1116xxxxx-None and 1116xxxxx-None',#24,#13);
#13=ADVANCED_BREP_SHAPE_REPRESENTATION('1116xxxxx-None',(#114),#431);
#14=SHAPE_DEFINITION_REPRESENTATION(#15,#24);
#15=PRODUCT_DEFINITION_SHAPE('','',#16);
#16=PRODUCT_DEFINITION(' ','',#18,#17);
#17=PRODUCT_DEFINITION_CONTEXT('part definition',#23,'design');
#18=PRODUCT_DEFINITION_FORMATION_WITH_SPECIFIED_SOURCE(' ',' ',#20,
 .NOT_KNOWN.);
#19=PRODUCT_RELATED_PRODUCT_CATEGORY('part','',(#20));
#20=PRODUCT('1116xxxxx','1116xxxxx',' ',(#21));
#21=PRODUCT_CONTEXT(' ',#23,'mechanical');
#22=APPLICATION_PROTOCOL_DEFINITION('international standard',
'automotive_design',2010,#23);
#23=APPLICATION_CONTEXT(
'core data for automotive mechanical design processes');
#24=SHAPE_REPRESENTATION('1116xxxxx-None',(#293),#431);
#25=OVER_RIDING_STYLED_ITEM('',(#270),#129,#265);
#26=OVER_RIDING_STYLED_ITEM('',(#271),#130,#265);
#27=OVER_RIDING_STYLED_ITEM('',(#272),#131,#265);
#28=OVER_RIDING_STYLED_ITEM('',(#273),#132,#265);
#29=OVER_RIDING_STYLED_ITEM('',(#274),#133,#265);
#30=OVER_RIDING_STYLED_ITEM('',(#275),#134,#265);
#31=OVER_RIDING_STYLED_ITEM('',(#276),#135,#265);
#32=OVER_RIDING_STYLED_ITEM('',(#277),#136,#265);
#33=OVER_RIDING_STYLED_ITEM('',(#278),#137,#265);
#34=OVER_RIDING_STYLED_ITEM('',(#279),#138,#265);
#35=OVER_RIDING_STYLED_ITEM('',(#280),#139,#265);
#36=OVER_RIDING_STYLED_ITEM('',(#281),#140,#265);
#37=OVER_RIDING_STYLED_ITEM('',(#282),#141,#265);
#38=OVER_RIDING_STYLED_ITEM('',(#283),#142,#265);
#39=SURFACE_STYLE_USAGE(.BOTH.,#54);
#40=SURFACE_STYLE_USAGE(.BOTH.,#55);
#41=SURFACE_STYLE_USAGE(.BOTH.,#56);
#42=SURFACE_STYLE_USAGE(.BOTH.,#57);
#43=SURFACE_STYLE_USAGE(.BOTH.,#58);
#44=SURFACE_STYLE_USAGE(.BOTH.,#59);
#45=SURFACE_STYLE_USAGE(.BOTH.,#60);
#46=SURFACE_STYLE_USAGE(.BOTH.,#61);
#47=SURFACE_STYLE_USAGE(.BOTH.,#62);
#48=SURFACE_STYLE_USAGE(.BOTH.,#63);
#49=SURFACE_STYLE_USAGE(.BOTH.,#64);
#50=SURFACE_STYLE_USAGE(.BOTH.,#65);
#51=SURFACE_STYLE_USAGE(.BOTH.,#66);
#52=SURFACE_STYLE_USAGE(.BOTH.,#67);
#53=SURFACE_STYLE_USAGE(.BOTH.,#68);
#54=SURFACE_SIDE_STYLE('',(#69));
#55=SURFACE_SIDE_STYLE('',(#70));
#56=SURFACE_SIDE_STYLE('',(#71));
#57=SURFACE_SIDE_STYLE('',(#72));
#58=SURFACE_SIDE_STYLE('',(#73));
#59=SURFACE_SIDE_STYLE('',(#74));
#60=SURFACE_SIDE_STYLE('',(#75));
#61=SURFACE_SIDE_STYLE('',(#76));
#62=SURFACE_SIDE_STYLE('',(#77));
#63=SURFACE_SIDE_STYLE('',(#78));
#64=SURFACE_SIDE_STYLE('',(#79));
#65=SURFACE_SIDE_STYLE('',(#80));
#66=SURFACE_SIDE_STYLE('',(#81));
#67=SURFACE_SIDE_STYLE('',(#82));
#68=SURFACE_SIDE_STYLE('',(#83));
#69=SURFACE_STYLE_FILL_AREA(#84);
#70=SURFACE_STYLE_FILL_AREA(#85);
#71=SURFACE_STYLE_FILL_AREA(#86);
#72=SURFACE_STYLE_FILL_AREA(#87);
#73=SURFACE_STYLE_FILL_AREA(#88);
#74=SURFACE_STYLE_FILL_AREA(#89);
#75=SURFACE_STYLE_FILL_AREA(#90);
#76=SURFACE_STYLE_FILL_AREA(#91);
#77=SURFACE_STYLE_FILL_AREA(#92);
#78=SURFACE_STYLE_FILL_AREA(#93);
#79=SURFACE_STYLE_FILL_AREA(#94);
#80=SURFACE_STYLE_FILL_AREA(#95);
#81=SURFACE_STYLE_FILL_AREA(#96);
#82=SURFACE_STYLE_FILL_AREA(#97);
#83=SURFACE_STYLE_FILL_AREA(#98);
#84=FILL_AREA_STYLE('',(#99));
#85=FILL_AREA_STYLE('',(#100));
#86=FILL_AREA_STYLE('',(#101));
#87=FILL_AREA_STYLE('',(#102));
#88=FILL_AREA_STYLE('',(#103));
#89=FILL_AREA_STYLE('',(#104));
#90=FILL_AREA_STYLE('',(#105));
#91=FILL_AREA_STYLE('',(#106));
#92=FILL_AREA_STYLE('',(#107));
#93=FILL_AREA_STYLE('',(#108));
#94=FILL_AREA_STYLE('',(#109));
#95=FILL_AREA_STYLE('',(#110));
#96=FILL_AREA_STYLE('',(#111));
#97=FILL_AREA_STYLE('',(#112));
#98=FILL_AREA_STYLE('',(#113));
#99=FILL_AREA_STYLE_COLOUR('',#288);
#100=FILL_AREA_STYLE_COLOUR('',#289);
#101=FILL_AREA_STYLE_COLOUR('',#289);
#102=FILL_AREA_STYLE_COLOUR('',#289);
#103=FILL_AREA_STYLE_COLOUR('',#289);
#104=FILL_AREA_STYLE_COLOUR('',#289);
#105=FILL_AREA_STYLE_COLOUR('',#289);
#106=FILL_AREA_STYLE_COLOUR('',#289);
#107=FILL_AREA_STYLE_COLOUR('',#289);
#108=FILL_AREA_STYLE_COLOUR('',#289);
#109=FILL_AREA_STYLE_COLOUR('',#289);
#110=FILL_AREA_STYLE_COLOUR('',#289);
#111=FILL_AREA_STYLE_COLOUR('',#289);
#112=FILL_AREA_STYLE_COLOUR('',#289);
#113=FILL_AREA_STYLE_COLOUR('',#289);
#114=MANIFOLD_SOLID_BREP('NOCUT',#115);
#115=CLOSED_SHELL('',(#129,#130,#131,#132,#133,#134,#135,#136,#137,#138,
#139,#140,#141,#142));
#116=CYLINDRICAL_SURFACE('',#320,6.9);
#117=PLANE('',#304);
#118=PLANE('',#314);
#119=PLANE('',#316);
#120=PLANE('',#323);
#121=FACE_OUTER_BOUND('',#176,.T.);
#122=FACE_OUTER_BOUND('',#185,.T.);
#123=TOROIDAL_SURFACE('',#301,7.67970527422319,0.8);
#124=TOROIDAL_SURFACE('',#303,5.61370454268061,0.2);
#125=TOROIDAL_SURFACE('',#309,8.20000000003416,0.2);
#126=TOROIDAL_SURFACE('',#313,6.17126135594411,0.25);
#127=TOROIDAL_SURFACE('',#318,7.1,0.2);
#128=TOROIDAL_SURFACE('',#322,7.1,0.2);
#129=ADVANCED_FACE('',(#146,#147),#143,.T.);
#130=ADVANCED_FACE('',(#148,#149),#123,.T.);
#131=ADVANCED_FACE('',(#150,#151),#124,.T.);
#132=ADVANCED_FACE('',(#121),#117,.T.);
#133=ADVANCED_FACE('',(#152,#153),#144,.T.);
#134=ADVANCED_FACE('',(#154,#155),#125,.T.);
#135=ADVANCED_FACE('',(#156,#157),#145,.T.);
#136=ADVANCED_FACE('',(#158,#159),#126,.T.);
#137=ADVANCED_FACE('',(#122),#118,.F.);
#138=ADVANCED_FACE('',(#160,#161),#119,.T.);
#139=ADVANCED_FACE('',(#162,#163),#127,.F.);
#140=ADVANCED_FACE('',(#164,#165),#116,.T.);
#141=ADVANCED_FACE('',(#166,#167),#128,.F.);
#142=ADVANCED_FACE('',(#168,#169),#120,.T.);
#143=CONICAL_SURFACE('',#299,5.81175815642892,7.99999999999998);
#144=CONICAL_SURFACE('',#307,8.37320508079105,30.);
#145=CONICAL_SURFACE('',#311,6.38776770689022,30.);
#146=FACE_BOUND('',#170,.T.);
#147=FACE_BOUND('',#171,.T.);
#148=FACE_BOUND('',#172,.T.);
#149=FACE_BOUND('',#173,.T.);
#150=FACE_BOUND('',#174,.T.);
#151=FACE_BOUND('',#175,.T.);
#152=FACE_BOUND('',#177,.T.);
#153=FACE_BOUND('',#178,.T.);
#154=FACE_BOUND('',#179,.T.);
#155=FACE_BOUND('',#180,.T.);
#156=FACE_BOUND('',#181,.T.);
#157=FACE_BOUND('',#182,.T.);
#158=FACE_BOUND('',#183,.T.);
#159=FACE_BOUND('',#184,.T.);
#160=FACE_BOUND('',#186,.T.);
#161=FACE_BOUND('',#187,.T.);
#162=FACE_BOUND('',#188,.T.);
#163=FACE_BOUND('',#189,.T.);
#164=FACE_BOUND('',#190,.T.);
#165=FACE_BOUND('',#191,.T.);
#166=FACE_BOUND('',#192,.T.);
#167=FACE_BOUND('',#193,.T.);
#168=FACE_BOUND('',#194,.T.);
#169=FACE_BOUND('',#195,.T.);
#170=EDGE_LOOP('',(#196));
#171=EDGE_LOOP('',(#197));
#172=EDGE_LOOP('',(#198));
#173=EDGE_LOOP('',(#199));
#174=EDGE_LOOP('',(#200));
#175=EDGE_LOOP('',(#201));
#176=EDGE_LOOP('',(#202));
#177=EDGE_LOOP('',(#203));
#178=EDGE_LOOP('',(#204));
#179=EDGE_LOOP('',(#205));
#180=EDGE_LOOP('',(#206));
#181=EDGE_LOOP('',(#207));
#182=EDGE_LOOP('',(#208));
#183=EDGE_LOOP('',(#209));
#184=EDGE_LOOP('',(#210));
#185=EDGE_LOOP('',(#211));
#186=EDGE_LOOP('',(#212));
#187=EDGE_LOOP('',(#213));
#188=EDGE_LOOP('',(#214));
#189=EDGE_LOOP('',(#215));
#190=EDGE_LOOP('',(#216));
#191=EDGE_LOOP('',(#217));
#192=EDGE_LOOP('',(#218));
#193=EDGE_LOOP('',(#219));
#194=EDGE_LOOP('',(#220));
#195=EDGE_LOOP('',(#221));
#196=ORIENTED_EDGE('',*,*,#235,.F.);
#197=ORIENTED_EDGE('',*,*,#236,.F.);
#198=ORIENTED_EDGE('',*,*,#237,.F.);
#199=ORIENTED_EDGE('',*,*,#235,.T.);
#200=ORIENTED_EDGE('',*,*,#236,.T.);
#201=ORIENTED_EDGE('',*,*,#238,.F.);
#202=ORIENTED_EDGE('',*,*,#238,.T.);
#203=ORIENTED_EDGE('',*,*,#239,.F.);
#204=ORIENTED_EDGE('',*,*,#240,.T.);
#205=ORIENTED_EDGE('',*,*,#240,.F.);
#206=ORIENTED_EDGE('',*,*,#241,.T.);
#207=ORIENTED_EDGE('',*,*,#241,.F.);
#208=ORIENTED_EDGE('',*,*,#242,.T.);
#209=ORIENTED_EDGE('',*,*,#242,.F.);
#210=ORIENTED_EDGE('',*,*,#243,.T.);
#211=ORIENTED_EDGE('',*,*,#243,.F.);
#212=ORIENTED_EDGE('',*,*,#244,.F.);
#213=ORIENTED_EDGE('',*,*,#239,.T.);
#214=ORIENTED_EDGE('',*,*,#245,.F.);
#215=ORIENTED_EDGE('',*,*,#244,.T.);
#216=ORIENTED_EDGE('',*,*,#246,.F.);
#217=ORIENTED_EDGE('',*,*,#245,.T.);
#218=ORIENTED_EDGE('',*,*,#246,.T.);
#219=ORIENTED_EDGE('',*,*,#247,.F.);
#220=ORIENTED_EDGE('',*,*,#247,.T.);
#221=ORIENTED_EDGE('',*,*,#237,.T.);
#222=VERTEX_POINT('',#391);
#223=VERTEX_POINT('',#393);
#224=VERTEX_POINT('',#396);
#225=VERTEX_POINT('',#399);
#226=VERTEX_POINT('',#403);
#227=VERTEX_POINT('',#405);
#228=VERTEX_POINT('',#408);
#229=VERTEX_POINT('',#411);
#230=VERTEX_POINT('',#414);
#231=VERTEX_POINT('',#418);
#232=VERTEX_POINT('',#421);
#233=VERTEX_POINT('',#424);
#234=VERTEX_POINT('',#427);
#235=EDGE_CURVE('',#222,#222,#248,.T.);
#236=EDGE_CURVE('',#223,#223,#249,.T.);
#237=EDGE_CURVE('',#224,#224,#250,.T.);
#238=EDGE_CURVE('',#225,#225,#251,.T.);
#239=EDGE_CURVE('',#226,#226,#252,.T.);
#240=EDGE_CURVE('',#227,#227,#253,.T.);
#241=EDGE_CURVE('',#228,#228,#254,.T.);
#242=EDGE_CURVE('',#229,#229,#255,.T.);
#243=EDGE_CURVE('',#230,#230,#256,.T.);
#244=EDGE_CURVE('',#231,#231,#257,.T.);
#245=EDGE_CURVE('',#232,#232,#258,.T.);
#246=EDGE_CURVE('',#233,#233,#259,.T.);
#247=EDGE_CURVE('',#234,#234,#260,.T.);
#248=CIRCLE('',#297,8.42751262790813);
#249=CIRCLE('',#298,5.81175815642892);
#250=CIRCLE('',#300,7.67970527422319);
#251=CIRCLE('',#302,5.61370454268061);
#252=CIRCLE('',#305,8.23688021542001);
#253=CIRCLE('',#306,8.37320508079105);
#254=CIRCLE('',#308,8.37320508079105);
#255=CIRCLE('',#310,6.38776770689022);
#256=CIRCLE('',#312,6.17126135594411);
#257=CIRCLE('',#315,7.1);
#258=CIRCLE('',#317,6.9);
#259=CIRCLE('',#319,6.9);
#260=CIRCLE('',#321,7.1);
#261=PRESENTATION_LAYER_ASSIGNMENT('1','Layer 1',(#294,#295,#296,#114));
#262=STYLED_ITEM('',(#266),#294);
#263=STYLED_ITEM('',(#267),#295);
#264=STYLED_ITEM('',(#268),#296);
#265=STYLED_ITEM('',(#269),#114);
#266=PRESENTATION_STYLE_ASSIGNMENT((#284));
#267=PRESENTATION_STYLE_ASSIGNMENT((#285));
#268=PRESENTATION_STYLE_ASSIGNMENT((#286));
#269=PRESENTATION_STYLE_ASSIGNMENT((#39));
#270=PRESENTATION_STYLE_ASSIGNMENT((#40));
#271=PRESENTATION_STYLE_ASSIGNMENT((#41));
#272=PRESENTATION_STYLE_ASSIGNMENT((#42));
#273=PRESENTATION_STYLE_ASSIGNMENT((#43));
#274=PRESENTATION_STYLE_ASSIGNMENT((#44));
#275=PRESENTATION_STYLE_ASSIGNMENT((#45));
#276=PRESENTATION_STYLE_ASSIGNMENT((#46));
#277=PRESENTATION_STYLE_ASSIGNMENT((#47));
#278=PRESENTATION_STYLE_ASSIGNMENT((#48));
#279=PRESENTATION_STYLE_ASSIGNMENT((#49));
#280=PRESENTATION_STYLE_ASSIGNMENT((#50));
#281=PRESENTATION_STYLE_ASSIGNMENT((#51));
#282=PRESENTATION_STYLE_ASSIGNMENT((#52));
#283=PRESENTATION_STYLE_ASSIGNMENT((#53));
#284=CURVE_STYLE('',#290,POSITIVE_LENGTH_MEASURE(0.13),#287);
#285=CURVE_STYLE('',#291,POSITIVE_LENGTH_MEASURE(0.13),#287);
#286=CURVE_STYLE('',#292,POSITIVE_LENGTH_MEASURE(0.13),#287);
#287=COLOUR_RGB('Strong Stone',0.576470588235294,0.54508278019379,0.392156862745098);
#288=COLOUR_RGB('Medium Steel',0.596063172350652,0.666666666666667,0.686259250782025);
#289=COLOUR_RGB('Medium Gray',0.490196078431373,0.490196078431373,0.490196078431373);
#290=DRAUGHTING_PRE_DEFINED_CURVE_FONT('continuous');
#291=DRAUGHTING_PRE_DEFINED_CURVE_FONT('continuous');
#292=DRAUGHTING_PRE_DEFINED_CURVE_FONT('continuous');
#293=AXIS2_PLACEMENT_3D('',#386,#324,#325);
#294=AXIS2_PLACEMENT_3D('CSW',#387,#326,#327);
#295=AXIS2_PLACEMENT_3D('PCS',#388,#328,#329);
#296=AXIS2_PLACEMENT_3D('MCS',#389,#330,#331);
#297=AXIS2_PLACEMENT_3D('',#390,#332,#333);
#298=AXIS2_PLACEMENT_3D('',#392,#334,#335);
#299=AXIS2_PLACEMENT_3D('',#394,#336,#337);
#300=AXIS2_PLACEMENT_3D('',#395,#338,#339);
#301=AXIS2_PLACEMENT_3D('',#397,#340,#341);
#302=AXIS2_PLACEMENT_3D('',#398,#342,#343);
#303=AXIS2_PLACEMENT_3D('',#400,#344,#345);
#304=AXIS2_PLACEMENT_3D('',#401,#346,#347);
#305=AXIS2_PLACEMENT_3D('',#402,#348,#349);
#306=AXIS2_PLACEMENT_3D('',#404,#350,#351);
#307=AXIS2_PLACEMENT_3D('',#406,#352,#353);
#308=AXIS2_PLACEMENT_3D('',#407,#354,#355);
#309=AXIS2_PLACEMENT_3D('',#409,#356,#357);
#310=AXIS2_PLACEMENT_3D('',#410,#358,#359);
#311=AXIS2_PLACEMENT_3D('',#412,#360,#361);
#312=AXIS2_PLACEMENT_3D('',#413,#362,#363);
#313=AXIS2_PLACEMENT_3D('',#415,#364,#365);
#314=AXIS2_PLACEMENT_3D('',#416,#366,#367);
#315=AXIS2_PLACEMENT_3D('',#417,#368,#369);
#316=AXIS2_PLACEMENT_3D('',#419,#370,#371);
#317=AXIS2_PLACEMENT_3D('',#420,#372,#373);
#318=AXIS2_PLACEMENT_3D('',#422,#374,#375);
#319=AXIS2_PLACEMENT_3D('',#423,#376,#377);
#320=AXIS2_PLACEMENT_3D('',#425,#378,#379);
#321=AXIS2_PLACEMENT_3D('',#426,#380,#381);
#322=AXIS2_PLACEMENT_3D('',#428,#382,#383);
#323=AXIS2_PLACEMENT_3D('',#429,#384,#385);
#324=DIRECTION('',(0.,0.,1.));
#325=DIRECTION('',(1.,0.,0.));
#326=DIRECTION('',(0.,0.,1.));
#327=DIRECTION('',(1.,0.,0.));
#328=DIRECTION('',(0.,0.,1.));
#329=DIRECTION('',(1.,0.,0.));
#330=DIRECTION('',(0.,0.,1.));
#331=DIRECTION('',(1.,0.,0.));
#332=DIRECTION('',(6.12323399573677E-017,0.,-1.));
#333=DIRECTION('',(1.,0.,5.14601268656716E-017));
#334=DIRECTION('',(-6.12323399573677E-017,0.,1.));
#335=DIRECTION('',(1.,0.,0.));
#336=DIRECTION('',(6.12323399573677E-017,0.,-1.));
#337=DIRECTION('',(1.,0.,-3.08179100174233E-016));
#338=DIRECTION('',(6.12323399573677E-017,0.,-1.));
#339=DIRECTION('',(-1.,0.,-5.64710302685501E-017));
#340=DIRECTION('',(6.12323399573677E-017,0.,-1.));
#341=DIRECTION('',(1.,0.,5.11433894185586E-017));
#342=DIRECTION('',(-6.12323399573677E-017,0.,1.));
#343=DIRECTION('',(1.,0.,0.));
#344=DIRECTION('',(-6.12323399573677E-017,0.,1.));
#345=DIRECTION('',(-1.,0.,0.));
#346=DIRECTION('',(-6.12323399573677E-017,0.,1.));
#347=DIRECTION('',(-1.,0.,-6.24500451351651E-017));
#348=DIRECTION('',(-6.12323399573677E-017,0.,1.));
#349=DIRECTION('',(1.,0.,1.05302215803095E-016));
#350=DIRECTION('',(-6.12323399573677E-017,0.,1.));
#351=DIRECTION('',(1.,0.,1.03587781455182E-016));
#352=DIRECTION('',(6.12323399573677E-017,0.,-1.));
#353=DIRECTION('',(1.,0.,3.55401185476665E-017));
#354=DIRECTION('',(-6.12323399573677E-017,0.,1.));
#355=DIRECTION('',(1.,0.,1.03587781455182E-016));
#356=DIRECTION('',(-6.12323399573677E-017,0.,1.));
#357=DIRECTION('',(-1.,0.,-1.03257349760104E-016));
#358=DIRECTION('',(-6.12323399573677E-017,0.,1.));
#359=DIRECTION('',(1.,0.,0.));
#360=DIRECTION('',(-6.12323399573677E-017,0.,1.));
#361=DIRECTION('',(-1.,0.,-8.91524981924898E-018));
#362=DIRECTION('',(-6.12323399573677E-017,0.,1.));
#363=DIRECTION('',(1.,0.,0.));
#364=DIRECTION('',(-6.12323399573677E-017,0.,1.));
#365=DIRECTION('',(-1.,0.,0.));
#366=DIRECTION('',(-6.12323399573677E-017,0.,1.));
#367=DIRECTION('',(-1.,0.,-6.07153216591882E-017));
#368=DIRECTION('',(-6.12323399573677E-017,0.,1.));
#369=DIRECTION('',(1.,0.,1.22163625068789E-016));
#370=DIRECTION('',(-6.12323399573677E-017,0.,1.));
#371=DIRECTION('',(-1.,0.,-6.15826833971767E-017));
#372=DIRECTION('',(-6.12323399573677E-017,0.,1.));
#373=DIRECTION('',(1.,0.,0.));
#374=DIRECTION('',(-6.12323399573677E-017,0.,1.));
#375=DIRECTION('',(-1.,0.,-1.18816676436768E-016));
#376=DIRECTION('',(-6.12323399573677E-017,0.,1.));
#377=DIRECTION('',(1.,0.,6.28522998542321E-017));
#378=DIRECTION('',(6.12323399573677E-017,0.,-1.));
#379=DIRECTION('',(-1.,0.,0.));
#380=DIRECTION('',(-6.12323399573677E-017,0.,1.));
#381=DIRECTION('',(1.,0.,6.10818125343946E-017));
#382=DIRECTION('',(-6.12323399573677E-017,0.,1.));
#383=DIRECTION('',(-1.,0.,-5.94083382183838E-017));
#384=DIRECTION('',(6.12323399573677E-017,0.,-1.));
#385=DIRECTION('',(1.,0.,6.11490025281825E-017));
#386=CARTESIAN_POINT('',(0.,0.,0.));
#387=CARTESIAN_POINT('',(0.,0.,-10.26));
#388=CARTESIAN_POINT('',(0.,0.,0.));
#389=CARTESIAN_POINT('',(0.,0.,0.));
#390=CARTESIAN_POINT('',(-4.54085222331076E-016,0.,-3.04422554736226));
#391=CARTESIAN_POINT('',(8.42751262790813,0.,-3.04422554736226));
#392=CARTESIAN_POINT('',(-1.59374521781774E-015,0.,15.567834620192));
#393=CARTESIAN_POINT('',(5.81175815642892,0.,15.567834620192));
#394=CARTESIAN_POINT('',(-1.59374521781774E-015,0.,15.567834620192));
#395=CARTESIAN_POINT('',(-4.22503145705837E-016,0.,-3.56));
#396=CARTESIAN_POINT('',(-7.67970527422319,0.,-3.56));
#397=CARTESIAN_POINT('',(-4.71489017671731E-016,0.,-2.76));
#398=CARTESIAN_POINT('',(-1.60428730688304E-015,0.,15.74));
#399=CARTESIAN_POINT('',(5.61370454268061,0.,15.74));
#400=CARTESIAN_POINT('',(-1.59204083889156E-015,0.,15.54));
#401=CARTESIAN_POINT('',(-1.60428730688304E-015,0.,15.74));
#402=CARTESIAN_POINT('',(-2.57175827820944E-016,0.,-6.26));
#403=CARTESIAN_POINT('',(8.23688021542001,0.,-6.26));
#404=CARTESIAN_POINT('',(-2.42717550157442E-016,0.,-6.49612159315762));
#405=CARTESIAN_POINT('',(8.37320508079105,0.,-6.49612159315762));
#406=CARTESIAN_POINT('',(-2.42717550157442E-016,0.,-6.49612159315762));
#407=CARTESIAN_POINT('',(-2.30471082165968E-016,0.,-6.69612159315762));
#408=CARTESIAN_POINT('',(8.37320508079105,0.,-6.69612159315762));
#409=CARTESIAN_POINT('',(-2.36594316161705E-016,0.,-6.59612159315762));
#410=CARTESIAN_POINT('',(-1.99005104861449E-017,0.,-10.135));
#411=CARTESIAN_POINT('',(6.38776770689022,0.,-10.135));
#412=CARTESIAN_POINT('',(-1.99005104861449E-017,0.,-10.135));
#413=CARTESIAN_POINT('',(-1.22464679914739E-017,0.,-10.26));
#414=CARTESIAN_POINT('',(6.17126135594411,0.,-10.26));
#415=CARTESIAN_POINT('',(-2.75545529808157E-017,0.,-10.01));
#416=CARTESIAN_POINT('',(-1.22464679914738E-017,6.17126135594411,-10.26));
#417=CARTESIAN_POINT('',(-2.57175827820944E-016,0.,-6.26));
#418=CARTESIAN_POINT('',(7.1,0.,-6.26));
#419=CARTESIAN_POINT('',(7.1,0.,-6.26));
#420=CARTESIAN_POINT('',(-2.69422295812418E-016,0.,-6.06));
#421=CARTESIAN_POINT('',(6.9,0.,-6.06));
#422=CARTESIAN_POINT('',(-2.69422295812418E-016,0.,-6.06));
#423=CARTESIAN_POINT('',(-4.10256677714364E-016,0.,-3.76));
#424=CARTESIAN_POINT('',(6.9,0.,-3.76));
#425=CARTESIAN_POINT('',(-3.67394039744206E-015,0.,49.54));
#426=CARTESIAN_POINT('',(-4.22503145705837E-016,0.,-3.56));
#427=CARTESIAN_POINT('',(7.1,0.,-3.56));
#428=CARTESIAN_POINT('',(-4.10256677714364E-016,0.,-3.76));
#429=CARTESIAN_POINT('',(8.6,0.,-3.56));
#430=MECHANICAL_DESIGN_GEOMETRIC_PRESENTATION_REPRESENTATION('',(#262,#263,
#264,#265,#25,#26,#27,#28,#29,#30,#31,#32,#33,#34,#35,#36,#37,#38),#431);
#431=(
GEOMETRIC_REPRESENTATION_CONTEXT(3)
GLOBAL_UNCERTAINTY_ASSIGNED_CONTEXT((#432))
GLOBAL_UNIT_ASSIGNED_CONTEXT((#438,#434,#433))
REPRESENTATION_CONTEXT('1505831445060','TOP_LEVEL_ASSEMBLY_PART')
);
#432=UNCERTAINTY_MEASURE_WITH_UNIT(LENGTH_MEASURE(2.E-005),#438,
'DISTANCE_ACCURACY_VALUE','Maximum Tolerance applied to model');
#433=(
NAMED_UNIT(*)
SI_UNIT($,.STERADIAN.)
SOLID_ANGLE_UNIT()
);
#434=(
CONVERSION_BASED_UNIT('DEGREE',#436)
NAMED_UNIT(#435)
PLANE_ANGLE_UNIT()
);
#435=DIMENSIONAL_EXPONENTS(0.,0.,0.,0.,0.,0.,0.);
#436=PLANE_ANGLE_MEASURE_WITH_UNIT(PLANE_ANGLE_MEASURE(0.0174532925),#437);
#437=(
NAMED_UNIT(*)
PLANE_ANGLE_UNIT()
SI_UNIT($,.RADIAN.)
);
#438=(
LENGTH_UNIT()
NAMED_UNIT(*)
SI_UNIT(.MILLI.,.METRE.)
);
ENDSEC;
END-ISO-10303-21;
