ISO-10303-21;
HEADER;
/* Generated by software containing ST-Developer
 * from STEP Tools, Inc. (www.steptools.com) 
 */
/* OPTION: using custom schema-name function */

FILE_DESCRIPTION(
/* description */ (''),
/* implementation_level */ '2;1');

FILE_NAME(
/* name */ '1508154147866.stp',
/* time_stamp */ '2017-10-16T13:42:34+02:00',
/* author */ (''),
/* organization */ ('SMS'),
/* preprocessor_version */ 'ST-DEVELOPER v15',
/* originating_system */ 'SIEMENS PLM Software NX 8.5',
/* authorisation */ '');

FILE_SCHEMA (('AUTOMOTIVE_DESIGN { 1 0 10303 214 3 1 1 1 }'));
ENDSEC;

DATA;
#10=CONSTRUCTIVE_GEOMETRY_REPRESENTATION_RELATIONSHIP(
'supplemental geometry','',#24,#11);
#11=CONSTRUCTIVE_GEOMETRY_REPRESENTATION('supplemental geometry',(#282,
#283,#284),#508);
#12=SHAPE_REPRESENTATION_RELATIONSHIP('None',
'relationship between 201207790MOD000_00-None and 201207790MOD000_00-N
one',#24,#13);
#13=ADVANCED_BREP_SHAPE_REPRESENTATION('201207790MOD000_00-None',(#30),
#508);
#14=SHAPE_DEFINITION_REPRESENTATION(#15,#24);
#15=PRODUCT_DEFINITION_SHAPE('','',#16);
#16=PRODUCT_DEFINITION(' ','',#18,#17);
#17=PRODUCT_DEFINITION_CONTEXT('part definition',#23,'design');
#18=PRODUCT_DEFINITION_FORMATION_WITH_SPECIFIED_SOURCE(' ',' ',#20,
 .NOT_KNOWN.);
#19=PRODUCT_RELATED_PRODUCT_CATEGORY('part','',(#20));
#20=PRODUCT('201207790MOD000_00','201207790MOD000_00',' ',(#21));
#21=PRODUCT_CONTEXT(' ',#23,'mechanical');
#22=APPLICATION_PROTOCOL_DEFINITION('international standard',
'automotive_design',2010,#23);
#23=APPLICATION_CONTEXT(
'core data for automotive mechanical design processes');
#24=SHAPE_REPRESENTATION('201207790MOD000_00-None',(#281),#508);
#25=SURFACE_STYLE_USAGE(.BOTH.,#26);
#26=SURFACE_SIDE_STYLE('',(#27));
#27=SURFACE_STYLE_FILL_AREA(#28);
#28=FILL_AREA_STYLE('',(#29));
#29=FILL_AREA_STYLE_COLOUR('',#277);
#30=MANIFOLD_SOLID_BREP('TURN_SOLID',#31);
#31=CLOSED_SHELL('',(#75,#76,#77,#78,#79,#80,#81,#82,#83,#84,#85,#86,#87,
#88,#89,#90,#91,#92));
#32=(
BOUNDED_SURFACE()
B_SPLINE_SURFACE(3,3,((#476,#477,#478,#479,#480,#481,#482),(#483,#484,#485,
#486,#487,#488,#489),(#490,#491,#492,#493,#494,#495,#496),(#497,#498,#499,
#500,#501,#502,#503)),.UNSPECIFIED.,.F.,.T.,.F.)
B_SPLINE_SURFACE_WITH_KNOTS((4,4),(1,3,3,3,1),(0.,1.),(-0.5,0.,0.5,1.,1.5),
 .UNSPECIFIED.)
GEOMETRIC_REPRESENTATION_ITEM()
RATIONAL_B_SPLINE_SURFACE(((1.,0.333333333333333,0.333333333333333,1.,0.333333333333333,
0.333333333333333,1.),(0.989871835341472,0.329957278447157,0.329957278447157,
0.989871835341472,0.329957278447157,0.329957278447157,0.989871835341472),
(0.989871835341472,0.329957278447157,0.329957278447157,0.989871835341472,
0.329957278447157,0.329957278447157,0.989871835341472),(1.,0.333333333333333,
0.333333333333333,1.,0.333333333333333,0.333333333333333,1.)))
REPRESENTATION_ITEM('')
SURFACE()
);
#33=PLANE('',#297);
#34=PLANE('',#307);
#35=PLANE('',#308);
#36=PLANE('',#309);
#37=PLANE('',#311);
#38=PLANE('',#312);
#39=PLANE('',#316);
#40=FACE_OUTER_BOUND('',#127,.T.);
#41=FACE_OUTER_BOUND('',#128,.T.);
#42=FACE_OUTER_BOUND('',#129,.T.);
#43=FACE_OUTER_BOUND('',#132,.T.);
#44=FACE_OUTER_BOUND('',#133,.T.);
#45=FACE_OUTER_BOUND('',#134,.T.);
#46=FACE_OUTER_BOUND('',#142,.T.);
#47=FACE_OUTER_BOUND('',#145,.T.);
#48=B_SPLINE_CURVE_WITH_KNOTS('',3,(#426,#427,#428,#429),.UNSPECIFIED.,
 .F.,.F.,(4,4),(0.,1.),.UNSPECIFIED.);
#49=B_SPLINE_CURVE_WITH_KNOTS('',3,(#433,#434,#435,#436),.UNSPECIFIED.,
 .F.,.F.,(4,4),(0.,1.),.UNSPECIFIED.);
#50=B_SPLINE_CURVE_WITH_KNOTS('',3,(#443,#444,#445,#446),.UNSPECIFIED.,
 .F.,.F.,(4,4),(0.,1.),.UNSPECIFIED.);
#51=B_SPLINE_CURVE_WITH_KNOTS('',3,(#451,#452,#453,#454),.UNSPECIFIED.,
 .F.,.F.,(4,4),(0.,1.),.UNSPECIFIED.);
#52=LINE('',#421,#60);
#53=LINE('',#424,#61);
#54=LINE('',#431,#62);
#55=LINE('',#438,#63);
#56=LINE('',#458,#64);
#57=LINE('',#462,#65);
#58=LINE('',#466,#66);
#59=LINE('',#468,#67);
#60=VECTOR('',#349,1.);
#61=VECTOR('',#350,1.);
#62=VECTOR('',#351,1.);
#63=VECTOR('',#352,1.);
#64=VECTOR('',#367,1.);
#65=VECTOR('',#370,1.);
#66=VECTOR('',#375,1.);
#67=VECTOR('',#378,1.);
#68=TOROIDAL_SURFACE('',#291,21.1082867373567,1.2);
#69=TOROIDAL_SURFACE('',#294,29.5,1.);
#70=CONICAL_SURFACE('',#288,8.00675,70.0000000000004);
#71=CONICAL_SURFACE('',#296,28.5,20.0000000000001);
#72=CONICAL_SURFACE('',#300,48.,45.0000000000002);
#73=CONICAL_SURFACE('',#303,24.996,15.);
#74=VERTEX_LOOP('',#202);
#75=ADVANCED_FACE('CU_HO_SU_4',(#97,#98),#93,.F.);
#76=ADVANCED_FACE('CU_HO_SU_3',(#99,#100),#70,.F.);
#77=ADVANCED_FACE('AR_BY_CN_SU_11',(#101,#102),#68,.T.);
#78=ADVANCED_FACE('AR_BY_CN_IB_SU_31',(#103,#104),#69,.F.);
#79=ADVANCED_FACE('AR_BY_CN_IB_SU_2',(#105,#106),#71,.T.);
#80=ADVANCED_FACE('CU_BY_SU_4',(#40),#33,.F.);
#81=ADVANCED_FACE('CU_CHF_3_SU_1',(#41),#72,.T.);
#82=ADVANCED_FACE('CU_CHF_1_SU_1',(#42),#73,.T.);
#83=ADVANCED_FACE('CU_IB_SU_2',(#107,#108),#94,.T.);
#84=ADVANCED_FACE('CU_BY_SU_3',(#43),#34,.F.);
#85=ADVANCED_FACE('CU_BY_SU_1',(#44),#35,.F.);
#86=ADVANCED_FACE('CU_IB_SU_1',(#45),#36,.F.);
#87=ADVANCED_FACE('CU_IB_SU_3',(#109,#110,#111),#37,.F.);
#88=ADVANCED_FACE('CU_IB_SU_5',(#112,#113),#38,.T.);
#89=ADVANCED_FACE('AR_BY_CN_IB_SU_21',(#114,#115),#32,.T.);
#90=ADVANCED_FACE('CU_IB_SU_4',(#46),#95,.T.);
#91=ADVANCED_FACE('AR_BY_CN_IB_SU_3',(#116,#117),#96,.T.);
#92=ADVANCED_FACE('AR_BY_CN_SU_1_1',(#47),#39,.F.);
#93=CYLINDRICAL_SURFACE('',#287,8.00675);
#94=CYLINDRICAL_SURFACE('',#306,24.996);
#95=CYLINDRICAL_SURFACE('',#314,49.);
#96=CYLINDRICAL_SURFACE('',#315,28.5);
#97=FACE_BOUND('',#118,.T.);
#98=FACE_BOUND('',#119,.T.);
#99=FACE_BOUND('',#120,.T.);
#100=FACE_BOUND('',#74,.T.);
#101=FACE_BOUND('',#121,.T.);
#102=FACE_BOUND('',#122,.T.);
#103=FACE_BOUND('',#123,.T.);
#104=FACE_BOUND('',#124,.T.);
#105=FACE_BOUND('',#125,.T.);
#106=FACE_BOUND('',#126,.T.);
#107=FACE_BOUND('',#130,.T.);
#108=FACE_BOUND('',#131,.T.);
#109=FACE_BOUND('',#135,.T.);
#110=FACE_BOUND('',#136,.T.);
#111=FACE_BOUND('',#137,.T.);
#112=FACE_BOUND('',#138,.T.);
#113=FACE_BOUND('',#139,.T.);
#114=FACE_BOUND('',#140,.T.);
#115=FACE_BOUND('',#141,.T.);
#116=FACE_BOUND('',#143,.T.);
#117=FACE_BOUND('',#144,.T.);
#118=EDGE_LOOP('',(#146));
#119=EDGE_LOOP('',(#147));
#120=EDGE_LOOP('',(#148));
#121=EDGE_LOOP('',(#149));
#122=EDGE_LOOP('',(#150));
#123=EDGE_LOOP('',(#151));
#124=EDGE_LOOP('',(#152));
#125=EDGE_LOOP('',(#153));
#126=EDGE_LOOP('',(#154));
#127=EDGE_LOOP('',(#155,#156,#157,#158,#159,#160));
#128=EDGE_LOOP('',(#161,#162,#163,#164));
#129=EDGE_LOOP('',(#165,#166,#167,#168));
#130=EDGE_LOOP('',(#169,#170,#171,#172));
#131=EDGE_LOOP('',(#173));
#132=EDGE_LOOP('',(#174,#175));
#133=EDGE_LOOP('',(#176,#177,#178,#179,#180,#181));
#134=EDGE_LOOP('',(#182,#183));
#135=EDGE_LOOP('',(#184));
#136=EDGE_LOOP('',(#185));
#137=EDGE_LOOP('',(#186,#187));
#138=EDGE_LOOP('',(#188));
#139=EDGE_LOOP('',(#189,#190));
#140=EDGE_LOOP('',(#191));
#141=EDGE_LOOP('',(#192));
#142=EDGE_LOOP('',(#193,#194,#195,#196));
#143=EDGE_LOOP('',(#197));
#144=EDGE_LOOP('',(#198));
#145=EDGE_LOOP('',(#199));
#146=ORIENTED_EDGE('',*,*,#222,.F.);
#147=ORIENTED_EDGE('',*,*,#223,.T.);
#148=ORIENTED_EDGE('',*,*,#222,.T.);
#149=ORIENTED_EDGE('',*,*,#224,.F.);
#150=ORIENTED_EDGE('',*,*,#225,.T.);
#151=ORIENTED_EDGE('',*,*,#226,.F.);
#152=ORIENTED_EDGE('',*,*,#227,.F.);
#153=ORIENTED_EDGE('',*,*,#224,.T.);
#154=ORIENTED_EDGE('',*,*,#228,.T.);
#155=ORIENTED_EDGE('',*,*,#229,.F.);
#156=ORIENTED_EDGE('',*,*,#230,.F.);
#157=ORIENTED_EDGE('',*,*,#231,.T.);
#158=ORIENTED_EDGE('',*,*,#232,.F.);
#159=ORIENTED_EDGE('',*,*,#233,.T.);
#160=ORIENTED_EDGE('',*,*,#234,.F.);
#161=ORIENTED_EDGE('',*,*,#231,.F.);
#162=ORIENTED_EDGE('',*,*,#235,.F.);
#163=ORIENTED_EDGE('',*,*,#233,.F.);
#164=ORIENTED_EDGE('',*,*,#236,.F.);
#165=ORIENTED_EDGE('',*,*,#237,.F.);
#166=ORIENTED_EDGE('',*,*,#238,.F.);
#167=ORIENTED_EDGE('',*,*,#239,.F.);
#168=ORIENTED_EDGE('',*,*,#240,.F.);
#169=ORIENTED_EDGE('',*,*,#240,.T.);
#170=ORIENTED_EDGE('',*,*,#241,.T.);
#171=ORIENTED_EDGE('',*,*,#242,.T.);
#172=ORIENTED_EDGE('',*,*,#243,.T.);
#173=ORIENTED_EDGE('',*,*,#244,.T.);
#174=ORIENTED_EDGE('',*,*,#245,.F.);
#175=ORIENTED_EDGE('',*,*,#242,.F.);
#176=ORIENTED_EDGE('',*,*,#241,.F.);
#177=ORIENTED_EDGE('',*,*,#239,.T.);
#178=ORIENTED_EDGE('',*,*,#246,.F.);
#179=ORIENTED_EDGE('',*,*,#237,.T.);
#180=ORIENTED_EDGE('',*,*,#243,.F.);
#181=ORIENTED_EDGE('',*,*,#245,.T.);
#182=ORIENTED_EDGE('',*,*,#246,.T.);
#183=ORIENTED_EDGE('',*,*,#238,.T.);
#184=ORIENTED_EDGE('',*,*,#223,.F.);
#185=ORIENTED_EDGE('',*,*,#244,.F.);
#186=ORIENTED_EDGE('',*,*,#229,.T.);
#187=ORIENTED_EDGE('',*,*,#247,.F.);
#188=ORIENTED_EDGE('',*,*,#226,.T.);
#189=ORIENTED_EDGE('',*,*,#236,.T.);
#190=ORIENTED_EDGE('',*,*,#232,.T.);
#191=ORIENTED_EDGE('',*,*,#228,.F.);
#192=ORIENTED_EDGE('',*,*,#248,.F.);
#193=ORIENTED_EDGE('',*,*,#230,.T.);
#194=ORIENTED_EDGE('',*,*,#247,.T.);
#195=ORIENTED_EDGE('',*,*,#234,.T.);
#196=ORIENTED_EDGE('',*,*,#235,.T.);
#197=ORIENTED_EDGE('',*,*,#227,.T.);
#198=ORIENTED_EDGE('',*,*,#248,.T.);
#199=ORIENTED_EDGE('',*,*,#225,.F.);
#200=VERTEX_POINT('',#402);
#201=VERTEX_POINT('',#404);
#202=VERTEX_POINT('',#406);
#203=VERTEX_POINT('',#409);
#204=VERTEX_POINT('',#411);
#205=VERTEX_POINT('',#414);
#206=VERTEX_POINT('',#416);
#207=VERTEX_POINT('',#419);
#208=VERTEX_POINT('',#422);
#209=VERTEX_POINT('',#423);
#210=VERTEX_POINT('',#425);
#211=VERTEX_POINT('',#430);
#212=VERTEX_POINT('',#432);
#213=VERTEX_POINT('',#437);
#214=VERTEX_POINT('',#447);
#215=VERTEX_POINT('',#448);
#216=VERTEX_POINT('',#450);
#217=VERTEX_POINT('',#455);
#218=VERTEX_POINT('',#459);
#219=VERTEX_POINT('',#461);
#220=VERTEX_POINT('',#464);
#221=VERTEX_POINT('',#475);
#222=EDGE_CURVE('',#200,#200,#249,.T.);
#223=EDGE_CURVE('',#201,#201,#250,.T.);
#224=EDGE_CURVE('',#203,#203,#251,.T.);
#225=EDGE_CURVE('',#204,#204,#252,.T.);
#226=EDGE_CURVE('',#205,#205,#253,.T.);
#227=EDGE_CURVE('',#206,#206,#254,.T.);
#228=EDGE_CURVE('',#207,#207,#255,.T.);
#229=EDGE_CURVE('',#208,#209,#52,.T.);
#230=EDGE_CURVE('',#210,#208,#53,.T.);
#231=EDGE_CURVE('',#210,#211,#48,.T.);
#232=EDGE_CURVE('',#212,#211,#54,.T.);
#233=EDGE_CURVE('',#212,#213,#49,.T.);
#234=EDGE_CURVE('',#209,#213,#55,.T.);
#235=EDGE_CURVE('',#213,#210,#256,.T.);
#236=EDGE_CURVE('',#211,#212,#257,.T.);
#237=EDGE_CURVE('',#214,#215,#50,.T.);
#238=EDGE_CURVE('',#216,#214,#258,.T.);
#239=EDGE_CURVE('',#217,#216,#51,.T.);
#240=EDGE_CURVE('',#215,#217,#259,.T.);
#241=EDGE_CURVE('',#217,#218,#56,.T.);
#242=EDGE_CURVE('',#218,#219,#260,.T.);
#243=EDGE_CURVE('',#219,#215,#57,.T.);
#244=EDGE_CURVE('',#220,#220,#261,.T.);
#245=EDGE_CURVE('',#219,#218,#58,.T.);
#246=EDGE_CURVE('',#214,#216,#59,.T.);
#247=EDGE_CURVE('',#208,#209,#262,.T.);
#248=EDGE_CURVE('',#221,#221,#263,.T.);
#249=CIRCLE('',#285,8.00675);
#250=CIRCLE('',#286,8.00675);
#251=CIRCLE('',#289,22.2359178822998);
#252=CIRCLE('',#290,21.1082867373567);
#253=CIRCLE('',#292,29.5);
#254=CIRCLE('',#293,28.5);
#255=CIRCLE('',#295,27.5953893117886);
#256=CIRCLE('',#298,49.);
#257=CIRCLE('',#299,48.);
#258=CIRCLE('',#301,24.0581778264911);
#259=CIRCLE('',#302,24.996);
#260=CIRCLE('',#304,24.996);
#261=CIRCLE('',#305,24.996);
#262=CIRCLE('',#310,49.);
#263=CIRCLE('',#313,28.5);
#264=PRESENTATION_LAYER_ASSIGNMENT('1','Layer 1',(#282,#283,#284,#30));
#265=STYLED_ITEM('',(#269),#282);
#266=STYLED_ITEM('',(#270),#283);
#267=STYLED_ITEM('',(#271),#284);
#268=STYLED_ITEM('',(#272),#30);
#269=PRESENTATION_STYLE_ASSIGNMENT((#273));
#270=PRESENTATION_STYLE_ASSIGNMENT((#274));
#271=PRESENTATION_STYLE_ASSIGNMENT((#275));
#272=PRESENTATION_STYLE_ASSIGNMENT((#25));
#273=CURVE_STYLE('',#278,POSITIVE_LENGTH_MEASURE(0.13),#276);
#274=CURVE_STYLE('',#279,POSITIVE_LENGTH_MEASURE(0.13),#276);
#275=CURVE_STYLE('',#280,POSITIVE_LENGTH_MEASURE(0.13),#276);
#276=COLOUR_RGB('Strong Emerald',0.,0.803921568627451,0.525490196078431);
#277=COLOUR_RGB('TLS_NOCUT',0.499992370489052,0.499992370489052,0.499992370489052);
#278=DRAUGHTING_PRE_DEFINED_CURVE_FONT('continuous');
#279=DRAUGHTING_PRE_DEFINED_CURVE_FONT('continuous');
#280=DRAUGHTING_PRE_DEFINED_CURVE_FONT('continuous');
#281=AXIS2_PLACEMENT_3D('',#397,#317,#318);
#282=AXIS2_PLACEMENT_3D('PCS',#398,#319,#320);
#283=AXIS2_PLACEMENT_3D('MCS',#399,#321,#322);
#284=AXIS2_PLACEMENT_3D('CSW',#400,#323,#324);
#285=AXIS2_PLACEMENT_3D('',#401,#325,#326);
#286=AXIS2_PLACEMENT_3D('',#403,#327,#328);
#287=AXIS2_PLACEMENT_3D('',#405,#329,#330);
#288=AXIS2_PLACEMENT_3D('',#407,#331,#332);
#289=AXIS2_PLACEMENT_3D('',#408,#333,#334);
#290=AXIS2_PLACEMENT_3D('',#410,#335,#336);
#291=AXIS2_PLACEMENT_3D('',#412,#337,#338);
#292=AXIS2_PLACEMENT_3D('',#413,#339,#340);
#293=AXIS2_PLACEMENT_3D('',#415,#341,#342);
#294=AXIS2_PLACEMENT_3D('',#417,#343,#344);
#295=AXIS2_PLACEMENT_3D('',#418,#345,#346);
#296=AXIS2_PLACEMENT_3D('',#420,#347,#348);
#297=AXIS2_PLACEMENT_3D('',#439,#353,#354);
#298=AXIS2_PLACEMENT_3D('',#440,#355,#356);
#299=AXIS2_PLACEMENT_3D('',#441,#357,#358);
#300=AXIS2_PLACEMENT_3D('',#442,#359,#360);
#301=AXIS2_PLACEMENT_3D('',#449,#361,#362);
#302=AXIS2_PLACEMENT_3D('',#456,#363,#364);
#303=AXIS2_PLACEMENT_3D('',#457,#365,#366);
#304=AXIS2_PLACEMENT_3D('',#460,#368,#369);
#305=AXIS2_PLACEMENT_3D('',#463,#371,#372);
#306=AXIS2_PLACEMENT_3D('',#465,#373,#374);
#307=AXIS2_PLACEMENT_3D('',#467,#376,#377);
#308=AXIS2_PLACEMENT_3D('',#469,#379,#380);
#309=AXIS2_PLACEMENT_3D('',#470,#381,#382);
#310=AXIS2_PLACEMENT_3D('',#471,#383,#384);
#311=AXIS2_PLACEMENT_3D('',#472,#385,#386);
#312=AXIS2_PLACEMENT_3D('',#473,#387,#388);
#313=AXIS2_PLACEMENT_3D('',#474,#389,#390);
#314=AXIS2_PLACEMENT_3D('',#504,#391,#392);
#315=AXIS2_PLACEMENT_3D('',#505,#393,#394);
#316=AXIS2_PLACEMENT_3D('',#506,#395,#396);
#317=DIRECTION('',(0.,0.,1.));
#318=DIRECTION('',(1.,0.,0.));
#319=DIRECTION('',(0.,0.,1.));
#320=DIRECTION('',(1.,0.,0.));
#321=DIRECTION('',(0.,0.,1.));
#322=DIRECTION('',(1.,0.,0.));
#323=DIRECTION('',(0.,0.,1.));
#324=DIRECTION('',(1.,0.,0.));
#325=DIRECTION('',(0.,0.,1.));
#326=DIRECTION('',(-1.,0.,0.));
#327=DIRECTION('',(0.,0.,1.));
#328=DIRECTION('',(-1.,0.,0.));
#329=DIRECTION('',(0.,0.,-1.));
#330=DIRECTION('',(-1.,0.,0.));
#331=DIRECTION('',(0.,0.,1.));
#332=DIRECTION('',(1.,0.,1.76274855307781E-017));
#333=DIRECTION('',(0.,0.,1.));
#334=DIRECTION('',(1.,0.,0.));
#335=DIRECTION('',(0.,0.,1.));
#336=DIRECTION('',(1.,0.,0.));
#337=DIRECTION('',(0.,0.,1.));
#338=DIRECTION('',(1.,0.,0.));
#339=DIRECTION('',(0.,0.,1.));
#340=DIRECTION('',(-1.,0.,0.));
#341=DIRECTION('',(0.,0.,-1.));
#342=DIRECTION('',(-1.,0.,0.));
#343=DIRECTION('',(0.,0.,-1.));
#344=DIRECTION('',(-1.,0.,0.));
#345=DIRECTION('',(1.82867483672849E-018,0.,-1.));
#346=DIRECTION('',(1.,0.,0.));
#347=DIRECTION('',(-1.82867483672849E-018,0.,1.));
#348=DIRECTION('',(1.,0.,-1.23760359605781E-016));
#349=DIRECTION('',(-1.,0.,1.18109889733186E-016));
#350=DIRECTION('',(0.,0.,1.));
#351=DIRECTION('',(1.,0.,0.));
#352=DIRECTION('',(0.,0.,-1.));
#353=DIRECTION('',(0.,-1.,0.));
#354=DIRECTION('',(0.,0.,1.));
#355=DIRECTION('',(0.,0.,1.));
#356=DIRECTION('',(-1.,0.,0.));
#357=DIRECTION('',(0.,0.,-1.));
#358=DIRECTION('',(-1.,0.,0.));
#359=DIRECTION('',(0.,0.,1.));
#360=DIRECTION('',(1.,0.,-1.98632459081312E-017));
#361=DIRECTION('',(0.,0.,1.));
#362=DIRECTION('',(-1.,0.,0.));
#363=DIRECTION('',(0.,0.,-1.));
#364=DIRECTION('',(-1.,0.,0.));
#365=DIRECTION('',(0.,0.,-1.));
#366=DIRECTION('',(-1.,0.,4.73733249985915E-017));
#367=DIRECTION('',(0.,0.,-1.));
#368=DIRECTION('',(0.,0.,-1.));
#369=DIRECTION('',(-1.,0.,0.));
#370=DIRECTION('',(0.,0.,1.));
#371=DIRECTION('',(0.,0.,1.));
#372=DIRECTION('',(-1.,0.,0.));
#373=DIRECTION('',(0.,0.,-1.));
#374=DIRECTION('',(-1.,0.,0.));
#375=DIRECTION('',(-1.,0.,0.));
#376=DIRECTION('',(0.,0.,-1.));
#377=DIRECTION('',(-1.,0.,0.));
#378=DIRECTION('',(-1.,0.,0.));
#379=DIRECTION('',(0.,-1.,9.91270557701033E-017));
#380=DIRECTION('',(0.,1.00613961606655E-016,1.));
#381=DIRECTION('',(0.,0.,-1.));
#382=DIRECTION('',(-1.,0.,0.));
#383=DIRECTION('',(0.,0.,-1.));
#384=DIRECTION('',(-1.,0.,0.));
#385=DIRECTION('',(0.,0.,-1.));
#386=DIRECTION('',(-1.,0.,0.));
#387=DIRECTION('',(0.,0.,-1.));
#388=DIRECTION('',(-1.,0.,0.));
#389=DIRECTION('',(-1.82867483672849E-018,0.,1.));
#390=DIRECTION('',(1.,0.,0.));
#391=DIRECTION('',(0.,0.,-1.));
#392=DIRECTION('',(-1.,0.,0.));
#393=DIRECTION('',(1.82867483672849E-018,0.,-1.));
#394=DIRECTION('',(-1.,0.,0.));
#395=DIRECTION('',(0.,0.,1.));
#396=DIRECTION('',(1.,0.,0.));
#397=CARTESIAN_POINT('',(0.,0.,0.));
#398=CARTESIAN_POINT('',(0.,0.,0.));
#399=CARTESIAN_POINT('',(0.,0.,0.));
#400=CARTESIAN_POINT('',(0.,0.,-70.));
#401=CARTESIAN_POINT('',(18.5,-32.0429399400242,-7.5));
#402=CARTESIAN_POINT('',(10.49325,-32.0429399400242,-7.5));
#403=CARTESIAN_POINT('',(18.5,-32.0429399400242,0.));
#404=CARTESIAN_POINT('',(10.49325,-32.0429399400242,0.));
#405=CARTESIAN_POINT('',(18.5,-32.0429399400242,14.9058496966544));
#406=CARTESIAN_POINT('',(18.5,-32.0429399400242,-10.4142186732108));
#407=CARTESIAN_POINT('',(18.5,-32.0429399400242,-7.5));
#408=CARTESIAN_POINT('',(0.,0.,-69.2104241719908));
#409=CARTESIAN_POINT('',(22.2359178822998,0.,-69.2104241719908));
#410=CARTESIAN_POINT('',(0.,0.,-70.));
#411=CARTESIAN_POINT('',(21.1082867373567,0.,-70.));
#412=CARTESIAN_POINT('',(0.,0.,-68.8));
#413=CARTESIAN_POINT('',(1.82867483672849E-018,0.,-25.));
#414=CARTESIAN_POINT('',(-29.5,0.,-25.));
#415=CARTESIAN_POINT('',(1.82867483672849E-018,0.,-26.));
#416=CARTESIAN_POINT('',(-28.5,0.,-26.));
#417=CARTESIAN_POINT('',(1.82867483672849E-018,0.,-26.));
#418=CARTESIAN_POINT('',(5.39192043481098E-017,0.,-54.485397439258));
#419=CARTESIAN_POINT('',(27.5953893117886,0.,-54.485397439258));
#420=CARTESIAN_POINT('',(4.93742205916692E-017,0.,-52.));
#421=CARTESIAN_POINT('',(49.,35.,-6.2456986756515E-015));
#422=CARTESIAN_POINT('',(34.2928563989645,35.,-8.31927231519314E-016));
#423=CARTESIAN_POINT('',(-34.2928563989645,35.,-8.31927231519314E-016));
#424=CARTESIAN_POINT('',(34.2928563989645,35.,12.2909500693914));
#425=CARTESIAN_POINT('',(34.2928563989646,35.,-24.));
#426=CARTESIAN_POINT('',(34.2928563989645,35.,-24.));
#427=CARTESIAN_POINT('',(33.8130186847488,35.,-24.3358164454777));
#428=CARTESIAN_POINT('',(33.3314941916234,35.,-24.6692201110863));
#429=CARTESIAN_POINT('',(32.8481354113137,35.,-25.));
#430=CARTESIAN_POINT('',(32.8481354113137,35.,-25.));
#431=CARTESIAN_POINT('',(-49.,35.,-25.));
#432=CARTESIAN_POINT('',(-32.8481354113137,35.,-25.));
#433=CARTESIAN_POINT('',(-32.8481354113137,35.,-25.));
#434=CARTESIAN_POINT('',(-33.3317488749302,35.,-24.6690458220915));
#435=CARTESIAN_POINT('',(-33.8132642936191,35.,-24.3356445550753));
#436=CARTESIAN_POINT('',(-34.2928563989645,35.,-24.));
#437=CARTESIAN_POINT('',(-34.2928563989645,35.,-24.));
#438=CARTESIAN_POINT('',(-34.2928563989645,35.,12.2909500693914));
#439=CARTESIAN_POINT('',(0.,35.,0.));
#440=CARTESIAN_POINT('',(0.,0.,-24.));
#441=CARTESIAN_POINT('',(0.,0.,-25.));
#442=CARTESIAN_POINT('',(0.,0.,-25.));
#443=CARTESIAN_POINT('',(13.3654743399203,20.004,78.));
#444=CARTESIAN_POINT('',(13.9241150706172,20.004,76.8417513827153));
#445=CARTESIAN_POINT('',(14.4633539113485,20.004,75.6740403944119));
#446=CARTESIAN_POINT('',(14.9879951961562,20.004,74.5));
#447=CARTESIAN_POINT('',(13.3654743399203,20.004,78.));
#448=CARTESIAN_POINT('',(14.9879951961562,20.004,74.5));
#449=CARTESIAN_POINT('',(0.,0.,78.));
#450=CARTESIAN_POINT('',(-13.3654743399203,20.004,78.));
#451=CARTESIAN_POINT('',(-14.9879951961562,20.004,74.5));
#452=CARTESIAN_POINT('',(-14.4633539113485,20.004,75.6740403944119));
#453=CARTESIAN_POINT('',(-13.9241150706172,20.004,76.8417513827153));
#454=CARTESIAN_POINT('',(-13.3654743399203,20.004,78.));
#455=CARTESIAN_POINT('',(-14.9879951961562,20.004,74.5));
#456=CARTESIAN_POINT('',(0.,0.,74.5));
#457=CARTESIAN_POINT('',(0.,0.,74.5));
#458=CARTESIAN_POINT('',(-14.9879951961562,20.004,12.2909500693914));
#459=CARTESIAN_POINT('',(-14.9879951961562,20.004,8.));
#460=CARTESIAN_POINT('',(0.,0.,8.));
#461=CARTESIAN_POINT('',(14.9879951961562,20.004,8.));
#462=CARTESIAN_POINT('',(14.9879951961562,20.004,12.2909500693914));
#463=CARTESIAN_POINT('',(0.,0.,0.));
#464=CARTESIAN_POINT('',(-24.996,0.,0.));
#465=CARTESIAN_POINT('',(0.,0.,12.2909500693914));
#466=CARTESIAN_POINT('',(-24.996,20.004,8.));
#467=CARTESIAN_POINT('',(-24.996,20.004,8.));
#468=CARTESIAN_POINT('',(-24.996,20.004,78.));
#469=CARTESIAN_POINT('',(-24.996,20.004,78.));
#470=CARTESIAN_POINT('',(0.,0.,78.));
#471=CARTESIAN_POINT('',(0.,0.,0.));
#472=CARTESIAN_POINT('',(0.,24.996,-8.31927231519314E-016));
#473=CARTESIAN_POINT('',(0.,0.,-25.));
#474=CARTESIAN_POINT('',(4.4537549901801E-017,0.,-49.355095289373));
#475=CARTESIAN_POINT('',(28.5,0.,-49.355095289373));
#476=CARTESIAN_POINT('',(28.5,0.,-49.355095289373));
#477=CARTESIAN_POINT('',(28.5,57.,-49.355095289373));
#478=CARTESIAN_POINT('',(-28.5,57.,-49.355095289373));
#479=CARTESIAN_POINT('',(-28.5,0.,-49.355095289373));
#480=CARTESIAN_POINT('',(-28.5,-57.,-49.355095289373));
#481=CARTESIAN_POINT('',(28.5,-57.,-49.355095289373));
#482=CARTESIAN_POINT('',(28.5,0.,-49.355095289373));
#483=CARTESIAN_POINT('',(28.5,0.,-51.1093443897833));
#484=CARTESIAN_POINT('',(28.5,57.,-51.1093443897833));
#485=CARTESIAN_POINT('',(-28.5,57.,-51.1093443897833));
#486=CARTESIAN_POINT('',(-28.5,0.,-51.1093443897833));
#487=CARTESIAN_POINT('',(-28.5,-57.,-51.1093443897833));
#488=CARTESIAN_POINT('',(28.5,-57.,-51.1093443897833));
#489=CARTESIAN_POINT('',(28.5,0.,-51.1093443897833));
#490=CARTESIAN_POINT('',(28.1953778405399,0.,-52.8369425045821));
#491=CARTESIAN_POINT('',(28.1953778405399,56.3907556810798,-52.8369425045821));
#492=CARTESIAN_POINT('',(-28.1953778405399,56.3907556810798,-52.8369425045821));
#493=CARTESIAN_POINT('',(-28.1953778405399,0.,-52.8369425045821));
#494=CARTESIAN_POINT('',(-28.1953778405399,-56.3907556810798,-52.8369425045821));
#495=CARTESIAN_POINT('',(28.1953778405399,-56.3907556810798,-52.8369425045821));
#496=CARTESIAN_POINT('',(28.1953778405399,0.,-52.8369425045821));
#497=CARTESIAN_POINT('',(27.5953893117886,0.,-54.485397439258));
#498=CARTESIAN_POINT('',(27.5953893117886,55.1907786235773,-54.485397439258));
#499=CARTESIAN_POINT('',(-27.5953893117886,55.1907786235773,-54.485397439258));
#500=CARTESIAN_POINT('',(-27.5953893117886,0.,-54.485397439258));
#501=CARTESIAN_POINT('',(-27.5953893117886,-55.1907786235773,-54.485397439258));
#502=CARTESIAN_POINT('',(27.5953893117886,-55.1907786235773,-54.485397439258));
#503=CARTESIAN_POINT('',(27.5953893117886,0.,-54.485397439258));
#504=CARTESIAN_POINT('',(0.,0.,12.2909500693914));
#505=CARTESIAN_POINT('',(0.,0.,-25.));
#506=CARTESIAN_POINT('',(0.,0.,-70.));
#507=MECHANICAL_DESIGN_GEOMETRIC_PRESENTATION_REPRESENTATION('',(#265,#266,
#267,#268),#508);
#508=(
GEOMETRIC_REPRESENTATION_CONTEXT(3)
GLOBAL_UNCERTAINTY_ASSIGNED_CONTEXT((#509))
GLOBAL_UNIT_ASSIGNED_CONTEXT((#515,#511,#510))
REPRESENTATION_CONTEXT('1508154147866','TOP_LEVEL_ASSEMBLY_PART')
);
#509=UNCERTAINTY_MEASURE_WITH_UNIT(LENGTH_MEASURE(0.0508),#515,
'DISTANCE_ACCURACY_VALUE','Maximum Tolerance applied to model');
#510=(
NAMED_UNIT(*)
SI_UNIT($,.STERADIAN.)
SOLID_ANGLE_UNIT()
);
#511=(
CONVERSION_BASED_UNIT('DEGREE',#513)
NAMED_UNIT(#512)
PLANE_ANGLE_UNIT()
);
#512=DIMENSIONAL_EXPONENTS(0.,0.,0.,0.,0.,0.,0.);
#513=PLANE_ANGLE_MEASURE_WITH_UNIT(PLANE_ANGLE_MEASURE(0.0174532925),#514);
#514=(
NAMED_UNIT(*)
PLANE_ANGLE_UNIT()
SI_UNIT($,.RADIAN.)
);
#515=(
LENGTH_UNIT()
NAMED_UNIT(*)
SI_UNIT(.MILLI.,.METRE.)
);
ENDSEC;
END-ISO-10303-21;
