ISO-10303-21;
HEADER;
/* Generated by software containing ST-Developer
 * from STEP Tools, Inc. (www.steptools.com) 
 */
/* OPTION: using custom schema-name function */

FILE_DESCRIPTION(
/* description */ (''),
/* implementation_level */ '2;1');

FILE_NAME(
/* name */ '1508153878233.stp',
/* time_stamp */ '2017-10-16T13:38:04+02:00',
/* author */ (''),
/* organization */ ('SMS'),
/* preprocessor_version */ 'ST-DEVELOPER v15',
/* originating_system */ 'SIEMENS PLM Software NX 8.5',
/* authorisation */ '');

FILE_SCHEMA (('AUTOMOTIVE_DESIGN { 1 0 10303 214 3 1 1 1 }'));
ENDSEC;

DATA;
#10=CONSTRUCTIVE_GEOMETRY_REPRESENTATION_RELATIONSHIP(
'supplemental geometry','',#24,#11);
#11=CONSTRUCTIVE_GEOMETRY_REPRESENTATION('supplemental geometry',(#282,
#283,#284),#508);
#12=SHAPE_REPRESENTATION_RELATIONSHIP('None',
'relationship between 201207650MOD000_00-None and 201207650MOD000_00-N
one',#24,#13);
#13=ADVANCED_BREP_SHAPE_REPRESENTATION('201207650MOD000_00-None',(#30),
#508);
#14=SHAPE_DEFINITION_REPRESENTATION(#15,#24);
#15=PRODUCT_DEFINITION_SHAPE('','',#16);
#16=PRODUCT_DEFINITION(' ','',#18,#17);
#17=PRODUCT_DEFINITION_CONTEXT('part definition',#23,'design');
#18=PRODUCT_DEFINITION_FORMATION_WITH_SPECIFIED_SOURCE(' ',' ',#20,
 .NOT_KNOWN.);
#19=PRODUCT_RELATED_PRODUCT_CATEGORY('part','',(#20));
#20=PRODUCT('201207650MOD000_00','201207650MOD000_00',' ',(#21));
#21=PRODUCT_CONTEXT(' ',#23,'mechanical');
#22=APPLICATION_PROTOCOL_DEFINITION('international standard',
'automotive_design',2010,#23);
#23=APPLICATION_CONTEXT(
'core data for automotive mechanical design processes');
#24=SHAPE_REPRESENTATION('201207650MOD000_00-None',(#281),#508);
#25=SURFACE_STYLE_USAGE(.BOTH.,#26);
#26=SURFACE_SIDE_STYLE('',(#27));
#27=SURFACE_STYLE_FILL_AREA(#28);
#28=FILL_AREA_STYLE('',(#29));
#29=FILL_AREA_STYLE_COLOUR('',#277);
#30=MANIFOLD_SOLID_BREP('TURN_SOLID',#31);
#31=CLOSED_SHELL('',(#85,#86,#87,#88,#89,#90,#91,#92,#93,#94,#95,#96,#97,
#98,#99,#100,#101,#102));
#32=VERTEX_LOOP('',#221);
#33=B_SPLINE_CURVE_WITH_KNOTS('',3,(#451,#452,#453,#454),.UNSPECIFIED.,
 .F.,.F.,(4,4),(0.,1.),.UNSPECIFIED.);
#34=B_SPLINE_CURVE_WITH_KNOTS('',3,(#458,#459,#460,#461),.UNSPECIFIED.,
 .F.,.F.,(4,4),(0.,1.),.UNSPECIFIED.);
#35=B_SPLINE_CURVE_WITH_KNOTS('',3,(#476,#477,#478,#479),.UNSPECIFIED.,
 .F.,.F.,(4,4),(0.,1.),.UNSPECIFIED.);
#36=B_SPLINE_CURVE_WITH_KNOTS('',3,(#484,#485,#486,#487),.UNSPECIFIED.,
 .F.,.F.,(4,4),(0.,1.),.UNSPECIFIED.);
#37=LINE('',#449,#45);
#38=LINE('',#463,#46);
#39=LINE('',#467,#47);
#40=LINE('',#469,#48);
#41=LINE('',#491,#49);
#42=LINE('',#495,#50);
#43=LINE('',#497,#51);
#44=LINE('',#499,#52);
#45=VECTOR('',#349,1.);
#46=VECTOR('',#356,1.);
#47=VECTOR('',#359,1.);
#48=VECTOR('',#362,1.);
#49=VECTOR('',#377,1.);
#50=VECTOR('',#380,1.);
#51=VECTOR('',#383,1.);
#52=VECTOR('',#386,1.);
#53=CYLINDRICAL_SURFACE('',#293,28.5);
#54=CYLINDRICAL_SURFACE('',#301,41.5);
#55=CYLINDRICAL_SURFACE('',#310,19.996);
#56=CYLINDRICAL_SURFACE('',#316,7.00675);
#57=(
BOUNDED_SURFACE()
B_SPLINE_SURFACE(3,3,((#412,#413,#414,#415,#416,#417,#418),(#419,#420,#421,
#422,#423,#424,#425),(#426,#427,#428,#429,#430,#431,#432),(#433,#434,#435,
#436,#437,#438,#439)),.UNSPECIFIED.,.F.,.T.,.F.)
B_SPLINE_SURFACE_WITH_KNOTS((4,4),(1,3,3,3,1),(0.,1.),(-0.5,0.,0.5,1.,1.5),
 .UNSPECIFIED.)
GEOMETRIC_REPRESENTATION_ITEM()
RATIONAL_B_SPLINE_SURFACE(((1.,0.333333333333333,0.333333333333333,1.,0.333333333333333,
0.333333333333333,1.),(0.989871835341472,0.329957278447157,0.329957278447157,
0.989871835341472,0.329957278447157,0.329957278447157,0.989871835341472),
(0.989871835341472,0.329957278447157,0.329957278447157,0.989871835341472,
0.329957278447157,0.329957278447157,0.989871835341472),(1.,0.333333333333333,
0.333333333333333,1.,0.333333333333333,0.333333333333333,1.)))
REPRESENTATION_ITEM('')
SURFACE()
);
#58=CONICAL_SURFACE('',#290,28.5,19.9999999999999);
#59=CONICAL_SURFACE('',#299,40.5,45.0000000000002);
#60=CONICAL_SURFACE('',#308,19.996,15.);
#61=CONICAL_SURFACE('',#315,7.00675,70.0000000000001);
#62=TOROIDAL_SURFACE('',#288,21.1082867373567,1.20000000000002);
#63=TOROIDAL_SURFACE('',#295,29.5,1.);
#64=FACE_BOUND('',#119,.T.);
#65=FACE_BOUND('',#120,.T.);
#66=FACE_BOUND('',#121,.T.);
#67=FACE_BOUND('',#122,.T.);
#68=FACE_BOUND('',#123,.T.);
#69=FACE_BOUND('',#124,.T.);
#70=FACE_BOUND('',#125,.T.);
#71=FACE_BOUND('',#126,.T.);
#72=FACE_BOUND('',#127,.T.);
#73=FACE_BOUND('',#128,.T.);
#74=FACE_BOUND('',#129,.T.);
#75=FACE_BOUND('',#130,.T.);
#76=FACE_BOUND('',#134,.T.);
#77=FACE_BOUND('',#135,.T.);
#78=FACE_BOUND('',#136,.T.);
#79=FACE_BOUND('',#138,.T.);
#80=FACE_BOUND('',#139,.T.);
#81=FACE_BOUND('',#143,.T.);
#82=FACE_BOUND('',#32,.T.);
#83=FACE_BOUND('',#144,.T.);
#84=FACE_BOUND('',#145,.T.);
#85=ADVANCED_FACE('AR_BY_CN_SU_1_1',(#110),#103,.F.);
#86=ADVANCED_FACE('AR_BY_CN_SU_11',(#64,#65),#62,.T.);
#87=ADVANCED_FACE('AR_BY_CN_IB_SU_2',(#66,#67),#58,.T.);
#88=ADVANCED_FACE('AR_BY_CN_IB_SU_21',(#68,#69),#57,.T.);
#89=ADVANCED_FACE('AR_BY_CN_IB_SU_3',(#70,#71),#53,.T.);
#90=ADVANCED_FACE('AR_BY_CN_IB_SU_31',(#72,#73),#63,.F.);
#91=ADVANCED_FACE('CU_IB_SU_5',(#74,#75),#104,.T.);
#92=ADVANCED_FACE('CU_CHF_3_SU_1',(#111),#59,.T.);
#93=ADVANCED_FACE('CU_IB_SU_4',(#112),#54,.T.);
#94=ADVANCED_FACE('CU_BY_SU_4',(#113),#105,.F.);
#95=ADVANCED_FACE('CU_IB_SU_3',(#76,#77,#78),#106,.F.);
#96=ADVANCED_FACE('CU_CHF_1_SU_1',(#114),#60,.T.);
#97=ADVANCED_FACE('CU_IB_SU_2',(#79,#80),#55,.T.);
#98=ADVANCED_FACE('CU_BY_SU_3',(#115),#107,.F.);
#99=ADVANCED_FACE('CU_BY_SU_1',(#116),#108,.F.);
#100=ADVANCED_FACE('CU_IB_SU_1',(#117),#109,.F.);
#101=ADVANCED_FACE('CU_HO_SU_3',(#81,#82),#61,.F.);
#102=ADVANCED_FACE('CU_HO_SU_4',(#83,#84),#56,.F.);
#103=PLANE('',#286);
#104=PLANE('',#297);
#105=PLANE('',#302);
#106=PLANE('',#305);
#107=PLANE('',#311);
#108=PLANE('',#312);
#109=PLANE('',#313);
#110=FACE_OUTER_BOUND('',#118,.T.);
#111=FACE_OUTER_BOUND('',#131,.T.);
#112=FACE_OUTER_BOUND('',#132,.T.);
#113=FACE_OUTER_BOUND('',#133,.T.);
#114=FACE_OUTER_BOUND('',#137,.T.);
#115=FACE_OUTER_BOUND('',#140,.T.);
#116=FACE_OUTER_BOUND('',#141,.T.);
#117=FACE_OUTER_BOUND('',#142,.T.);
#118=EDGE_LOOP('',(#146));
#119=EDGE_LOOP('',(#147));
#120=EDGE_LOOP('',(#148));
#121=EDGE_LOOP('',(#149));
#122=EDGE_LOOP('',(#150));
#123=EDGE_LOOP('',(#151));
#124=EDGE_LOOP('',(#152));
#125=EDGE_LOOP('',(#153));
#126=EDGE_LOOP('',(#154));
#127=EDGE_LOOP('',(#155));
#128=EDGE_LOOP('',(#156));
#129=EDGE_LOOP('',(#157));
#130=EDGE_LOOP('',(#158,#159));
#131=EDGE_LOOP('',(#160,#161,#162,#163));
#132=EDGE_LOOP('',(#164,#165,#166,#167));
#133=EDGE_LOOP('',(#168,#169,#170,#171,#172,#173));
#134=EDGE_LOOP('',(#174));
#135=EDGE_LOOP('',(#175));
#136=EDGE_LOOP('',(#176,#177));
#137=EDGE_LOOP('',(#178,#179,#180,#181));
#138=EDGE_LOOP('',(#182,#183,#184,#185));
#139=EDGE_LOOP('',(#186));
#140=EDGE_LOOP('',(#187,#188));
#141=EDGE_LOOP('',(#189,#190,#191,#192,#193,#194));
#142=EDGE_LOOP('',(#195,#196));
#143=EDGE_LOOP('',(#197));
#144=EDGE_LOOP('',(#198));
#145=EDGE_LOOP('',(#199));
#146=ORIENTED_EDGE('',*,*,#222,.F.);
#147=ORIENTED_EDGE('',*,*,#223,.F.);
#148=ORIENTED_EDGE('',*,*,#222,.T.);
#149=ORIENTED_EDGE('',*,*,#223,.T.);
#150=ORIENTED_EDGE('',*,*,#224,.T.);
#151=ORIENTED_EDGE('',*,*,#224,.F.);
#152=ORIENTED_EDGE('',*,*,#225,.F.);
#153=ORIENTED_EDGE('',*,*,#226,.T.);
#154=ORIENTED_EDGE('',*,*,#225,.T.);
#155=ORIENTED_EDGE('',*,*,#227,.F.);
#156=ORIENTED_EDGE('',*,*,#226,.F.);
#157=ORIENTED_EDGE('',*,*,#227,.T.);
#158=ORIENTED_EDGE('',*,*,#228,.T.);
#159=ORIENTED_EDGE('',*,*,#229,.T.);
#160=ORIENTED_EDGE('',*,*,#230,.F.);
#161=ORIENTED_EDGE('',*,*,#231,.F.);
#162=ORIENTED_EDGE('',*,*,#232,.F.);
#163=ORIENTED_EDGE('',*,*,#228,.F.);
#164=ORIENTED_EDGE('',*,*,#233,.T.);
#165=ORIENTED_EDGE('',*,*,#234,.T.);
#166=ORIENTED_EDGE('',*,*,#235,.T.);
#167=ORIENTED_EDGE('',*,*,#231,.T.);
#168=ORIENTED_EDGE('',*,*,#236,.F.);
#169=ORIENTED_EDGE('',*,*,#233,.F.);
#170=ORIENTED_EDGE('',*,*,#230,.T.);
#171=ORIENTED_EDGE('',*,*,#229,.F.);
#172=ORIENTED_EDGE('',*,*,#232,.T.);
#173=ORIENTED_EDGE('',*,*,#235,.F.);
#174=ORIENTED_EDGE('',*,*,#237,.F.);
#175=ORIENTED_EDGE('',*,*,#238,.F.);
#176=ORIENTED_EDGE('',*,*,#236,.T.);
#177=ORIENTED_EDGE('',*,*,#234,.F.);
#178=ORIENTED_EDGE('',*,*,#239,.F.);
#179=ORIENTED_EDGE('',*,*,#240,.F.);
#180=ORIENTED_EDGE('',*,*,#241,.F.);
#181=ORIENTED_EDGE('',*,*,#242,.F.);
#182=ORIENTED_EDGE('',*,*,#242,.T.);
#183=ORIENTED_EDGE('',*,*,#243,.T.);
#184=ORIENTED_EDGE('',*,*,#244,.T.);
#185=ORIENTED_EDGE('',*,*,#245,.T.);
#186=ORIENTED_EDGE('',*,*,#238,.T.);
#187=ORIENTED_EDGE('',*,*,#246,.F.);
#188=ORIENTED_EDGE('',*,*,#244,.F.);
#189=ORIENTED_EDGE('',*,*,#243,.F.);
#190=ORIENTED_EDGE('',*,*,#241,.T.);
#191=ORIENTED_EDGE('',*,*,#247,.F.);
#192=ORIENTED_EDGE('',*,*,#239,.T.);
#193=ORIENTED_EDGE('',*,*,#245,.F.);
#194=ORIENTED_EDGE('',*,*,#246,.T.);
#195=ORIENTED_EDGE('',*,*,#247,.T.);
#196=ORIENTED_EDGE('',*,*,#240,.T.);
#197=ORIENTED_EDGE('',*,*,#248,.T.);
#198=ORIENTED_EDGE('',*,*,#248,.F.);
#199=ORIENTED_EDGE('',*,*,#237,.T.);
#200=VERTEX_POINT('',#402);
#201=VERTEX_POINT('',#405);
#202=VERTEX_POINT('',#408);
#203=VERTEX_POINT('',#411);
#204=VERTEX_POINT('',#441);
#205=VERTEX_POINT('',#444);
#206=VERTEX_POINT('',#447);
#207=VERTEX_POINT('',#448);
#208=VERTEX_POINT('',#455);
#209=VERTEX_POINT('',#457);
#210=VERTEX_POINT('',#464);
#211=VERTEX_POINT('',#466);
#212=VERTEX_POINT('',#472);
#213=VERTEX_POINT('',#474);
#214=VERTEX_POINT('',#480);
#215=VERTEX_POINT('',#481);
#216=VERTEX_POINT('',#483);
#217=VERTEX_POINT('',#488);
#218=VERTEX_POINT('',#492);
#219=VERTEX_POINT('',#494);
#220=VERTEX_POINT('',#503);
#221=VERTEX_POINT('',#504);
#222=EDGE_CURVE('',#200,#200,#249,.T.);
#223=EDGE_CURVE('',#201,#201,#250,.T.);
#224=EDGE_CURVE('',#202,#202,#251,.T.);
#225=EDGE_CURVE('',#203,#203,#252,.T.);
#226=EDGE_CURVE('',#204,#204,#253,.T.);
#227=EDGE_CURVE('',#205,#205,#254,.T.);
#228=EDGE_CURVE('',#206,#207,#255,.T.);
#229=EDGE_CURVE('',#207,#206,#37,.T.);
#230=EDGE_CURVE('',#208,#206,#33,.T.);
#231=EDGE_CURVE('',#209,#208,#256,.T.);
#232=EDGE_CURVE('',#207,#209,#34,.T.);
#233=EDGE_CURVE('',#208,#210,#38,.T.);
#234=EDGE_CURVE('',#210,#211,#257,.T.);
#235=EDGE_CURVE('',#211,#209,#39,.T.);
#236=EDGE_CURVE('',#210,#211,#40,.T.);
#237=EDGE_CURVE('',#212,#212,#258,.T.);
#238=EDGE_CURVE('',#213,#213,#259,.T.);
#239=EDGE_CURVE('',#214,#215,#35,.T.);
#240=EDGE_CURVE('',#216,#214,#260,.T.);
#241=EDGE_CURVE('',#217,#216,#36,.T.);
#242=EDGE_CURVE('',#215,#217,#261,.T.);
#243=EDGE_CURVE('',#217,#218,#41,.T.);
#244=EDGE_CURVE('',#218,#219,#262,.T.);
#245=EDGE_CURVE('',#219,#215,#42,.T.);
#246=EDGE_CURVE('',#219,#218,#43,.T.);
#247=EDGE_CURVE('',#214,#216,#44,.T.);
#248=EDGE_CURVE('',#220,#220,#263,.T.);
#249=CIRCLE('',#285,21.1082867373567);
#250=CIRCLE('',#287,22.2359178822998);
#251=CIRCLE('',#289,27.5953893117886);
#252=CIRCLE('',#291,28.5);
#253=CIRCLE('',#292,28.5);
#254=CIRCLE('',#294,29.5);
#255=CIRCLE('',#296,40.5);
#256=CIRCLE('',#298,41.5);
#257=CIRCLE('',#300,41.5);
#258=CIRCLE('',#303,7.00675);
#259=CIRCLE('',#304,19.996);
#260=CIRCLE('',#306,19.0581778264911);
#261=CIRCLE('',#307,19.996);
#262=CIRCLE('',#309,19.996);
#263=CIRCLE('',#314,7.00675);
#264=PRESENTATION_LAYER_ASSIGNMENT('1','Layer 1',(#282,#283,#284,#30));
#265=STYLED_ITEM('',(#269),#282);
#266=STYLED_ITEM('',(#270),#283);
#267=STYLED_ITEM('',(#271),#284);
#268=STYLED_ITEM('',(#272),#30);
#269=PRESENTATION_STYLE_ASSIGNMENT((#273));
#270=PRESENTATION_STYLE_ASSIGNMENT((#274));
#271=PRESENTATION_STYLE_ASSIGNMENT((#275));
#272=PRESENTATION_STYLE_ASSIGNMENT((#25));
#273=CURVE_STYLE('',#278,POSITIVE_LENGTH_MEASURE(0.13),#276);
#274=CURVE_STYLE('',#279,POSITIVE_LENGTH_MEASURE(0.13),#276);
#275=CURVE_STYLE('',#280,POSITIVE_LENGTH_MEASURE(0.13),#276);
#276=COLOUR_RGB('Strong Emerald',0.,0.803921568627451,0.525490196078431);
#277=COLOUR_RGB('TLS_NOCUT',0.499992370489052,0.499992370489052,0.499992370489052);
#278=DRAUGHTING_PRE_DEFINED_CURVE_FONT('continuous');
#279=DRAUGHTING_PRE_DEFINED_CURVE_FONT('continuous');
#280=DRAUGHTING_PRE_DEFINED_CURVE_FONT('continuous');
#281=AXIS2_PLACEMENT_3D('',#397,#317,#318);
#282=AXIS2_PLACEMENT_3D('PCS',#398,#319,#320);
#283=AXIS2_PLACEMENT_3D('MCS',#399,#321,#322);
#284=AXIS2_PLACEMENT_3D('CSW',#400,#323,#324);
#285=AXIS2_PLACEMENT_3D('',#401,#325,#326);
#286=AXIS2_PLACEMENT_3D('',#403,#327,#328);
#287=AXIS2_PLACEMENT_3D('',#404,#329,#330);
#288=AXIS2_PLACEMENT_3D('',#406,#331,#332);
#289=AXIS2_PLACEMENT_3D('',#407,#333,#334);
#290=AXIS2_PLACEMENT_3D('',#409,#335,#336);
#291=AXIS2_PLACEMENT_3D('',#410,#337,#338);
#292=AXIS2_PLACEMENT_3D('',#440,#339,#340);
#293=AXIS2_PLACEMENT_3D('',#442,#341,#342);
#294=AXIS2_PLACEMENT_3D('',#443,#343,#344);
#295=AXIS2_PLACEMENT_3D('',#445,#345,#346);
#296=AXIS2_PLACEMENT_3D('',#446,#347,#348);
#297=AXIS2_PLACEMENT_3D('',#450,#350,#351);
#298=AXIS2_PLACEMENT_3D('',#456,#352,#353);
#299=AXIS2_PLACEMENT_3D('',#462,#354,#355);
#300=AXIS2_PLACEMENT_3D('',#465,#357,#358);
#301=AXIS2_PLACEMENT_3D('',#468,#360,#361);
#302=AXIS2_PLACEMENT_3D('',#470,#363,#364);
#303=AXIS2_PLACEMENT_3D('',#471,#365,#366);
#304=AXIS2_PLACEMENT_3D('',#473,#367,#368);
#305=AXIS2_PLACEMENT_3D('',#475,#369,#370);
#306=AXIS2_PLACEMENT_3D('',#482,#371,#372);
#307=AXIS2_PLACEMENT_3D('',#489,#373,#374);
#308=AXIS2_PLACEMENT_3D('',#490,#375,#376);
#309=AXIS2_PLACEMENT_3D('',#493,#378,#379);
#310=AXIS2_PLACEMENT_3D('',#496,#381,#382);
#311=AXIS2_PLACEMENT_3D('',#498,#384,#385);
#312=AXIS2_PLACEMENT_3D('',#500,#387,#388);
#313=AXIS2_PLACEMENT_3D('',#501,#389,#390);
#314=AXIS2_PLACEMENT_3D('',#502,#391,#392);
#315=AXIS2_PLACEMENT_3D('',#505,#393,#394);
#316=AXIS2_PLACEMENT_3D('',#506,#395,#396);
#317=DIRECTION('',(0.,0.,1.));
#318=DIRECTION('',(1.,0.,0.));
#319=DIRECTION('',(0.,0.,1.));
#320=DIRECTION('',(1.,0.,0.));
#321=DIRECTION('',(0.,0.,1.));
#322=DIRECTION('',(1.,0.,0.));
#323=DIRECTION('',(0.,0.,1.));
#324=DIRECTION('',(1.,0.,0.));
#325=DIRECTION('',(0.,0.,1.));
#326=DIRECTION('',(1.,0.,0.));
#327=DIRECTION('',(0.,0.,1.));
#328=DIRECTION('',(1.,0.,0.));
#329=DIRECTION('',(0.,0.,1.));
#330=DIRECTION('',(1.,0.,0.));
#331=DIRECTION('',(0.,0.,1.));
#332=DIRECTION('',(1.,0.,0.));
#333=DIRECTION('',(0.,0.,-1.));
#334=DIRECTION('',(1.,0.,0.));
#335=DIRECTION('',(0.,0.,1.));
#336=DIRECTION('',(1.,0.,1.06080308233528E-016));
#337=DIRECTION('',(0.,0.,1.));
#338=DIRECTION('',(1.,0.,0.));
#339=DIRECTION('',(0.,0.,-1.));
#340=DIRECTION('',(-1.,0.,0.));
#341=DIRECTION('',(0.,0.,-1.));
#342=DIRECTION('',(-1.,0.,0.));
#343=DIRECTION('',(0.,0.,1.));
#344=DIRECTION('',(-1.,0.,0.));
#345=DIRECTION('',(0.,0.,-1.));
#346=DIRECTION('',(-1.,0.,0.));
#347=DIRECTION('',(0.,0.,-1.));
#348=DIRECTION('',(-1.,0.,0.));
#349=DIRECTION('',(1.,0.,0.));
#350=DIRECTION('',(0.,0.,-1.));
#351=DIRECTION('',(-1.,0.,0.));
#352=DIRECTION('',(0.,0.,1.));
#353=DIRECTION('',(-1.,0.,0.));
#354=DIRECTION('',(0.,0.,1.));
#355=DIRECTION('',(1.,0.,-1.66720180295704E-017));
#356=DIRECTION('',(0.,0.,1.));
#357=DIRECTION('',(0.,0.,-1.));
#358=DIRECTION('',(-1.,0.,0.));
#359=DIRECTION('',(0.,0.,-1.));
#360=DIRECTION('',(0.,0.,-1.));
#361=DIRECTION('',(-1.,0.,0.));
#362=DIRECTION('',(-1.,0.,1.22464679914735E-016));
#363=DIRECTION('',(0.,-1.,0.));
#364=DIRECTION('',(0.,0.,1.));
#365=DIRECTION('',(0.,0.,1.));
#366=DIRECTION('',(-1.,0.,0.));
#367=DIRECTION('',(0.,0.,1.));
#368=DIRECTION('',(-1.,0.,0.));
#369=DIRECTION('',(0.,0.,-1.));
#370=DIRECTION('',(-1.,0.,0.));
#371=DIRECTION('',(0.,0.,1.));
#372=DIRECTION('',(-1.,0.,0.));
#373=DIRECTION('',(0.,0.,-1.));
#374=DIRECTION('',(-1.,0.,0.));
#375=DIRECTION('',(0.,0.,-1.));
#376=DIRECTION('',(-1.,0.,0.));
#377=DIRECTION('',(0.,0.,-1.));
#378=DIRECTION('',(0.,-1.97522713150939E-016,-1.));
#379=DIRECTION('',(0.,-1.,2.16883811259353E-016));
#380=DIRECTION('',(0.,0.,1.));
#381=DIRECTION('',(0.,0.,-1.));
#382=DIRECTION('',(-1.,0.,0.));
#383=DIRECTION('',(-1.,0.,0.));
#384=DIRECTION('',(0.,-1.97522713150939E-016,-1.));
#385=DIRECTION('',(0.,-1.,1.97758476261356E-016));
#386=DIRECTION('',(-1.,0.,0.));
#387=DIRECTION('',(0.,-1.,6.19544098563145E-017));
#388=DIRECTION('',(0.,6.24500451351651E-017,1.));
#389=DIRECTION('',(0.,0.,-1.));
#390=DIRECTION('',(-1.,0.,0.));
#391=DIRECTION('',(0.,0.,1.));
#392=DIRECTION('',(-1.,0.,0.));
#393=DIRECTION('',(0.,0.,1.));
#394=DIRECTION('',(1.,0.,1.76338850903498E-017));
#395=DIRECTION('',(0.,0.,-1.));
#396=DIRECTION('',(-1.,0.,0.));
#397=CARTESIAN_POINT('',(0.,0.,0.));
#398=CARTESIAN_POINT('',(0.,0.,0.));
#399=CARTESIAN_POINT('',(0.,0.,0.));
#400=CARTESIAN_POINT('',(0.,0.,-90.));
#401=CARTESIAN_POINT('',(0.,0.,-90.));
#402=CARTESIAN_POINT('',(21.1082867373567,0.,-90.));
#403=CARTESIAN_POINT('',(0.,0.,-90.));
#404=CARTESIAN_POINT('',(0.,0.,-89.2104241719908));
#405=CARTESIAN_POINT('',(22.2359178822998,0.,-89.2104241719908));
#406=CARTESIAN_POINT('',(0.,0.,-88.8));
#407=CARTESIAN_POINT('',(0.,0.,-74.4853974392581));
#408=CARTESIAN_POINT('',(27.5953893117886,0.,-74.4853974392581));
#409=CARTESIAN_POINT('',(0.,0.,-72.));
#410=CARTESIAN_POINT('',(0.,0.,-69.3550952893731));
#411=CARTESIAN_POINT('',(28.5,0.,-69.3550952893731));
#412=CARTESIAN_POINT('',(28.5,0.,-69.3550952893731));
#413=CARTESIAN_POINT('',(28.5,57.,-69.3550952893731));
#414=CARTESIAN_POINT('',(-28.5,57.,-69.3550952893731));
#415=CARTESIAN_POINT('',(-28.5,0.,-69.3550952893731));
#416=CARTESIAN_POINT('',(-28.5,-57.,-69.3550952893731));
#417=CARTESIAN_POINT('',(28.5,-57.,-69.3550952893731));
#418=CARTESIAN_POINT('',(28.5,0.,-69.3550952893731));
#419=CARTESIAN_POINT('',(28.5,0.,-71.1093443897834));
#420=CARTESIAN_POINT('',(28.5,57.,-71.1093443897834));
#421=CARTESIAN_POINT('',(-28.5,57.,-71.1093443897834));
#422=CARTESIAN_POINT('',(-28.5,0.,-71.1093443897834));
#423=CARTESIAN_POINT('',(-28.5,-57.,-71.1093443897834));
#424=CARTESIAN_POINT('',(28.5,-57.,-71.1093443897834));
#425=CARTESIAN_POINT('',(28.5,0.,-71.1093443897834));
#426=CARTESIAN_POINT('',(28.1953778405399,0.,-72.8369425045822));
#427=CARTESIAN_POINT('',(28.1953778405399,56.3907556810798,-72.8369425045822));
#428=CARTESIAN_POINT('',(-28.1953778405399,56.3907556810798,-72.8369425045822));
#429=CARTESIAN_POINT('',(-28.1953778405399,0.,-72.8369425045822));
#430=CARTESIAN_POINT('',(-28.1953778405399,-56.3907556810798,-72.8369425045822));
#431=CARTESIAN_POINT('',(28.1953778405399,-56.3907556810798,-72.8369425045822));
#432=CARTESIAN_POINT('',(28.1953778405399,0.,-72.8369425045822));
#433=CARTESIAN_POINT('',(27.5953893117886,0.,-74.4853974392581));
#434=CARTESIAN_POINT('',(27.5953893117886,55.1907786235773,-74.4853974392581));
#435=CARTESIAN_POINT('',(-27.5953893117886,55.1907786235773,-74.4853974392581));
#436=CARTESIAN_POINT('',(-27.5953893117886,0.,-74.4853974392581));
#437=CARTESIAN_POINT('',(-27.5953893117886,-55.1907786235773,-74.4853974392581));
#438=CARTESIAN_POINT('',(27.5953893117886,-55.1907786235773,-74.4853974392581));
#439=CARTESIAN_POINT('',(27.5953893117886,0.,-74.4853974392581));
#440=CARTESIAN_POINT('',(0.,0.,-21.));
#441=CARTESIAN_POINT('',(-28.5,0.,-21.));
#442=CARTESIAN_POINT('',(0.,0.,-20.));
#443=CARTESIAN_POINT('',(0.,0.,-20.));
#444=CARTESIAN_POINT('',(-29.5,0.,-20.));
#445=CARTESIAN_POINT('',(0.,0.,-21.));
#446=CARTESIAN_POINT('',(0.,0.,-20.));
#447=CARTESIAN_POINT('',(24.1660919471891,32.5,-20.));
#448=CARTESIAN_POINT('',(-24.1660919471891,32.5,-20.));
#449=CARTESIAN_POINT('',(-41.5,32.5,-20.));
#450=CARTESIAN_POINT('',(0.,0.,-20.));
#451=CARTESIAN_POINT('',(25.8069758011279,32.5,-19.));
#452=CARTESIAN_POINT('',(25.2632973922042,32.5,-19.3380890492214));
#453=CARTESIAN_POINT('',(24.7159495471129,32.5,-19.6719034736391));
#454=CARTESIAN_POINT('',(24.1660919471891,32.5,-20.));
#455=CARTESIAN_POINT('',(25.8069758011279,32.5,-19.));
#456=CARTESIAN_POINT('',(0.,0.,-19.));
#457=CARTESIAN_POINT('',(-25.8069758011279,32.5,-19.));
#458=CARTESIAN_POINT('',(-24.1660919471892,32.5,-20.));
#459=CARTESIAN_POINT('',(-24.7160329921924,32.5,-19.6718536824918));
#460=CARTESIAN_POINT('',(-25.262891506267,32.5,-19.3383414513554));
#461=CARTESIAN_POINT('',(-25.8069758011279,32.5,-19.));
#462=CARTESIAN_POINT('',(0.,0.,-20.));
#463=CARTESIAN_POINT('',(25.8069758011279,32.5,12.2909500693914));
#464=CARTESIAN_POINT('',(25.8069758011279,32.5,-2.75667994488069E-016));
#465=CARTESIAN_POINT('',(0.,0.,0.));
#466=CARTESIAN_POINT('',(-25.8069758011279,32.5,-2.75667994488069E-016));
#467=CARTESIAN_POINT('',(-25.8069758011279,32.5,12.2909500693914));
#468=CARTESIAN_POINT('',(0.,0.,12.2909500693914));
#469=CARTESIAN_POINT('',(41.5,32.5,-5.08228421646152E-015));
#470=CARTESIAN_POINT('',(0.,32.5,0.));
#471=CARTESIAN_POINT('',(16.,-27.7128129211021,0.));
#472=CARTESIAN_POINT('',(8.99325,-27.7128129211021,0.));
#473=CARTESIAN_POINT('',(0.,0.,0.));
#474=CARTESIAN_POINT('',(-19.996,0.,0.));
#475=CARTESIAN_POINT('',(0.,19.996,-2.75667994488069E-016));
#476=CARTESIAN_POINT('',(10.3482426559371,16.004,63.));
#477=CARTESIAN_POINT('',(10.9183770358009,16.004,61.8446594753671));
#478=CARTESIAN_POINT('',(11.4622926149224,16.004,60.6762240428615));
#479=CARTESIAN_POINT('',(11.9879939939925,16.004,59.5));
#480=CARTESIAN_POINT('',(10.3482426559371,16.004,63.));
#481=CARTESIAN_POINT('',(11.9879939939925,16.004,59.5));
#482=CARTESIAN_POINT('',(0.,0.,63.));
#483=CARTESIAN_POINT('',(-10.3482426559371,16.004,63.));
#484=CARTESIAN_POINT('',(-11.9879939939925,16.004,59.5));
#485=CARTESIAN_POINT('',(-11.4622926149224,16.004,60.6762240428615));
#486=CARTESIAN_POINT('',(-10.9183770358009,16.004,61.8446594753671));
#487=CARTESIAN_POINT('',(-10.3482426559371,16.004,63.));
#488=CARTESIAN_POINT('',(-11.9879939939925,16.004,59.5));
#489=CARTESIAN_POINT('',(0.,0.,59.5));
#490=CARTESIAN_POINT('',(0.,0.,59.5));
#491=CARTESIAN_POINT('',(-11.9879939939925,16.004,12.2909500693914));
#492=CARTESIAN_POINT('',(-11.9879939939925,16.004,7.));
#493=CARTESIAN_POINT('',(0.,0.,7.));
#494=CARTESIAN_POINT('',(11.9879939939925,16.004,7.));
#495=CARTESIAN_POINT('',(11.9879939939925,16.004,12.2909500693914));
#496=CARTESIAN_POINT('',(0.,0.,12.2909500693914));
#497=CARTESIAN_POINT('',(-19.996,16.004,7.));
#498=CARTESIAN_POINT('',(-19.996,16.004,7.));
#499=CARTESIAN_POINT('',(-19.996,16.004,63.));
#500=CARTESIAN_POINT('',(-19.996,16.004,63.));
#501=CARTESIAN_POINT('',(0.,0.,63.));
#502=CARTESIAN_POINT('',(16.,-27.7128129211021,-7.5));
#503=CARTESIAN_POINT('',(8.99325,-27.7128129211021,-7.5));
#504=CARTESIAN_POINT('',(16.,-27.7128129211021,-10.0502484389447));
#505=CARTESIAN_POINT('',(16.,-27.7128129211021,-7.5));
#506=CARTESIAN_POINT('',(16.,-27.7128129211021,14.9058496966544));
#507=MECHANICAL_DESIGN_GEOMETRIC_PRESENTATION_REPRESENTATION('',(#265,#266,
#267,#268),#508);
#508=(
GEOMETRIC_REPRESENTATION_CONTEXT(3)
GLOBAL_UNCERTAINTY_ASSIGNED_CONTEXT((#509))
GLOBAL_UNIT_ASSIGNED_CONTEXT((#515,#511,#510))
REPRESENTATION_CONTEXT('1508153878233','TOP_LEVEL_ASSEMBLY_PART')
);
#509=UNCERTAINTY_MEASURE_WITH_UNIT(LENGTH_MEASURE(0.0508),#515,
'DISTANCE_ACCURACY_VALUE','Maximum Tolerance applied to model');
#510=(
NAMED_UNIT(*)
SI_UNIT($,.STERADIAN.)
SOLID_ANGLE_UNIT()
);
#511=(
CONVERSION_BASED_UNIT('DEGREE',#513)
NAMED_UNIT(#512)
PLANE_ANGLE_UNIT()
);
#512=DIMENSIONAL_EXPONENTS(0.,0.,0.,0.,0.,0.,0.);
#513=PLANE_ANGLE_MEASURE_WITH_UNIT(PLANE_ANGLE_MEASURE(0.0174532925),#514);
#514=(
NAMED_UNIT(*)
PLANE_ANGLE_UNIT()
SI_UNIT($,.RADIAN.)
);
#515=(
LENGTH_UNIT()
NAMED_UNIT(*)
SI_UNIT(.MILLI.,.METRE.)
);
ENDSEC;
END-ISO-10303-21;
