ISO-10303-21;
HEADER;
/* Generated by software containing ST-Developer
 * from STEP Tools, Inc. (www.steptools.com) 
 */
/* OPTION: using custom schema-name function */

FILE_DESCRIPTION(
/* description */ (''),
/* implementation_level */ '2;1');

FILE_NAME(
/* name */ '1508153185278.stp',
/* time_stamp */ '2017-10-16T13:26:31+02:00',
/* author */ (''),
/* organization */ ('SMS'),
/* preprocessor_version */ 'ST-DEVELOPER v15',
/* originating_system */ 'SIEMENS PLM Software NX 8.5',
/* authorisation */ '');

FILE_SCHEMA (('AUTOMOTIVE_DESIGN { 1 0 10303 214 3 1 1 1 }'));
ENDSEC;

DATA;
#10=CONSTRUCTIVE_GEOMETRY_REPRESENTATION_RELATIONSHIP(
'supplemental geometry','',#24,#11);
#11=CONSTRUCTIVE_GEOMETRY_REPRESENTATION('supplemental geometry',(#298,
#299,#300),#578);
#12=SHAPE_REPRESENTATION_RELATIONSHIP('None',
'relationship between 201207363MOD000_00-None and 201207363MOD000_00-N
one',#24,#13);
#13=ADVANCED_BREP_SHAPE_REPRESENTATION('201207363MOD000_00-None',(#30),
#578);
#14=SHAPE_DEFINITION_REPRESENTATION(#15,#24);
#15=PRODUCT_DEFINITION_SHAPE('','',#16);
#16=PRODUCT_DEFINITION(' ','',#18,#17);
#17=PRODUCT_DEFINITION_CONTEXT('part definition',#23,'design');
#18=PRODUCT_DEFINITION_FORMATION_WITH_SPECIFIED_SOURCE(' ',' ',#20,
 .NOT_KNOWN.);
#19=PRODUCT_RELATED_PRODUCT_CATEGORY('part','',(#20));
#20=PRODUCT('201207363MOD000_00','201207363MOD000_00',' ',(#21));
#21=PRODUCT_CONTEXT(' ',#23,'mechanical');
#22=APPLICATION_PROTOCOL_DEFINITION('international standard',
'automotive_design',2010,#23);
#23=APPLICATION_CONTEXT(
'core data for automotive mechanical design processes');
#24=SHAPE_REPRESENTATION('201207363MOD000_00-None',(#297),#578);
#25=SURFACE_STYLE_USAGE(.BOTH.,#26);
#26=SURFACE_SIDE_STYLE('',(#27));
#27=SURFACE_STYLE_FILL_AREA(#28);
#28=FILL_AREA_STYLE('',(#29));
#29=FILL_AREA_STYLE_COLOUR('',#293);
#30=MANIFOLD_SOLID_BREP('TURN_SOLID',#31);
#31=CLOSED_SHELL('',(#58,#59,#60,#61,#62,#63,#64,#65,#66,#67,#68,#69,#70,
#71,#72,#73,#74,#75));
#32=(
BOUNDED_SURFACE()
B_SPLINE_SURFACE(3,3,((#546,#547,#548,#549,#550,#551,#552),(#553,#554,#555,
#556,#557,#558,#559),(#560,#561,#562,#563,#564,#565,#566),(#567,#568,#569,
#570,#571,#572,#573)),.UNSPECIFIED.,.F.,.T.,.F.)
B_SPLINE_SURFACE_WITH_KNOTS((4,4),(1,3,3,3,1),(0.,1.),(-0.5,0.,0.5,1.,1.5),
 .UNSPECIFIED.)
GEOMETRIC_REPRESENTATION_ITEM()
RATIONAL_B_SPLINE_SURFACE(((1.,0.333333333333333,0.333333333333333,1.,0.333333333333333,
0.333333333333333,1.),(0.989871835341472,0.329957278447157,0.329957278447157,
0.989871835341472,0.329957278447157,0.329957278447157,0.989871835341472),
(0.989871835341472,0.329957278447157,0.329957278447157,0.989871835341472,
0.329957278447157,0.329957278447157,0.989871835341472),(1.,0.333333333333333,
0.333333333333333,1.,0.333333333333333,0.333333333333333,1.)))
REPRESENTATION_ITEM('')
SURFACE()
);
#33=TOROIDAL_SURFACE('',#324,23.3803462688243,1.2);
#34=PLANE('',#310);
#35=PLANE('',#313);
#36=PLANE('',#316);
#37=PLANE('',#319);
#38=PLANE('',#321);
#39=PLANE('',#325);
#40=PLANE('',#333);
#41=FACE_OUTER_BOUND('',#98,.T.);
#42=FACE_OUTER_BOUND('',#99,.T.);
#43=FACE_OUTER_BOUND('',#100,.T.);
#44=FACE_OUTER_BOUND('',#101,.T.);
#45=FACE_OUTER_BOUND('',#102,.T.);
#46=FACE_OUTER_BOUND('',#103,.T.);
#47=FACE_OUTER_BOUND('',#104,.T.);
#48=FACE_OUTER_BOUND('',#105,.T.);
#49=FACE_OUTER_BOUND('',#106,.T.);
#50=FACE_OUTER_BOUND('',#109,.T.);
#51=CONICAL_SURFACE('',#308,16.98925,45.0000000000001);
#52=CONICAL_SURFACE('',#311,25.,45.0000000000001);
#53=CONICAL_SURFACE('',#314,25.,45.0000000000001);
#54=CONICAL_SURFACE('',#317,25.,45.0000000000001);
#55=CONICAL_SURFACE('',#320,25.,45.0000000000001);
#56=CONICAL_SURFACE('',#328,31.5,45.0000000000002);
#57=CONICAL_SURFACE('',#331,31.5,20.);
#58=ADVANCED_FACE('CU_FL_CY_SU_1',(#78,#79),#76,.T.);
#59=ADVANCED_FACE('CU_FL_CY_SU_2',(#80,#81),#51,.T.);
#60=ADVANCED_FACE('CU_FA_4_SU_1',(#41),#34,.T.);
#61=ADVANCED_FACE('CU_FA_4_SU_2',(#42),#52,.F.);
#62=ADVANCED_FACE('CU_FA_1_SU_1',(#43),#35,.T.);
#63=ADVANCED_FACE('CU_FA_1_SU_2',(#44),#53,.F.);
#64=ADVANCED_FACE('CU_FA_2_SU_1',(#45),#36,.T.);
#65=ADVANCED_FACE('CU_FA_2_SU_2',(#46),#54,.F.);
#66=ADVANCED_FACE('CU_FA_3_SU_1',(#47),#37,.T.);
#67=ADVANCED_FACE('CU_FA_3_SU_2',(#48),#55,.F.);
#68=ADVANCED_FACE('CU_FL_CY_SU_3',(#49),#38,.F.);
#69=ADVANCED_FACE('AR_BY_CN_SU_11',(#82,#83),#33,.T.);
#70=ADVANCED_FACE('AR_BY_CN_SU_1_1',(#50),#39,.F.);
#71=ADVANCED_FACE('',(#84,#85),#56,.T.);
#72=ADVANCED_FACE('AR_BY_CN_IB_SU_21',(#86,#87),#32,.T.);
#73=ADVANCED_FACE('AR_BY_CN_IB_SU_2',(#88,#89),#57,.T.);
#74=ADVANCED_FACE('AR_BY_CN_IB_SU_3',(#90,#91),#77,.T.);
#75=ADVANCED_FACE('AR_BY_CN_IB_SU_4',(#92,#93),#40,.T.);
#76=CYLINDRICAL_SURFACE('',#306,19.98925);
#77=CYLINDRICAL_SURFACE('',#332,31.5);
#78=FACE_BOUND('',#94,.T.);
#79=FACE_BOUND('',#95,.T.);
#80=FACE_BOUND('',#96,.T.);
#81=FACE_BOUND('',#97,.T.);
#82=FACE_BOUND('',#107,.T.);
#83=FACE_BOUND('',#108,.T.);
#84=FACE_BOUND('',#110,.T.);
#85=FACE_BOUND('',#111,.T.);
#86=FACE_BOUND('',#112,.T.);
#87=FACE_BOUND('',#113,.T.);
#88=FACE_BOUND('',#114,.T.);
#89=FACE_BOUND('',#115,.T.);
#90=FACE_BOUND('',#116,.T.);
#91=FACE_BOUND('',#117,.T.);
#92=FACE_BOUND('',#118,.T.);
#93=FACE_BOUND('',#119,.T.);
#94=EDGE_LOOP('',(#144,#145,#146,#147,#148,#149,#150,#151,#152,#153,#154,
#155,#156,#157,#158,#159));
#95=EDGE_LOOP('',(#160));
#96=EDGE_LOOP('',(#161,#162,#163,#164,#165,#166,#167,#168));
#97=EDGE_LOOP('',(#169));
#98=EDGE_LOOP('',(#170,#171,#172,#173));
#99=EDGE_LOOP('',(#174,#175));
#100=EDGE_LOOP('',(#176,#177,#178,#179));
#101=EDGE_LOOP('',(#180,#181));
#102=EDGE_LOOP('',(#182,#183,#184,#185));
#103=EDGE_LOOP('',(#186,#187));
#104=EDGE_LOOP('',(#188,#189,#190,#191));
#105=EDGE_LOOP('',(#192,#193));
#106=EDGE_LOOP('',(#194));
#107=EDGE_LOOP('',(#195));
#108=EDGE_LOOP('',(#196));
#109=EDGE_LOOP('',(#197));
#110=EDGE_LOOP('',(#198));
#111=EDGE_LOOP('',(#199));
#112=EDGE_LOOP('',(#200));
#113=EDGE_LOOP('',(#201));
#114=EDGE_LOOP('',(#202));
#115=EDGE_LOOP('',(#203));
#116=EDGE_LOOP('',(#204));
#117=EDGE_LOOP('',(#205));
#118=EDGE_LOOP('',(#206));
#119=EDGE_LOOP('',(#207));
#120=B_SPLINE_CURVE_WITH_KNOTS('',3,(#425,#426,#427,#428,#429,#430,#431,
#432,#433,#434),.UNSPECIFIED.,.F.,.F.,(4,2,2,2,4),(0.,0.25,0.5,0.75,1.),
 .UNSPECIFIED.);
#121=B_SPLINE_CURVE_WITH_KNOTS('',3,(#442,#443,#444,#445,#446,#447,#448,
#449,#450,#451),.UNSPECIFIED.,.F.,.F.,(4,2,2,2,4),(0.,0.25,0.5,0.75,1.),
 .UNSPECIFIED.);
#122=B_SPLINE_CURVE_WITH_KNOTS('',3,(#459,#460,#461,#462,#463,#464,#465,
#466,#467,#468),.UNSPECIFIED.,.F.,.F.,(4,2,2,2,4),(0.,0.25,0.5,0.75,1.),
 .UNSPECIFIED.);
#123=B_SPLINE_CURVE_WITH_KNOTS('',3,(#476,#477,#478,#479,#480,#481,#482,
#483,#484,#485),.UNSPECIFIED.,.F.,.F.,(4,2,2,2,4),(0.,0.25,0.5,0.75,1.),
 .UNSPECIFIED.);
#124=B_SPLINE_CURVE_WITH_KNOTS('',3,(#491,#492,#493,#494,#495,#496),
 .UNSPECIFIED.,.F.,.F.,(4,2,4),(0.,0.5,1.),.UNSPECIFIED.);
#125=B_SPLINE_CURVE_WITH_KNOTS('',3,(#497,#498,#499,#500,#501,#502),
 .UNSPECIFIED.,.F.,.F.,(4,2,4),(0.,0.5,1.),.UNSPECIFIED.);
#126=B_SPLINE_CURVE_WITH_KNOTS('',3,(#503,#504,#505,#506,#507,#508),
 .UNSPECIFIED.,.F.,.F.,(4,2,4),(0.,0.5,1.),.UNSPECIFIED.);
#127=B_SPLINE_CURVE_WITH_KNOTS('',3,(#509,#510,#511,#512,#513,#514),
 .UNSPECIFIED.,.F.,.F.,(4,2,4),(0.,0.5,1.),.UNSPECIFIED.);
#128=LINE('',#423,#136);
#129=LINE('',#436,#137);
#130=LINE('',#440,#138);
#131=LINE('',#453,#139);
#132=LINE('',#457,#140);
#133=LINE('',#470,#141);
#134=LINE('',#474,#142);
#135=LINE('',#487,#143);
#136=VECTOR('',#344,1.);
#137=VECTOR('',#345,1.);
#138=VECTOR('',#348,1.);
#139=VECTOR('',#349,1.);
#140=VECTOR('',#352,1.);
#141=VECTOR('',#353,1.);
#142=VECTOR('',#356,1.);
#143=VECTOR('',#357,1.);
#144=ORIENTED_EDGE('',*,*,#232,.T.);
#145=ORIENTED_EDGE('',*,*,#233,.F.);
#146=ORIENTED_EDGE('',*,*,#234,.F.);
#147=ORIENTED_EDGE('',*,*,#235,.F.);
#148=ORIENTED_EDGE('',*,*,#236,.T.);
#149=ORIENTED_EDGE('',*,*,#237,.F.);
#150=ORIENTED_EDGE('',*,*,#238,.F.);
#151=ORIENTED_EDGE('',*,*,#239,.F.);
#152=ORIENTED_EDGE('',*,*,#240,.T.);
#153=ORIENTED_EDGE('',*,*,#241,.F.);
#154=ORIENTED_EDGE('',*,*,#242,.F.);
#155=ORIENTED_EDGE('',*,*,#243,.F.);
#156=ORIENTED_EDGE('',*,*,#244,.T.);
#157=ORIENTED_EDGE('',*,*,#245,.F.);
#158=ORIENTED_EDGE('',*,*,#246,.F.);
#159=ORIENTED_EDGE('',*,*,#247,.F.);
#160=ORIENTED_EDGE('',*,*,#248,.F.);
#161=ORIENTED_EDGE('',*,*,#236,.F.);
#162=ORIENTED_EDGE('',*,*,#249,.T.);
#163=ORIENTED_EDGE('',*,*,#232,.F.);
#164=ORIENTED_EDGE('',*,*,#250,.T.);
#165=ORIENTED_EDGE('',*,*,#244,.F.);
#166=ORIENTED_EDGE('',*,*,#251,.T.);
#167=ORIENTED_EDGE('',*,*,#240,.F.);
#168=ORIENTED_EDGE('',*,*,#252,.T.);
#169=ORIENTED_EDGE('',*,*,#253,.T.);
#170=ORIENTED_EDGE('',*,*,#235,.T.);
#171=ORIENTED_EDGE('',*,*,#254,.F.);
#172=ORIENTED_EDGE('',*,*,#233,.T.);
#173=ORIENTED_EDGE('',*,*,#249,.F.);
#174=ORIENTED_EDGE('',*,*,#234,.T.);
#175=ORIENTED_EDGE('',*,*,#254,.T.);
#176=ORIENTED_EDGE('',*,*,#239,.T.);
#177=ORIENTED_EDGE('',*,*,#255,.F.);
#178=ORIENTED_EDGE('',*,*,#237,.T.);
#179=ORIENTED_EDGE('',*,*,#252,.F.);
#180=ORIENTED_EDGE('',*,*,#238,.T.);
#181=ORIENTED_EDGE('',*,*,#255,.T.);
#182=ORIENTED_EDGE('',*,*,#243,.T.);
#183=ORIENTED_EDGE('',*,*,#256,.F.);
#184=ORIENTED_EDGE('',*,*,#241,.T.);
#185=ORIENTED_EDGE('',*,*,#251,.F.);
#186=ORIENTED_EDGE('',*,*,#242,.T.);
#187=ORIENTED_EDGE('',*,*,#256,.T.);
#188=ORIENTED_EDGE('',*,*,#247,.T.);
#189=ORIENTED_EDGE('',*,*,#257,.F.);
#190=ORIENTED_EDGE('',*,*,#245,.T.);
#191=ORIENTED_EDGE('',*,*,#250,.F.);
#192=ORIENTED_EDGE('',*,*,#246,.T.);
#193=ORIENTED_EDGE('',*,*,#257,.T.);
#194=ORIENTED_EDGE('',*,*,#253,.F.);
#195=ORIENTED_EDGE('',*,*,#258,.F.);
#196=ORIENTED_EDGE('',*,*,#259,.T.);
#197=ORIENTED_EDGE('',*,*,#259,.F.);
#198=ORIENTED_EDGE('',*,*,#260,.F.);
#199=ORIENTED_EDGE('',*,*,#261,.F.);
#200=ORIENTED_EDGE('',*,*,#262,.F.);
#201=ORIENTED_EDGE('',*,*,#263,.F.);
#202=ORIENTED_EDGE('',*,*,#258,.T.);
#203=ORIENTED_EDGE('',*,*,#263,.T.);
#204=ORIENTED_EDGE('',*,*,#262,.T.);
#205=ORIENTED_EDGE('',*,*,#261,.T.);
#206=ORIENTED_EDGE('',*,*,#260,.T.);
#207=ORIENTED_EDGE('',*,*,#248,.T.);
#208=VERTEX_POINT('',#421);
#209=VERTEX_POINT('',#422);
#210=VERTEX_POINT('',#424);
#211=VERTEX_POINT('',#435);
#212=VERTEX_POINT('',#437);
#213=VERTEX_POINT('',#439);
#214=VERTEX_POINT('',#441);
#215=VERTEX_POINT('',#452);
#216=VERTEX_POINT('',#454);
#217=VERTEX_POINT('',#456);
#218=VERTEX_POINT('',#458);
#219=VERTEX_POINT('',#469);
#220=VERTEX_POINT('',#471);
#221=VERTEX_POINT('',#473);
#222=VERTEX_POINT('',#475);
#223=VERTEX_POINT('',#486);
#224=VERTEX_POINT('',#489);
#225=VERTEX_POINT('',#516);
#226=VERTEX_POINT('',#532);
#227=VERTEX_POINT('',#534);
#228=VERTEX_POINT('',#538);
#229=VERTEX_POINT('',#540);
#230=VERTEX_POINT('',#543);
#231=VERTEX_POINT('',#545);
#232=EDGE_CURVE('',#208,#209,#264,.T.);
#233=EDGE_CURVE('',#210,#209,#128,.T.);
#234=EDGE_CURVE('',#211,#210,#120,.T.);
#235=EDGE_CURVE('',#212,#211,#129,.T.);
#236=EDGE_CURVE('',#212,#213,#265,.T.);
#237=EDGE_CURVE('',#214,#213,#130,.T.);
#238=EDGE_CURVE('',#215,#214,#121,.T.);
#239=EDGE_CURVE('',#216,#215,#131,.T.);
#240=EDGE_CURVE('',#216,#217,#266,.T.);
#241=EDGE_CURVE('',#218,#217,#132,.T.);
#242=EDGE_CURVE('',#219,#218,#122,.T.);
#243=EDGE_CURVE('',#220,#219,#133,.T.);
#244=EDGE_CURVE('',#220,#221,#267,.T.);
#245=EDGE_CURVE('',#222,#221,#134,.T.);
#246=EDGE_CURVE('',#223,#222,#123,.T.);
#247=EDGE_CURVE('',#208,#223,#135,.T.);
#248=EDGE_CURVE('',#224,#224,#268,.T.);
#249=EDGE_CURVE('',#212,#209,#124,.T.);
#250=EDGE_CURVE('',#208,#221,#125,.T.);
#251=EDGE_CURVE('',#220,#217,#126,.T.);
#252=EDGE_CURVE('',#216,#213,#127,.T.);
#253=EDGE_CURVE('',#225,#225,#269,.T.);
#254=EDGE_CURVE('',#210,#211,#270,.T.);
#255=EDGE_CURVE('',#214,#215,#271,.T.);
#256=EDGE_CURVE('',#218,#219,#272,.T.);
#257=EDGE_CURVE('',#222,#223,#273,.T.);
#258=EDGE_CURVE('',#226,#226,#274,.T.);
#259=EDGE_CURVE('',#227,#227,#275,.T.);
#260=EDGE_CURVE('',#228,#228,#276,.T.);
#261=EDGE_CURVE('',#229,#229,#277,.T.);
#262=EDGE_CURVE('',#230,#230,#278,.T.);
#263=EDGE_CURVE('',#231,#231,#279,.T.);
#264=CIRCLE('',#301,19.98925);
#265=CIRCLE('',#302,19.98925);
#266=CIRCLE('',#303,19.98925);
#267=CIRCLE('',#304,19.98925);
#268=CIRCLE('',#305,19.98925);
#269=CIRCLE('',#307,16.98925);
#270=CIRCLE('',#309,25.);
#271=CIRCLE('',#312,25.);
#272=CIRCLE('',#315,25.);
#273=CIRCLE('',#318,25.);
#274=CIRCLE('',#322,24.5079774137674);
#275=CIRCLE('',#323,23.3803462688243);
#276=CIRCLE('',#326,31.2);
#277=CIRCLE('',#327,31.5);
#278=CIRCLE('',#329,31.5);
#279=CIRCLE('',#330,30.2938524157181);
#280=PRESENTATION_LAYER_ASSIGNMENT('1','Layer 1',(#298,#299,#300,#30));
#281=STYLED_ITEM('',(#285),#298);
#282=STYLED_ITEM('',(#286),#299);
#283=STYLED_ITEM('',(#287),#300);
#284=STYLED_ITEM('',(#288),#30);
#285=PRESENTATION_STYLE_ASSIGNMENT((#289));
#286=PRESENTATION_STYLE_ASSIGNMENT((#290));
#287=PRESENTATION_STYLE_ASSIGNMENT((#291));
#288=PRESENTATION_STYLE_ASSIGNMENT((#25));
#289=CURVE_STYLE('',#294,POSITIVE_LENGTH_MEASURE(0.13),#292);
#290=CURVE_STYLE('',#295,POSITIVE_LENGTH_MEASURE(0.13),#292);
#291=CURVE_STYLE('',#296,POSITIVE_LENGTH_MEASURE(0.13),#292);
#292=COLOUR_RGB('Strong Emerald',0.,0.803921568627451,0.525490196078431);
#293=COLOUR_RGB('TLS_NOCUT',0.499992370489052,0.499992370489052,0.499992370489052);
#294=DRAUGHTING_PRE_DEFINED_CURVE_FONT('continuous');
#295=DRAUGHTING_PRE_DEFINED_CURVE_FONT('continuous');
#296=DRAUGHTING_PRE_DEFINED_CURVE_FONT('continuous');
#297=AXIS2_PLACEMENT_3D('',#416,#334,#335);
#298=AXIS2_PLACEMENT_3D('PCS',#417,#336,#337);
#299=AXIS2_PLACEMENT_3D('MCS',#418,#338,#339);
#300=AXIS2_PLACEMENT_3D('CSW',#419,#340,#341);
#301=AXIS2_PLACEMENT_3D('',#420,#342,#343);
#302=AXIS2_PLACEMENT_3D('',#438,#346,#347);
#303=AXIS2_PLACEMENT_3D('',#455,#350,#351);
#304=AXIS2_PLACEMENT_3D('',#472,#354,#355);
#305=AXIS2_PLACEMENT_3D('',#488,#358,#359);
#306=AXIS2_PLACEMENT_3D('',#490,#360,#361);
#307=AXIS2_PLACEMENT_3D('',#515,#362,#363);
#308=AXIS2_PLACEMENT_3D('',#517,#364,#365);
#309=AXIS2_PLACEMENT_3D('',#518,#366,#367);
#310=AXIS2_PLACEMENT_3D('',#519,#368,#369);
#311=AXIS2_PLACEMENT_3D('',#520,#370,#371);
#312=AXIS2_PLACEMENT_3D('',#521,#372,#373);
#313=AXIS2_PLACEMENT_3D('',#522,#374,#375);
#314=AXIS2_PLACEMENT_3D('',#523,#376,#377);
#315=AXIS2_PLACEMENT_3D('',#524,#378,#379);
#316=AXIS2_PLACEMENT_3D('',#525,#380,#381);
#317=AXIS2_PLACEMENT_3D('',#526,#382,#383);
#318=AXIS2_PLACEMENT_3D('',#527,#384,#385);
#319=AXIS2_PLACEMENT_3D('',#528,#386,#387);
#320=AXIS2_PLACEMENT_3D('',#529,#388,#389);
#321=AXIS2_PLACEMENT_3D('',#530,#390,#391);
#322=AXIS2_PLACEMENT_3D('',#531,#392,#393);
#323=AXIS2_PLACEMENT_3D('',#533,#394,#395);
#324=AXIS2_PLACEMENT_3D('',#535,#396,#397);
#325=AXIS2_PLACEMENT_3D('',#536,#398,#399);
#326=AXIS2_PLACEMENT_3D('',#537,#400,#401);
#327=AXIS2_PLACEMENT_3D('',#539,#402,#403);
#328=AXIS2_PLACEMENT_3D('',#541,#404,#405);
#329=AXIS2_PLACEMENT_3D('',#542,#406,#407);
#330=AXIS2_PLACEMENT_3D('',#544,#408,#409);
#331=AXIS2_PLACEMENT_3D('',#574,#410,#411);
#332=AXIS2_PLACEMENT_3D('',#575,#412,#413);
#333=AXIS2_PLACEMENT_3D('',#576,#414,#415);
#334=DIRECTION('',(0.,0.,1.));
#335=DIRECTION('',(1.,0.,0.));
#336=DIRECTION('',(0.,0.,1.));
#337=DIRECTION('',(1.,0.,0.));
#338=DIRECTION('',(0.,0.,1.));
#339=DIRECTION('',(1.,0.,0.));
#340=DIRECTION('',(0.,0.,1.));
#341=DIRECTION('',(1.,0.,0.));
#342=DIRECTION('',(0.,0.,-1.));
#343=DIRECTION('',(-1.,0.,0.));
#344=DIRECTION('',(0.,0.,1.));
#345=DIRECTION('',(0.,0.,-1.));
#346=DIRECTION('',(0.,0.,-1.));
#347=DIRECTION('',(-1.,0.,0.));
#348=DIRECTION('',(0.,0.,1.));
#349=DIRECTION('',(0.,0.,-1.));
#350=DIRECTION('',(0.,0.,-1.));
#351=DIRECTION('',(-1.,0.,0.));
#352=DIRECTION('',(0.,0.,1.));
#353=DIRECTION('',(0.,0.,-1.));
#354=DIRECTION('',(0.,0.,-1.));
#355=DIRECTION('',(-1.,0.,0.));
#356=DIRECTION('',(0.,0.,1.));
#357=DIRECTION('',(0.,0.,-1.));
#358=DIRECTION('',(1.10682950644093E-018,0.,-1.));
#359=DIRECTION('',(1.,0.,1.10682950644093E-018));
#360=DIRECTION('',(0.,0.,-1.));
#361=DIRECTION('',(-1.,0.,0.));
#362=DIRECTION('',(0.,0.,-1.));
#363=DIRECTION('',(-1.,0.,0.));
#364=DIRECTION('',(0.,0.,-1.));
#365=DIRECTION('',(-1.,0.,-2.72919065915681E-017));
#366=DIRECTION('',(1.,-3.73641069867261E-015,-1.11022302462516E-016));
#367=DIRECTION('',(1.38777878078145E-016,-4.93038065763132E-031,1.));
#368=DIRECTION('',(-1.,3.73641069867261E-015,1.11022302462516E-016));
#369=DIRECTION('',(1.11022302462516E-016,-4.19082355898663E-031,1.));
#370=DIRECTION('',(-1.,3.73641069867261E-015,1.11022302462516E-016));
#371=DIRECTION('',(2.53861972094166E-016,-5.53164659148878E-031,1.));
#372=DIRECTION('',(-2.34291072916505E-015,-1.,-1.11022302462516E-016));
#373=DIRECTION('',(-2.46519032881566E-031,-1.38777878078145E-016,1.));
#374=DIRECTION('',(2.34291072916505E-015,1.,1.11022302462516E-016));
#375=DIRECTION('',(-2.58844984525645E-031,-1.11022302462516E-016,1.));
#376=DIRECTION('',(2.34291072916505E-015,1.,1.11022302462516E-016));
#377=DIRECTION('',(-2.22468395527266E-031,-2.53861972094166E-016,1.));
#378=DIRECTION('',(-1.,1.17145536458252E-015,-1.11022302462516E-016));
#379=DIRECTION('',(-1.38777878078145E-016,1.23259516440783E-031,1.));
#380=DIRECTION('',(1.,-1.17145536458252E-015,1.11022302462516E-016));
#381=DIRECTION('',(-1.11022302462516E-016,1.29422492262822E-031,1.));
#382=DIRECTION('',(1.,-1.17145536458252E-015,1.11022302462516E-016));
#383=DIRECTION('',(-2.53861972094166E-016,1.08227868094346E-031,1.));
#384=DIRECTION('',(0.,1.,-1.11022302462516E-016));
#385=DIRECTION('',(0.,1.38777878078145E-016,1.));
#386=DIRECTION('',(0.,-1.,1.11022302462516E-016));
#387=DIRECTION('',(0.,1.11022302462516E-016,1.));
#388=DIRECTION('',(0.,-1.,1.11022302462516E-016));
#389=DIRECTION('',(0.,2.53861972094166E-016,1.));
#390=DIRECTION('',(0.,0.,-1.));
#391=DIRECTION('',(-1.,0.,0.));
#392=DIRECTION('',(0.,0.,1.));
#393=DIRECTION('',(1.,0.,0.));
#394=DIRECTION('',(0.,0.,1.));
#395=DIRECTION('',(1.,0.,0.));
#396=DIRECTION('',(0.,0.,1.));
#397=DIRECTION('',(1.,0.,0.));
#398=DIRECTION('',(0.,0.,1.));
#399=DIRECTION('',(1.,0.,0.));
#400=DIRECTION('',(-1.10682950644093E-018,0.,1.));
#401=DIRECTION('',(1.,0.,1.10682950644093E-018));
#402=DIRECTION('',(1.10682950644093E-018,0.,-1.));
#403=DIRECTION('',(1.,0.,1.72095582934207E-018));
#404=DIRECTION('',(1.10682950644093E-018,0.,-1.));
#405=DIRECTION('',(-1.,0.,3.2005774262902E-017));
#406=DIRECTION('',(-1.10682950644093E-018,0.,1.));
#407=DIRECTION('',(1.,0.,0.));
#408=DIRECTION('',(1.10682950644093E-018,0.,-1.));
#409=DIRECTION('',(1.,0.,0.));
#410=DIRECTION('',(-1.10682950644093E-018,0.,1.));
#411=DIRECTION('',(1.,0.,7.01837286619803E-017));
#412=DIRECTION('',(1.10682950644093E-018,0.,-1.));
#413=DIRECTION('',(-1.,0.,-1.10682950644093E-018));
#414=DIRECTION('',(-1.10682950644093E-018,0.,1.));
#415=DIRECTION('',(1.,0.,1.10682950644093E-018));
#416=CARTESIAN_POINT('',(0.,0.,0.));
#417=CARTESIAN_POINT('',(0.,0.,0.));
#418=CARTESIAN_POINT('',(0.,0.,0.));
#419=CARTESIAN_POINT('',(0.,0.,-110.));
#420=CARTESIAN_POINT('',(0.,0.,97.));
#421=CARTESIAN_POINT('',(-7.57100492421584,-18.5,97.));
#422=CARTESIAN_POINT('',(-18.5,-7.57100492421575,97.));
#423=CARTESIAN_POINT('',(-18.5,-7.57100492421576,100.));
#424=CARTESIAN_POINT('',(-18.5,-7.57100492421577,11.1739662461941));
#425=CARTESIAN_POINT('',(-18.5,7.57100492421589,11.1739662461941));
#426=CARTESIAN_POINT('',(-18.9359970634003,6.50563173351752,10.3779515819874));
#427=CARTESIAN_POINT('',(-19.3125537632804,5.3197873239365,9.70628515997672));
#428=CARTESIAN_POINT('',(-19.8404667236653,2.76238125874024,8.77074814639255));
#429=CARTESIAN_POINT('',(-19.9900045173677,1.36992951327883,8.50942611057584));
#430=CARTESIAN_POINT('',(-19.9884894671692,-1.3918607317543,8.51208444426091));
#431=CARTESIAN_POINT('',(-19.8376399750912,-2.78265835650667,8.77570903077706));
#432=CARTESIAN_POINT('',(-19.3070568728983,-5.33972866511425,9.71607571728734));
#433=CARTESIAN_POINT('',(-18.9310940317321,-6.51761245295545,10.3869032136257));
#434=CARTESIAN_POINT('',(-18.5,-7.57100492421577,11.1739662461941));
#435=CARTESIAN_POINT('',(-18.5,7.57100492421591,11.1739662461941));
#436=CARTESIAN_POINT('',(-18.5,7.5710049242159,100.));
#437=CARTESIAN_POINT('',(-18.5,7.57100492421589,97.));
#438=CARTESIAN_POINT('',(0.,0.,97.));
#439=CARTESIAN_POINT('',(-7.57100492421578,18.5,97.));
#440=CARTESIAN_POINT('',(-7.57100492421578,18.5,100.));
#441=CARTESIAN_POINT('',(-7.57100492421579,18.5,11.1739662461941));
#442=CARTESIAN_POINT('',(7.57100492421587,18.5,11.1739662461941));
#443=CARTESIAN_POINT('',(6.5056317335175,18.9359970634003,10.3779515819874));
#444=CARTESIAN_POINT('',(5.31978732393646,19.3125537632804,9.70628515997671));
#445=CARTESIAN_POINT('',(2.7623812587402,19.8404667236654,8.77074814639255));
#446=CARTESIAN_POINT('',(1.36992951327879,19.9900045173677,8.50942611057585));
#447=CARTESIAN_POINT('',(-1.39186073175435,19.9884894671692,8.51208444426092));
#448=CARTESIAN_POINT('',(-2.7826583565067,19.8376399750912,8.77570903077706));
#449=CARTESIAN_POINT('',(-5.33972866511426,19.3070568728983,9.71607571728734));
#450=CARTESIAN_POINT('',(-6.51761245295547,18.9310940317321,10.3869032136257));
#451=CARTESIAN_POINT('',(-7.57100492421578,18.5,11.1739662461941));
#452=CARTESIAN_POINT('',(7.57100492421588,18.5,11.1739662461941));
#453=CARTESIAN_POINT('',(7.57100492421587,18.5,100.));
#454=CARTESIAN_POINT('',(7.57100492421586,18.5,97.));
#455=CARTESIAN_POINT('',(0.,0.,97.));
#456=CARTESIAN_POINT('',(18.5,7.57100492421579,97.));
#457=CARTESIAN_POINT('',(18.5,7.57100492421581,100.));
#458=CARTESIAN_POINT('',(18.5,7.57100492421582,11.1739662461941));
#459=CARTESIAN_POINT('',(18.5,-7.57100492421585,11.1739662461941));
#460=CARTESIAN_POINT('',(18.9359970634003,-6.50563173351749,10.3779515819874));
#461=CARTESIAN_POINT('',(19.3125537632804,-5.31978732393647,9.70628515997673));
#462=CARTESIAN_POINT('',(19.8404667236654,-2.7623812587402,8.77074814639255));
#463=CARTESIAN_POINT('',(19.9900045173677,-1.36992951327876,8.50942611057584));
#464=CARTESIAN_POINT('',(19.9884894671692,1.39186073175439,8.51208444426092));
#465=CARTESIAN_POINT('',(19.8376399750912,2.78265835650674,8.77570903077707));
#466=CARTESIAN_POINT('',(19.3070568728983,5.33972866511431,9.71607571728735));
#467=CARTESIAN_POINT('',(18.9310940317321,6.5176124529555,10.3869032136257));
#468=CARTESIAN_POINT('',(18.5,7.57100492421581,11.1739662461941));
#469=CARTESIAN_POINT('',(18.5,-7.57100492421586,11.1739662461941));
#470=CARTESIAN_POINT('',(18.5,-7.57100492421585,100.));
#471=CARTESIAN_POINT('',(18.5,-7.57100492421583,97.));
#472=CARTESIAN_POINT('',(0.,0.,97.));
#473=CARTESIAN_POINT('',(7.57100492421581,-18.5,97.));
#474=CARTESIAN_POINT('',(7.57100492421583,-18.5,100.));
#475=CARTESIAN_POINT('',(7.57100492421584,-18.5,11.1739662461941));
#476=CARTESIAN_POINT('',(-7.57100492421583,-18.5,11.1739662461941));
#477=CARTESIAN_POINT('',(-6.50563173351746,-18.9359970634003,10.3779515819875));
#478=CARTESIAN_POINT('',(-5.31978732393644,-19.3125537632804,9.70628515997673));
#479=CARTESIAN_POINT('',(-2.76238125874018,-19.8404667236654,8.77074814639256));
#480=CARTESIAN_POINT('',(-1.36992951327876,-19.9900045173677,8.50942611057585));
#481=CARTESIAN_POINT('',(1.39186073175439,-19.9884894671692,8.51208444426091));
#482=CARTESIAN_POINT('',(2.78265835650676,-19.8376399750912,8.77570903077706));
#483=CARTESIAN_POINT('',(5.33972866511433,-19.3070568728983,9.71607571728734));
#484=CARTESIAN_POINT('',(6.51761245295552,-18.9310940317321,10.3869032136257));
#485=CARTESIAN_POINT('',(7.57100492421583,-18.5,11.1739662461941));
#486=CARTESIAN_POINT('',(-7.57100492421584,-18.5,11.1739662461941));
#487=CARTESIAN_POINT('',(-7.57100492421583,-18.5,100.));
#488=CARTESIAN_POINT('',(0.,0.,0.));
#489=CARTESIAN_POINT('',(19.98925,0.,2.21246917116243E-017));
#490=CARTESIAN_POINT('',(0.,0.,100.));
#491=CARTESIAN_POINT('',(-18.4999999999999,7.57100492421599,97.0000000000002));
#492=CARTESIAN_POINT('',(-18.4999999999999,5.14205820891513,97.9199728625238));
#493=CARTESIAN_POINT('',(-18.4999999999999,2.61327279282694,98.4897295940383));
#494=CARTESIAN_POINT('',(-18.4999999999999,-2.62005871566487,98.4887697836814));
#495=CARTESIAN_POINT('',(-18.4999999999999,-5.13909050070974,97.921096893362));
#496=CARTESIAN_POINT('',(-18.5,-7.57100492421579,97.0000000000001));
#497=CARTESIAN_POINT('',(-7.57100492421584,-18.5,97.));
#498=CARTESIAN_POINT('',(-5.1415664672965,-18.5,97.9201591115432));
#499=CARTESIAN_POINT('',(-2.6082104261701,-18.5,98.4894177425471));
#500=CARTESIAN_POINT('',(2.61058947474102,-18.5,98.4890821809682));
#501=CARTESIAN_POINT('',(5.13979394865602,-18.5,97.9208304597607));
#502=CARTESIAN_POINT('',(7.57100492421582,-18.5,97.));
#503=CARTESIAN_POINT('',(18.5,-7.57100492421584,97.));
#504=CARTESIAN_POINT('',(18.5,-5.15905349943451,97.9135358312087));
#505=CARTESIAN_POINT('',(18.5,-2.58932717132532,98.4911355661997));
#506=CARTESIAN_POINT('',(18.5,2.61620110848512,98.4873546742273));
#507=CARTESIAN_POINT('',(18.5,5.15490144199831,97.9151084388501));
#508=CARTESIAN_POINT('',(18.5,7.5710049242158,97.));
#509=CARTESIAN_POINT('',(7.57100492421588,18.4999999999999,97.));
#510=CARTESIAN_POINT('',(5.15905349943455,18.4999999999999,97.9135358312087));
#511=CARTESIAN_POINT('',(2.58932717132534,18.5,98.4911355661997));
#512=CARTESIAN_POINT('',(-2.61620110848511,18.5,98.4873546742274));
#513=CARTESIAN_POINT('',(-5.1549014419983,18.5,97.9151084388501));
#514=CARTESIAN_POINT('',(-7.5710049242158,18.5,97.));
#515=CARTESIAN_POINT('',(0.,0.,100.));
#516=CARTESIAN_POINT('',(-16.98925,0.,100.));
#517=CARTESIAN_POINT('',(0.,0.,100.));
#518=CARTESIAN_POINT('',(-18.5,6.87562038856989E-014,35.));
#519=CARTESIAN_POINT('',(-18.5,6.8756203885699E-014,35.));
#520=CARTESIAN_POINT('',(-18.5,6.87562038856989E-014,35.));
#521=CARTESIAN_POINT('',(4.29764544498092E-014,18.5,35.));
#522=CARTESIAN_POINT('',(4.29764544498092E-014,18.5,35.));
#523=CARTESIAN_POINT('',(4.29764544498092E-014,18.5,35.));
#524=CARTESIAN_POINT('',(18.5,-2.13045302050325E-014,35.));
#525=CARTESIAN_POINT('',(18.5,-2.13045302050325E-014,35.));
#526=CARTESIAN_POINT('',(18.5,-2.13045302050325E-014,35.));
#527=CARTESIAN_POINT('',(3.67394039744206E-016,-18.5,35.));
#528=CARTESIAN_POINT('',(3.67394039744206E-016,-18.5,35.));
#529=CARTESIAN_POINT('',(3.67394039744206E-016,-18.5,35.));
#530=CARTESIAN_POINT('',(0.,0.,100.));
#531=CARTESIAN_POINT('',(0.,0.,-109.210424171991));
#532=CARTESIAN_POINT('',(24.5079774137674,0.,-109.210424171991));
#533=CARTESIAN_POINT('',(0.,0.,-110.));
#534=CARTESIAN_POINT('',(23.3803462688243,0.,-110.));
#535=CARTESIAN_POINT('',(0.,0.,-108.8));
#536=CARTESIAN_POINT('',(0.,0.,-110.));
#537=CARTESIAN_POINT('',(-5.33330773052376E-035,0.,1.74325647264446E-017));
#538=CARTESIAN_POINT('',(31.2,0.,5.19656453274016E-017));
#539=CARTESIAN_POINT('',(3.32048851932278E-019,0.,-0.3));
#540=CARTESIAN_POINT('',(31.5,0.,-0.3));
#541=CARTESIAN_POINT('',(3.32048851932278E-019,0.,-0.3));
#542=CARTESIAN_POINT('',(9.57113774790882E-017,0.,-86.4734603858307));
#543=CARTESIAN_POINT('',(31.5,0.,-86.4734603858307));
#544=CARTESIAN_POINT('',(1.03282537207688E-016,0.,-93.3138632523441));
#545=CARTESIAN_POINT('',(30.2938524157181,0.,-93.3138632523441));
#546=CARTESIAN_POINT('',(31.5,0.,-86.4734603858307));
#547=CARTESIAN_POINT('',(31.5,63.,-86.4734603858307));
#548=CARTESIAN_POINT('',(-31.5,63.,-86.4734603858307));
#549=CARTESIAN_POINT('',(-31.5,0.,-86.4734603858307));
#550=CARTESIAN_POINT('',(-31.5,-63.,-86.4734603858307));
#551=CARTESIAN_POINT('',(31.5,-63.,-86.4734603858307));
#552=CARTESIAN_POINT('',(31.5,0.,-86.4734603858307));
#553=CARTESIAN_POINT('',(31.5,0.,-88.8124591863778));
#554=CARTESIAN_POINT('',(31.5,63.,-88.8124591863778));
#555=CARTESIAN_POINT('',(-31.5,63.,-88.8124591863778));
#556=CARTESIAN_POINT('',(-31.5,0.,-88.8124591863778));
#557=CARTESIAN_POINT('',(-31.5,-63.,-88.8124591863778));
#558=CARTESIAN_POINT('',(31.5,-63.,-88.8124591863778));
#559=CARTESIAN_POINT('',(31.5,0.,-88.8124591863778));
#560=CARTESIAN_POINT('',(31.0938371207199,0.,-91.1159233394429));
#561=CARTESIAN_POINT('',(31.0938371207199,62.1876742414397,-91.1159233394429));
#562=CARTESIAN_POINT('',(-31.0938371207199,62.1876742414397,-91.1159233394429));
#563=CARTESIAN_POINT('',(-31.0938371207199,0.,-91.1159233394429));
#564=CARTESIAN_POINT('',(-31.0938371207199,-62.1876742414397,-91.1159233394429));
#565=CARTESIAN_POINT('',(31.0938371207199,-62.1876742414397,-91.1159233394429));
#566=CARTESIAN_POINT('',(31.0938371207199,0.,-91.1159233394429));
#567=CARTESIAN_POINT('',(30.2938524157182,0.,-93.3138632523441));
#568=CARTESIAN_POINT('',(30.2938524157182,60.5877048314363,-93.3138632523441));
#569=CARTESIAN_POINT('',(-30.2938524157182,60.5877048314363,-93.3138632523441));
#570=CARTESIAN_POINT('',(-30.2938524157182,0.,-93.3138632523441));
#571=CARTESIAN_POINT('',(-30.2938524157182,-60.5877048314363,-93.3138632523441));
#572=CARTESIAN_POINT('',(30.2938524157182,-60.5877048314363,-93.3138632523441));
#573=CARTESIAN_POINT('',(30.2938524157182,0.,-93.3138632523441));
#574=CARTESIAN_POINT('',(9.96146555796835E-017,0.,-90.));
#575=CARTESIAN_POINT('',(0.,0.,0.));
#576=CARTESIAN_POINT('',(-31.5,0.,-1.74325647264446E-017));
#577=MECHANICAL_DESIGN_GEOMETRIC_PRESENTATION_REPRESENTATION('',(#281,#282,
#283,#284),#578);
#578=(
GEOMETRIC_REPRESENTATION_CONTEXT(3)
GLOBAL_UNCERTAINTY_ASSIGNED_CONTEXT((#579))
GLOBAL_UNIT_ASSIGNED_CONTEXT((#585,#581,#580))
REPRESENTATION_CONTEXT('1508153185278','TOP_LEVEL_ASSEMBLY_PART')
);
#579=UNCERTAINTY_MEASURE_WITH_UNIT(LENGTH_MEASURE(0.0508),#585,
'DISTANCE_ACCURACY_VALUE','Maximum Tolerance applied to model');
#580=(
NAMED_UNIT(*)
SI_UNIT($,.STERADIAN.)
SOLID_ANGLE_UNIT()
);
#581=(
CONVERSION_BASED_UNIT('DEGREE',#583)
NAMED_UNIT(#582)
PLANE_ANGLE_UNIT()
);
#582=DIMENSIONAL_EXPONENTS(0.,0.,0.,0.,0.,0.,0.);
#583=PLANE_ANGLE_MEASURE_WITH_UNIT(PLANE_ANGLE_MEASURE(0.0174532925),#584);
#584=(
NAMED_UNIT(*)
PLANE_ANGLE_UNIT()
SI_UNIT($,.RADIAN.)
);
#585=(
LENGTH_UNIT()
NAMED_UNIT(*)
SI_UNIT(.MILLI.,.METRE.)
);
ENDSEC;
END-ISO-10303-21;
