ISO-10303-21;
HEADER;
FILE_DESCRIPTION(
/* description */ (''),
/* implementation_level */ '2;1');
FILE_NAME(
/* name */ 'VNGG160402-SGF.stp',
/* time_stamp */ '2017-04-13T13:33:43',
/* author */ ('Sandvik Coromant R&D'),
/* organization */ ('Sandvik Machining Solutions'),
/* preprocessor_version */ 'ST-DEVELOPER v15',
/* originating_system */ 'SIEMENS PLM Software NX v8.5.3.3(64 bits)',
/* authorization */ '');
FILE_SCHEMA(('AUTOMOTIVE_DESIGN'));
ENDSEC;
DATA;
#10=GEOMETRICALLY_BOUNDED_WIREFRAME_SHAPE_REPRESENTATION('IsoTurningInsert-None',
     (#25),#447);
#11=SHAPE_REPRESENTATION_RELATIONSHIP('None','relationship between IsoTurningInsert-None and IsoTurningInsert-None',
     #24,#13);
#12=SHAPE_REPRESENTATION_RELATIONSHIP('None','relationship between IsoTurningInsert-None and IsoTurningInsert-None',
     #24,#10);
#13=ADVANCED_BREP_SHAPE_REPRESENTATION('IsoTurningInsert-None',(#31),#447);
#14=SHAPE_DEFINITION_REPRESENTATION(#15,#24);
#15=PRODUCT_DEFINITION_SHAPE('','',#16);
#16=PRODUCT_DEFINITION(' ','',#18,#17);
#17=PRODUCT_DEFINITION_CONTEXT('part definition',#23,'design');
#18=PRODUCT_DEFINITION_FORMATION_WITH_SPECIFIED_SOURCE(' ',' ',#20,.NOT_KNOWN.);
#19=PRODUCT_RELATED_PRODUCT_CATEGORY('part','',(#20));
#20=PRODUCT('IsoTurningInsert','IsoTurningInsert',' ',(#21));
#21=PRODUCT_CONTEXT(' ',#23,'mechanical');
#22=APPLICATION_PROTOCOL_DEFINITION('international standard','automotive_design',
     2010,#23);
#23=APPLICATION_CONTEXT('core data for automotive mechanical design processes');
#24=SHAPE_REPRESENTATION('IsoTurningInsert-None',(#248),#447);
#25=GEOMETRIC_CURVE_SET('geometric curve set',(#228));
#26=SURFACE_STYLE_USAGE(.BOTH.,#27);
#27=SURFACE_SIDE_STYLE('',(#28));
#28=SURFACE_STYLE_FILL_AREA(#29);
#29=FILL_AREA_STYLE('',(#30));
#30=FILL_AREA_STYLE_COLOUR('',#247);
#31=MANIFOLD_SOLID_BREP('CUT',#32);
#32=CLOSED_SHELL('',(#46,#47,#48,#49,#50,#51,#52,#53,#54,#55,#56));
#33=CYLINDRICAL_SURFACE('',#267,0.198437500000003);
#34=CYLINDRICAL_SURFACE('',#268,0.198437500000003);
#35=CYLINDRICAL_SURFACE('',#269,0.198437500000003);
#36=CYLINDRICAL_SURFACE('',#270,0.198437500000003);
#37=CYLINDRICAL_SURFACE('',#271,1.905);
#38=FACE_OUTER_BOUND('',#103,.T.);
#39=FACE_OUTER_BOUND('',#104,.T.);
#40=FACE_OUTER_BOUND('',#105,.T.);
#41=FACE_OUTER_BOUND('',#106,.T.);
#42=FACE_OUTER_BOUND('',#109,.T.);
#43=FACE_OUTER_BOUND('',#110,.T.);
#44=FACE_OUTER_BOUND('',#111,.T.);
#45=FACE_OUTER_BOUND('',#112,.T.);
#46=ADVANCED_FACE('',(#95,#96),#57,.F.);
#47=ADVANCED_FACE('',(#38),#58,.T.);
#48=ADVANCED_FACE('',(#39),#59,.T.);
#49=ADVANCED_FACE('',(#40),#60,.T.);
#50=ADVANCED_FACE('',(#41),#61,.T.);
#51=ADVANCED_FACE('',(#97,#98),#62,.T.);
#52=ADVANCED_FACE('',(#42),#33,.T.);
#53=ADVANCED_FACE('',(#43),#34,.T.);
#54=ADVANCED_FACE('',(#44),#35,.T.);
#55=ADVANCED_FACE('',(#45),#36,.T.);
#56=ADVANCED_FACE('',(#99,#100),#37,.F.);
#57=PLANE('',#256);
#58=PLANE('',#257);
#59=PLANE('',#258);
#60=PLANE('',#259);
#61=PLANE('',#260);
#62=PLANE('',#266);
#63=LINE('',#393,#79);
#64=LINE('',#398,#80);
#65=LINE('',#402,#81);
#66=LINE('',#406,#82);
#67=LINE('',#410,#83);
#68=LINE('',#413,#84);
#69=LINE('',#414,#85);
#70=LINE('',#416,#86);
#71=LINE('',#418,#87);
#72=LINE('',#420,#88);
#73=LINE('',#422,#89);
#74=LINE('',#424,#90);
#75=LINE('',#426,#91);
#76=LINE('',#428,#92);
#77=LINE('',#430,#93);
#78=LINE('',#432,#94);
#79=VECTOR('',#280,1.0);
#80=VECTOR('',#283,1.0);
#81=VECTOR('',#286,1.0);
#82=VECTOR('',#289,1.0);
#83=VECTOR('',#294,1.0);
#84=VECTOR('',#295,1.0);
#85=VECTOR('',#296,1.0);
#86=VECTOR('',#299,1.0);
#87=VECTOR('',#300,1.0);
#88=VECTOR('',#301,1.0);
#89=VECTOR('',#304,1.0);
#90=VECTOR('',#305,1.0);
#91=VECTOR('',#306,1.0);
#92=VECTOR('',#309,1.0);
#93=VECTOR('',#310,1.0);
#94=VECTOR('',#311,1.0);
#95=FACE_BOUND('',#101,.T.);
#96=FACE_BOUND('',#102,.T.);
#97=FACE_BOUND('',#107,.T.);
#98=FACE_BOUND('',#108,.T.);
#99=FACE_BOUND('',#113,.T.);
#100=FACE_BOUND('',#114,.T.);
#101=EDGE_LOOP('',(#115));
#102=EDGE_LOOP('',(#116,#117,#118,#119,#120,#121,#122,#123));
#103=EDGE_LOOP('',(#124,#125,#126,#127));
#104=EDGE_LOOP('',(#128,#129,#130,#131));
#105=EDGE_LOOP('',(#132,#133,#134,#135));
#106=EDGE_LOOP('',(#136,#137,#138,#139));
#107=EDGE_LOOP('',(#140));
#108=EDGE_LOOP('',(#141,#142,#143,#144,#145,#146,#147,#148));
#109=EDGE_LOOP('',(#149,#150,#151,#152));
#110=EDGE_LOOP('',(#153,#154,#155,#156));
#111=EDGE_LOOP('',(#157,#158,#159,#160));
#112=EDGE_LOOP('',(#161,#162,#163,#164));
#113=EDGE_LOOP('',(#165));
#114=EDGE_LOOP('',(#166));
#115=ORIENTED_EDGE('',*,*,#185,.T.);
#116=ORIENTED_EDGE('',*,*,#186,.T.);
#117=ORIENTED_EDGE('',*,*,#187,.T.);
#118=ORIENTED_EDGE('',*,*,#188,.T.);
#119=ORIENTED_EDGE('',*,*,#189,.T.);
#120=ORIENTED_EDGE('',*,*,#190,.T.);
#121=ORIENTED_EDGE('',*,*,#191,.T.);
#122=ORIENTED_EDGE('',*,*,#192,.T.);
#123=ORIENTED_EDGE('',*,*,#193,.T.);
#124=ORIENTED_EDGE('',*,*,#194,.F.);
#125=ORIENTED_EDGE('',*,*,#195,.T.);
#126=ORIENTED_EDGE('',*,*,#186,.F.);
#127=ORIENTED_EDGE('',*,*,#196,.T.);
#128=ORIENTED_EDGE('',*,*,#192,.F.);
#129=ORIENTED_EDGE('',*,*,#197,.T.);
#130=ORIENTED_EDGE('',*,*,#198,.F.);
#131=ORIENTED_EDGE('',*,*,#199,.T.);
#132=ORIENTED_EDGE('',*,*,#190,.F.);
#133=ORIENTED_EDGE('',*,*,#200,.T.);
#134=ORIENTED_EDGE('',*,*,#201,.F.);
#135=ORIENTED_EDGE('',*,*,#202,.T.);
#136=ORIENTED_EDGE('',*,*,#188,.F.);
#137=ORIENTED_EDGE('',*,*,#203,.T.);
#138=ORIENTED_EDGE('',*,*,#204,.F.);
#139=ORIENTED_EDGE('',*,*,#205,.T.);
#140=ORIENTED_EDGE('',*,*,#206,.F.);
#141=ORIENTED_EDGE('',*,*,#204,.T.);
#142=ORIENTED_EDGE('',*,*,#207,.T.);
#143=ORIENTED_EDGE('',*,*,#194,.T.);
#144=ORIENTED_EDGE('',*,*,#208,.T.);
#145=ORIENTED_EDGE('',*,*,#198,.T.);
#146=ORIENTED_EDGE('',*,*,#209,.T.);
#147=ORIENTED_EDGE('',*,*,#201,.T.);
#148=ORIENTED_EDGE('',*,*,#210,.T.);
#149=ORIENTED_EDGE('',*,*,#187,.F.);
#150=ORIENTED_EDGE('',*,*,#195,.F.);
#151=ORIENTED_EDGE('',*,*,#207,.F.);
#152=ORIENTED_EDGE('',*,*,#203,.F.);
#153=ORIENTED_EDGE('',*,*,#189,.F.);
#154=ORIENTED_EDGE('',*,*,#205,.F.);
#155=ORIENTED_EDGE('',*,*,#210,.F.);
#156=ORIENTED_EDGE('',*,*,#200,.F.);
#157=ORIENTED_EDGE('',*,*,#191,.F.);
#158=ORIENTED_EDGE('',*,*,#202,.F.);
#159=ORIENTED_EDGE('',*,*,#209,.F.);
#160=ORIENTED_EDGE('',*,*,#197,.F.);
#161=ORIENTED_EDGE('',*,*,#193,.F.);
#162=ORIENTED_EDGE('',*,*,#199,.F.);
#163=ORIENTED_EDGE('',*,*,#208,.F.);
#164=ORIENTED_EDGE('',*,*,#196,.F.);
#165=ORIENTED_EDGE('',*,*,#185,.F.);
#166=ORIENTED_EDGE('',*,*,#206,.T.);
#167=VERTEX_POINT('',#392);
#168=VERTEX_POINT('',#394);
#169=VERTEX_POINT('',#395);
#170=VERTEX_POINT('',#397);
#171=VERTEX_POINT('',#399);
#172=VERTEX_POINT('',#401);
#173=VERTEX_POINT('',#403);
#174=VERTEX_POINT('',#405);
#175=VERTEX_POINT('',#407);
#176=VERTEX_POINT('',#411);
#177=VERTEX_POINT('',#412);
#178=VERTEX_POINT('',#417);
#179=VERTEX_POINT('',#419);
#180=VERTEX_POINT('',#423);
#181=VERTEX_POINT('',#425);
#182=VERTEX_POINT('',#429);
#183=VERTEX_POINT('',#431);
#184=VERTEX_POINT('',#435);
#185=EDGE_CURVE('',#167,#167,#211,.T.);
#186=EDGE_CURVE('',#168,#169,#63,.T.);
#187=EDGE_CURVE('',#169,#170,#212,.T.);
#188=EDGE_CURVE('',#170,#171,#64,.T.);
#189=EDGE_CURVE('',#171,#172,#213,.T.);
#190=EDGE_CURVE('',#172,#173,#65,.T.);
#191=EDGE_CURVE('',#173,#174,#214,.T.);
#192=EDGE_CURVE('',#174,#175,#66,.T.);
#193=EDGE_CURVE('',#175,#168,#215,.T.);
#194=EDGE_CURVE('',#176,#177,#67,.T.);
#195=EDGE_CURVE('',#176,#169,#68,.T.);
#196=EDGE_CURVE('',#168,#177,#69,.T.);
#197=EDGE_CURVE('',#174,#178,#70,.T.);
#198=EDGE_CURVE('',#179,#178,#71,.T.);
#199=EDGE_CURVE('',#179,#175,#72,.T.);
#200=EDGE_CURVE('',#172,#180,#73,.T.);
#201=EDGE_CURVE('',#181,#180,#74,.T.);
#202=EDGE_CURVE('',#181,#173,#75,.T.);
#203=EDGE_CURVE('',#170,#182,#76,.T.);
#204=EDGE_CURVE('',#183,#182,#77,.T.);
#205=EDGE_CURVE('',#183,#171,#78,.T.);
#206=EDGE_CURVE('',#184,#184,#216,.T.);
#207=EDGE_CURVE('',#182,#176,#217,.T.);
#208=EDGE_CURVE('',#177,#179,#218,.T.);
#209=EDGE_CURVE('',#178,#181,#219,.T.);
#210=EDGE_CURVE('',#180,#183,#220,.T.);
#211=CIRCLE('',#251,1.905);
#212=CIRCLE('',#252,0.198437500000003);
#213=CIRCLE('',#253,0.198437500000003);
#214=CIRCLE('',#254,0.198437500000003);
#215=CIRCLE('',#255,0.198437500000003);
#216=CIRCLE('',#261,1.905);
#217=CIRCLE('',#262,0.198437500000003);
#218=CIRCLE('',#263,0.198437500000003);
#219=CIRCLE('',#264,0.198437500000003);
#220=CIRCLE('',#265,0.198437500000003);
#221=CURVE_STYLE('',#225,POSITIVE_LENGTH_MEASURE(0.18),#224);
#222=CURVE_STYLE('',#226,POSITIVE_LENGTH_MEASURE(0.18),#246);
#223=CURVE_STYLE('',#227,POSITIVE_LENGTH_MEASURE(0.18),#246);
#224=DRAUGHTING_PRE_DEFINED_COLOUR('blue');
#225=DRAUGHTING_PRE_DEFINED_CURVE_FONT('continuous');
#226=DRAUGHTING_PRE_DEFINED_CURVE_FONT('continuous');
#227=DRAUGHTING_PRE_DEFINED_CURVE_FONT('continuous');
#228=B_SPLINE_CURVE_WITH_KNOTS('CUTTING EDGE LINE',5,(#339,#340,#341,#342,#343,#344,
     #345,#346,#347,#348,#349,#350,#351,#352,#353,#354,#355,#356,#357,#358,#359,
     #360,#361,#362,#363,#364,#365,#366,#367,#368,#369,#370,#371,#372,#373,#374,
     #375,#376,#377,#378,#379,#380,#381,#382,#383,#384,#385,#386,#387,#388),.UNSPECIFIED.,
     .T.,.F.,(2,4,1,4,4,1,1,1,1,1,1,1,4,4,1,4,4,1,1,1,1,1,1,1,4,4,1,1),(-0.2451974782,
     0.0,9.33823650000054E-4,0.0018676473,0.2470651255,0.2480323000375,0.248999474575024,
     0.2499666491125,0.250933823650018,0.2519009981875,0.252868172725023,0.2538353472625,
     0.2548025218,0.5,0.50093382365,0.5018676473,0.7470651255,0.7480323000375,0.748999474575024,
     0.7499666491125,0.750933823650018,0.7519009981875,0.752868172725023,0.7538353472625,
     0.7548025218,1.0,1.00093382365,1.0018676473),.UNSPECIFIED.);
#229=PRESENTATION_LAYER_ASSIGNMENT('1','Layer 1',(#228,#249,#250,#31));
#232=STYLED_ITEM('',(#238),#228);
#233=STYLED_ITEM('',(#239),#249);
#234=STYLED_ITEM('',(#240),#250);
#235=STYLED_ITEM('',(#241),#31);
#236=PRESENTATION_STYLE_ASSIGNMENT((#242));
#237=PRESENTATION_STYLE_ASSIGNMENT((#243));
#238=PRESENTATION_STYLE_ASSIGNMENT((#221));
#239=PRESENTATION_STYLE_ASSIGNMENT((#222));
#240=PRESENTATION_STYLE_ASSIGNMENT((#223));
#241=PRESENTATION_STYLE_ASSIGNMENT((#26));
#242=POINT_STYLE('',#244,POSITIVE_LENGTH_MEASURE(3.0),#246);
#243=POINT_STYLE('',#245,POSITIVE_LENGTH_MEASURE(3.0),#246);
#244=PRE_DEFINED_POINT_MARKER_SYMBOL('plus');
#245=PRE_DEFINED_POINT_MARKER_SYMBOL('plus');
#246=COLOUR_RGB('Medium Maroon',0.6,0.4,0.4);
#247=COLOUR_RGB('IsoInsertColor',0.8,0.8,0.8);
#248=AXIS2_PLACEMENT_3D('',#336,#272,#273);
#249=AXIS2_PLACEMENT_3D('PCS',#389,#274,#275);
#250=AXIS2_PLACEMENT_3D('MCS',#390,#276,#277);
#251=AXIS2_PLACEMENT_3D('',#391,#278,#279);
#252=AXIS2_PLACEMENT_3D('',#396,#281,#282);
#253=AXIS2_PLACEMENT_3D('',#400,#284,#285);
#254=AXIS2_PLACEMENT_3D('',#404,#287,#288);
#255=AXIS2_PLACEMENT_3D('',#408,#290,#291);
#256=AXIS2_PLACEMENT_3D('',#409,#292,#293);
#257=AXIS2_PLACEMENT_3D('',#415,#297,#298);
#258=AXIS2_PLACEMENT_3D('',#421,#302,#303);
#259=AXIS2_PLACEMENT_3D('',#427,#307,#308);
#260=AXIS2_PLACEMENT_3D('',#433,#312,#313);
#261=AXIS2_PLACEMENT_3D('',#434,#314,#315);
#262=AXIS2_PLACEMENT_3D('',#436,#316,#317);
#263=AXIS2_PLACEMENT_3D('',#437,#318,#319);
#264=AXIS2_PLACEMENT_3D('',#438,#320,#321);
#265=AXIS2_PLACEMENT_3D('',#439,#322,#323);
#266=AXIS2_PLACEMENT_3D('',#440,#324,#325);
#267=AXIS2_PLACEMENT_3D('',#441,#326,#327);
#268=AXIS2_PLACEMENT_3D('',#442,#328,#329);
#269=AXIS2_PLACEMENT_3D('',#443,#330,#331);
#270=AXIS2_PLACEMENT_3D('',#444,#332,#333);
#271=AXIS2_PLACEMENT_3D('',#445,#334,#335);
#272=DIRECTION('',(0.0,0.0,1.0));
#273=DIRECTION('',(1.0,0.0,0.0));
#274=DIRECTION('',(0.0,0.0,1.0));
#275=DIRECTION('',(1.0,0.0,0.0));
#276=DIRECTION('',(0.0,0.0,1.0));
#277=DIRECTION('',(1.0,0.0,0.0));
#278=DIRECTION('',(0.0,0.0,1.0));
#279=DIRECTION('',(-0.953716950748227,-0.300705799504273,0.0));
#280=DIRECTION('',(1.0,9.43689570931383E-16,0.0));
#281=DIRECTION('',(0.0,0.0,-1.0));
#282=DIRECTION('',(-0.953716950748223,-0.300705799504277,0.0));
#283=DIRECTION('',(-0.819152044288991,-0.573576436351047,0.0));
#284=DIRECTION('',(0.0,0.0,-1.0));
#285=DIRECTION('',(-0.953716950748223,-0.300705799504273,0.0));
#286=DIRECTION('',(-1.0,1.66533453693773E-16,0.0));
#287=DIRECTION('',(0.0,0.0,-1.0));
#288=DIRECTION('',(-0.953716950748227,-0.300705799504273,0.0));
#289=DIRECTION('',(0.819152044288992,0.573576436351046,0.0));
#290=DIRECTION('',(0.0,0.0,-1.0));
#291=DIRECTION('',(-0.953716950748223,-0.300705799504277,0.0));
#292=DIRECTION('',(0.0,0.0,1.0));
#293=DIRECTION('',(-0.953716950748227,-0.300705799504273,0.0));
#294=DIRECTION('',(-1.0,-9.43689570931383E-16,-8.02264902071657E-17));
#295=DIRECTION('',(8.02264902071663E-17,-6.05579448138538E-16,-1.0));
#296=DIRECTION('',(-8.02264902071663E-17,6.05579448138538E-16,1.0));
#297=DIRECTION('',(-9.43689570931383E-16,1.0,-6.05579448138538E-16));
#298=DIRECTION('',(-1.0,-9.43689570931383E-16,0.0));
#299=DIRECTION('',(-8.02264902071663E-17,6.05579448138538E-16,1.0));
#300=DIRECTION('',(-0.819152044288992,-0.573576436351046,2.81628408331405E-16));
#301=DIRECTION('',(8.02264902071663E-17,-6.05579448138538E-16,-1.0));
#302=DIRECTION('',(-0.573576436351046,0.819152044288992,-5.42077667276061E-16));
#303=DIRECTION('',(-0.819152044288992,-0.573576436351046,0.0));
#304=DIRECTION('',(-8.02264902071663E-17,6.05579448138538E-16,1.0));
#305=DIRECTION('',(1.0,-1.66533453693773E-16,8.02264902071664E-17));
#306=DIRECTION('',(8.02264902071663E-17,-6.05579448138538E-16,-1.0));
#307=DIRECTION('',(-1.66533453693773E-16,-1.0,6.05579448138537E-16));
#308=DIRECTION('',(1.0,-1.66533453693773E-16,0.0));
#309=DIRECTION('',(-8.02264902071663E-17,6.05579448138538E-16,1.0));
#310=DIRECTION('',(0.819152044288991,0.573576436351047,-2.81628408331405E-16));
#311=DIRECTION('',(8.02264902071663E-17,-6.05579448138538E-16,-1.0));
#312=DIRECTION('',(0.573576436351047,-0.819152044288991,5.4207766727606E-16));
#313=DIRECTION('',(0.819152044288991,0.573576436351047,0.0));
#314=DIRECTION('',(0.0,0.0,1.0));
#315=DIRECTION('',(-0.953716950748227,-0.300705799504274,0.0));
#316=DIRECTION('',(-8.02264902071663E-17,6.05579448138538E-16,1.0));
#317=DIRECTION('',(-0.300705799504268,0.953716950748223,-6.01675955593646E-16));
#318=DIRECTION('',(-8.02264902071663E-17,6.05579448138538E-16,1.0));
#319=DIRECTION('',(-0.300705799504277,0.953716950748223,-6.01675955593646E-16));
#320=DIRECTION('',(-8.02264902071663E-17,6.05579448138538E-16,1.0));
#321=DIRECTION('',(-0.300705799504274,0.953716950748227,-6.01675955593648E-16));
#322=DIRECTION('',(-8.02264902071663E-17,6.05579448138538E-16,1.0));
#323=DIRECTION('',(-0.300705799504268,0.953716950748227,-6.01675955593648E-16));
#324=DIRECTION('',(-8.02264902071663E-17,6.05579448138538E-16,1.0));
#325=DIRECTION('',(-0.300705799504273,0.953716950748227,-6.01675955593648E-16));
#326=DIRECTION('',(-8.02264902071663E-17,6.05579448138538E-16,1.0));
#327=DIRECTION('',(-0.300705799504268,0.953716950748223,-6.01675955593646E-16));
#328=DIRECTION('',(-8.02264902071663E-17,6.05579448138538E-16,1.0));
#329=DIRECTION('',(-0.300705799504268,0.953716950748227,-6.01675955593648E-16));
#330=DIRECTION('',(-8.02264902071663E-17,6.05579448138538E-16,1.0));
#331=DIRECTION('',(-0.300705799504274,0.953716950748227,-6.01675955593648E-16));
#332=DIRECTION('',(-8.02264902071663E-17,6.05579448138538E-16,1.0));
#333=DIRECTION('',(-0.300705799504277,0.953716950748223,-6.01675955593646E-16));
#334=DIRECTION('',(0.0,0.0,1.0));
#335=DIRECTION('',(-0.953716950748227,-0.300705799504273,0.0));
#336=CARTESIAN_POINT('',(0.0,0.0,0.0));
#339=CARTESIAN_POINT('',(13.360883568617,-3.5527136788005E-15,0.0));
#340=CARTESIAN_POINT('',(16.5556978862906,-3.5527136788005E-15,1.2112711564676E-16));
#341=CARTESIAN_POINT('',(16.5795664091262,0.00179435081056578,1.21955381486661E-16));
#342=CARTESIAN_POINT('',(16.604047725575,0.00724075954752923,1.20997359963085E-16));
#343=CARTESIAN_POINT('',(16.6272255777052,0.0168212289424954,1.10542202662259E-16));
#344=CARTESIAN_POINT('',(16.6478067243237,0.0290418050768819,7.81611430277248E-17));
#345=CARTESIAN_POINT('',(19.2648454037697,1.8615120162114,1.07568537100094E-17));
#346=CARTESIAN_POINT('',(21.8721081085783,3.6871370162114,-8.62816615085482E-33));
#347=CARTESIAN_POINT('',(24.4793708133869,5.5127620162114,-1.97215226305253E-32));
#348=CARTESIAN_POINT('',(27.0866335181954,7.3383870162114,1.07568537100095E-17));
#349=CARTESIAN_POINT('',(29.703507989945,9.17074224787903,6.12365506072986E-17));
#350=CARTESIAN_POINT('',(29.7217366110971,9.18562359384698,7.05457592731546E-17));
#351=CARTESIAN_POINT('',(29.7483176259947,9.21445815225714,7.24208380741575E-17));
#352=CARTESIAN_POINT('',(29.7729652240734,9.26045835496508,5.41990799602682E-17));
#353=CARTESIAN_POINT('',(29.7838373679129,9.32771440640154,1.59501734378971E-17));
#354=CARTESIAN_POINT('',(29.7731496985447,9.38743804106413,-2.13578427306278E-17));
#355=CARTESIAN_POINT('',(29.7476484552201,9.44249097380034,-5.71118597330864E-17));
#356=CARTESIAN_POINT('',(29.7001660300621,9.49134790030542,-8.86892111527651E-17));
#357=CARTESIAN_POINT('',(29.6535912673687,9.51489177892053,-9.81375080300326E-17));
#358=CARTESIAN_POINT('',(29.6152785514195,9.52326542258864,-8.70608281006286E-17));
#359=CARTESIAN_POINT('',(29.5918109497503,9.52500000000001,-7.1160441386236E-17));
#360=CARTESIAN_POINT('',(26.3971970926598,9.525,-1.20169671739992E-17));
#361=CARTESIAN_POINT('',(23.2143170364041,9.525,1.4791141972894E-32));
#362=CARTESIAN_POINT('',(20.0314369801483,9.525,0.0));
#363=CARTESIAN_POINT('',(16.8485569238926,9.525,-1.20169671739993E-17));
#364=CARTESIAN_POINT('',(13.653742606219,9.52499999999999,-8.45200322411908E-17));
#365=CARTESIAN_POINT('',(13.6298740833833,9.52320564918942,-1.1509975417755E-16));
#366=CARTESIAN_POINT('',(13.6053927669345,9.51775924045246,-1.21417587054862E-16));
#367=CARTESIAN_POINT('',(13.5822149148043,9.50817877105749,-1.10542202662259E-16));
#368=CARTESIAN_POINT('',(13.5616337681859,9.4959581949231,-7.81611430277249E-17));
#369=CARTESIAN_POINT('',(10.9445950887398,7.66348798378859,-1.07568537100095E-17));
#370=CARTESIAN_POINT('',(8.33733238393125,5.83786298378859,0.0));
#371=CARTESIAN_POINT('',(5.73006967912268,4.01223798378859,-3.94430452610506E-32));
#372=CARTESIAN_POINT('',(3.12280697431411,2.1866129837886,-1.07568537100095E-17));
#373=CARTESIAN_POINT('',(0.505932502564509,0.35425775212097,-6.12365506072982E-17));
#374=CARTESIAN_POINT('',(0.48770388141241,0.339376406153015,-7.05457592731541E-17));
#375=CARTESIAN_POINT('',(0.46112286651482,0.310541847742866,-7.24208380741566E-17));
#376=CARTESIAN_POINT('',(0.436475268436103,0.26454164503491,-5.4199079960267E-17));
#377=CARTESIAN_POINT('',(0.425603124596602,0.197285593598458,-1.59501734378957E-17));
#378=CARTESIAN_POINT('',(0.436290793964849,0.137561958935871,2.13578427306293E-17));
#379=CARTESIAN_POINT('',(0.461792037289447,0.0825090261996486,5.71118597330879E-17));
#380=CARTESIAN_POINT('',(0.509274462447525,0.0336520996945913,8.86892111527666E-17));
#381=CARTESIAN_POINT('',(0.555849225140836,0.0101082210794674,9.81375080300336E-17));
#382=CARTESIAN_POINT('',(0.594161941090093,0.00173457741136573,8.70608281006296E-17));
#383=CARTESIAN_POINT('',(0.617629542759246,0.0,7.11604413862363E-17));
#384=CARTESIAN_POINT('',(3.81224339984972,-1.77635683940025E-15,1.20169671739992E-17));
#385=CARTESIAN_POINT('',(6.99512345610548,-1.77635683940025E-15,2.46519032881566E-33));
#386=CARTESIAN_POINT('',(10.1780035123612,-2.66453525910038E-15,0.0));
#387=CARTESIAN_POINT('',(13.360883568617,-3.5527136788005E-15,0.0));
#388=CARTESIAN_POINT('',(16.5556978862906,-3.5527136788005E-15,1.2112711564676E-16));
#389=CARTESIAN_POINT('',(0.0,0.0,0.0));
#390=CARTESIAN_POINT('',(15.1047202462548,4.7625,0.0));
#391=CARTESIAN_POINT('',(15.1047202462548,4.7625,-4.7625));
#392=CARTESIAN_POINT('',(13.2878894550794,4.18965545194436,-4.7625));
#393=CARTESIAN_POINT('',(15.1047202462548,9.52499999999999,-4.7625));
#394=CARTESIAN_POINT('',(13.6656768676368,9.52499999999999,-4.7625));
#395=CARTESIAN_POINT('',(29.5800771489156,9.525,-4.7625));
#396=CARTESIAN_POINT('',(29.5800771489156,9.3265625,-4.7625));
#397=CARTESIAN_POINT('',(29.693896223004,9.1640120162114,-4.7625));
#398=CARTESIAN_POINT('',(17.8363780243766,0.861288389073673,-4.7625));
#399=CARTESIAN_POINT('',(16.6575826989612,0.0358870162113986,-4.7625));
#400=CARTESIAN_POINT('',(16.5437636248728,0.198437499999995,-4.7625));
#401=CARTESIAN_POINT('',(16.5437636248728,-6.07153216591882E-15,-4.7625));
#402=CARTESIAN_POINT('',(15.1047202462548,-6.07153216591882E-15,-4.7625));
#403=CARTESIAN_POINT('',(0.629363343593956,-3.46944695195361E-15,-4.7625));
#404=CARTESIAN_POINT('',(0.62936334359396,0.198437499999997,-4.7625));
#405=CARTESIAN_POINT('',(0.515544269505544,0.360987983788597,-4.7625));
#406=CARTESIAN_POINT('',(12.3730624681329,8.66371161092631,-4.7625));
#407=CARTESIAN_POINT('',(13.5518577935484,9.48911298378858,-4.7625));
#408=CARTESIAN_POINT('',(13.6656768676368,9.32656249999998,-4.7625));
#409=CARTESIAN_POINT('',(14.8598410645383,4.29209146865531,-4.7625));
#410=CARTESIAN_POINT('',(15.1047202462548,9.52499999999999,-5.81748951963656E-15));
#411=CARTESIAN_POINT('',(29.5800771489156,9.52500000000001,-4.65618244084001E-15));
#412=CARTESIAN_POINT('',(13.6656768676368,9.52499999999999,-5.93293891915894E-15));
#413=CARTESIAN_POINT('',(29.5800771489156,9.52500000000001,-4.33680868994202E-15));
#414=CARTESIAN_POINT('',(13.6656768676368,9.52499999999999,-5.20417042793042E-15));
#415=CARTESIAN_POINT('',(15.1047202462548,9.52499999999999,-5.81748951963656E-15));
#416=CARTESIAN_POINT('',(0.515544269505544,0.360987983788599,-8.67361737988404E-16));
#417=CARTESIAN_POINT('',(0.515544269505544,0.360987983788599,-1.43839056375364E-15));
#418=CARTESIAN_POINT('',(12.3730624681329,8.66371161092632,-5.51506228827902E-15));
#419=CARTESIAN_POINT('',(13.5518577935484,9.48911298378859,-5.92033778451904E-15));
#420=CARTESIAN_POINT('',(13.5518577935484,9.48911298378859,-5.20417042793042E-15));
#421=CARTESIAN_POINT('',(12.3730624681329,8.66371161092631,-5.51506228827901E-15));
#422=CARTESIAN_POINT('',(16.5437636248728,-3.46944695195361E-15,-2.58796836277035E-31));
#423=CARTESIAN_POINT('',(16.5437636248728,-3.46944695195361E-15,6.61041234053907E-17));
#424=CARTESIAN_POINT('',(15.1047202462548,-3.46944695195361E-15,-4.93452761169929E-17));
#425=CARTESIAN_POINT('',(0.629363343593956,-8.67361737988404E-16,-1.21065235491355E-15));
#426=CARTESIAN_POINT('',(0.629363343593956,-8.67361737988404E-16,-8.67361737988405E-16));
#427=CARTESIAN_POINT('',(15.1047202462548,-3.46944695195361E-15,-4.93452761169941E-17));
#428=CARTESIAN_POINT('',(29.693896223004,9.1640120162114,-4.33680868994202E-15));
#429=CARTESIAN_POINT('',(29.693896223004,9.1640120162114,-4.42844423199992E-15));
#430=CARTESIAN_POINT('',(17.8363780243767,0.861288389073683,-3.51772507474542E-16));
#431=CARTESIAN_POINT('',(16.6575826989612,0.0358870162114012,5.35029887654918E-17));
#432=CARTESIAN_POINT('',(16.6575826989612,0.0358870162114012,-9.62964972193618E-32));
#433=CARTESIAN_POINT('',(17.8363780243766,0.861288389073675,-3.51772507474539E-16));
#434=CARTESIAN_POINT('',(15.1047202462548,4.7625,-6.93889390390723E-15));
#435=CARTESIAN_POINT('',(13.2878894550794,4.18965545194436,-6.93889390390723E-15));
#436=CARTESIAN_POINT('',(29.5800771489156,9.3265625,-4.53601276910002E-15));
#437=CARTESIAN_POINT('',(13.6656768676368,9.32656249999999,-5.81276924741895E-15));
#438=CARTESIAN_POINT('',(0.629363343593958,0.1984375,-1.33082202665354E-15));
#439=CARTESIAN_POINT('',(16.5437636248728,0.198437499999999,-5.40655483346018E-17));
#440=CARTESIAN_POINT('',(15.1047202462548,4.7625,-2.93341739787678E-15));
#441=CARTESIAN_POINT('',(29.5800771489156,9.3265625,-4.33680868994202E-15));
#442=CARTESIAN_POINT('',(16.5437636248728,0.198437499999999,0.0));
#443=CARTESIAN_POINT('',(0.629363343593958,0.1984375,-8.67361737988404E-16));
#444=CARTESIAN_POINT('',(13.6656768676368,9.32656249999999,-5.20417042793042E-15));
#445=CARTESIAN_POINT('',(15.1047202462548,4.7625,-33.3676978394524));
#446=MECHANICAL_DESIGN_GEOMETRIC_PRESENTATION_REPRESENTATION('',(#232,#233,#234,
     #235),#447);
#447=(GEOMETRIC_REPRESENTATION_CONTEXT(3)GLOBAL_UNCERTAINTY_ASSIGNED_CONTEXT((#448))
     GLOBAL_UNIT_ASSIGNED_CONTEXT((#454,#450,#449))REPRESENTATION_CONTEXT('VNGG160402-SGF',
     'TOP_LEVEL_ASSEMBLY_PART'));
#448=UNCERTAINTY_MEASURE_WITH_UNIT(LENGTH_MEASURE(2.0E-5),#454,'DISTANCE_ACCURACY_VALUE',
     'Maximum Tolerance applied to model');
#449=(NAMED_UNIT(*)SI_UNIT($,.STERADIAN.)SOLID_ANGLE_UNIT());
#450=(CONVERSION_BASED_UNIT('DEGREE',#452)NAMED_UNIT(#451)PLANE_ANGLE_UNIT());
#451=DIMENSIONAL_EXPONENTS(0.0,0.0,0.0,0.0,0.0,0.0,0.0);
#452=PLANE_ANGLE_MEASURE_WITH_UNIT(PLANE_ANGLE_MEASURE(0.0174532925),#453);
#453=(NAMED_UNIT(*)PLANE_ANGLE_UNIT()SI_UNIT($,.RADIAN.));
#454=(LENGTH_UNIT()NAMED_UNIT(*)SI_UNIT(.MILLI.,.METRE.));
#455=CONSTRUCTIVE_GEOMETRY_REPRESENTATION('supplemental geometry',(#249,#250),#447);
#456=CONSTRUCTIVE_GEOMETRY_REPRESENTATION_RELATIONSHIP('supplemental geometry','contains PCS and MCS coordinate systems',
     #24,#455);
ENDSEC;
END-ISO-10303-21;
