ISO-10303-21;
HEADER;
FILE_DESCRIPTION(
/* description */ (''),
/* implementation_level */ '2;1');
FILE_NAME(
/* name */ 'TCMW110204S01020E.stp',
/* time_stamp */ '2017-04-13T13:33:42',
/* author */ ('Sandvik Coromant R&D'),
/* organization */ ('Sandvik Machining Solutions'),
/* preprocessor_version */ 'ST-DEVELOPER v15',
/* originating_system */ 'SIEMENS PLM Software NX v8.5.3.3(64 bits)',
/* authorization */ '');
FILE_SCHEMA(('AUTOMOTIVE_DESIGN'));
ENDSEC;
DATA;
#10=GEOMETRICALLY_BOUNDED_WIREFRAME_SHAPE_REPRESENTATION('IsoTurningInsert-None',
     (#25),#409);
#11=SHAPE_REPRESENTATION_RELATIONSHIP('None','relationship between IsoTurningInsert-None and IsoTurningInsert-None',
     #24,#13);
#12=SHAPE_REPRESENTATION_RELATIONSHIP('None','relationship between IsoTurningInsert-None and IsoTurningInsert-None',
     #24,#10);
#13=ADVANCED_BREP_SHAPE_REPRESENTATION('IsoTurningInsert-None',(#31),#409);
#14=SHAPE_DEFINITION_REPRESENTATION(#15,#24);
#15=PRODUCT_DEFINITION_SHAPE('','',#16);
#16=PRODUCT_DEFINITION(' ','',#18,#17);
#17=PRODUCT_DEFINITION_CONTEXT('part definition',#23,'design');
#18=PRODUCT_DEFINITION_FORMATION_WITH_SPECIFIED_SOURCE(' ',' ',#20,.NOT_KNOWN.);
#19=PRODUCT_RELATED_PRODUCT_CATEGORY('part','',(#20));
#20=PRODUCT('IsoTurningInsert','IsoTurningInsert',' ',(#21));
#21=PRODUCT_CONTEXT(' ',#23,'mechanical');
#22=APPLICATION_PROTOCOL_DEFINITION('international standard','automotive_design',
     2010,#23);
#23=APPLICATION_CONTEXT('core data for automotive mechanical design processes');
#24=SHAPE_REPRESENTATION('IsoTurningInsert-None',(#242),#409);
#25=GEOMETRIC_CURVE_SET('geometric curve set',(#221));
#26=SURFACE_STYLE_USAGE(.BOTH.,#27);
#27=SURFACE_SIDE_STYLE('',(#28));
#28=SURFACE_STYLE_FILL_AREA(#29);
#29=FILL_AREA_STYLE('',(#30));
#30=FILL_AREA_STYLE_COLOUR('',#241);
#31=MANIFOLD_SOLID_BREP('CUT',#32);
#32=CLOSED_SHELL('',(#46,#47,#48,#49,#50,#51,#52,#53,#54,#55,#56,#57));
#33=CYLINDRICAL_SURFACE('',#266,1.39999999999999);
#34=TOROIDAL_SURFACE('',#265,3.9,2.5);
#35=TOROIDAL_SURFACE('',#267,1.58153008041326,0.3);
#36=CONICAL_SURFACE('',#258,0.396875000000001,7.0);
#37=CONICAL_SURFACE('',#259,0.396875000000001,7.0);
#38=CONICAL_SURFACE('',#260,0.396875000000001,7.0);
#39=CONICAL_SURFACE('',#262,1.87499999997637,4.00000000217367);
#40=FACE_OUTER_BOUND('',#101,.T.);
#41=FACE_OUTER_BOUND('',#102,.T.);
#42=FACE_OUTER_BOUND('',#103,.T.);
#43=FACE_OUTER_BOUND('',#106,.T.);
#44=FACE_OUTER_BOUND('',#107,.T.);
#45=FACE_OUTER_BOUND('',#108,.T.);
#46=ADVANCED_FACE('',(#87,#88),#58,.F.);
#47=ADVANCED_FACE('',(#40),#59,.F.);
#48=ADVANCED_FACE('',(#41),#60,.F.);
#49=ADVANCED_FACE('',(#42),#61,.F.);
#50=ADVANCED_FACE('',(#89,#90),#62,.T.);
#51=ADVANCED_FACE('',(#43),#36,.T.);
#52=ADVANCED_FACE('',(#44),#37,.T.);
#53=ADVANCED_FACE('',(#45),#38,.T.);
#54=ADVANCED_FACE('',(#91,#92),#39,.F.);
#55=ADVANCED_FACE('',(#93,#94),#34,.T.);
#56=ADVANCED_FACE('',(#95,#96),#33,.F.);
#57=ADVANCED_FACE('',(#97,#98),#35,.F.);
#58=PLANE('',#249);
#59=PLANE('',#250);
#60=PLANE('',#251);
#61=PLANE('',#252);
#62=PLANE('',#257);
#63=LINE('',#358,#75);
#64=LINE('',#363,#76);
#65=LINE('',#367,#77);
#66=LINE('',#371,#78);
#67=LINE('',#373,#79);
#68=LINE('',#375,#80);
#69=LINE('',#377,#81);
#70=LINE('',#379,#82);
#71=LINE('',#381,#83);
#72=LINE('',#383,#84);
#73=LINE('',#386,#85);
#74=LINE('',#387,#86);
#75=VECTOR('',#276,1.0);
#76=VECTOR('',#279,1.0);
#77=VECTOR('',#282,1.0);
#78=VECTOR('',#287,1.0);
#79=VECTOR('',#288,1.0);
#80=VECTOR('',#289,1.0);
#81=VECTOR('',#292,1.0);
#82=VECTOR('',#293,1.0);
#83=VECTOR('',#294,1.0);
#84=VECTOR('',#297,1.0);
#85=VECTOR('',#298,1.0);
#86=VECTOR('',#299,1.0);
#87=FACE_BOUND('',#99,.T.);
#88=FACE_BOUND('',#100,.T.);
#89=FACE_BOUND('',#104,.T.);
#90=FACE_BOUND('',#105,.T.);
#91=FACE_BOUND('',#109,.T.);
#92=FACE_BOUND('',#110,.T.);
#93=FACE_BOUND('',#111,.T.);
#94=FACE_BOUND('',#112,.T.);
#95=FACE_BOUND('',#113,.T.);
#96=FACE_BOUND('',#114,.T.);
#97=FACE_BOUND('',#115,.T.);
#98=FACE_BOUND('',#116,.T.);
#99=EDGE_LOOP('',(#117));
#100=EDGE_LOOP('',(#118,#119,#120,#121,#122,#123));
#101=EDGE_LOOP('',(#124,#125,#126,#127));
#102=EDGE_LOOP('',(#128,#129,#130,#131));
#103=EDGE_LOOP('',(#132,#133,#134,#135));
#104=EDGE_LOOP('',(#136));
#105=EDGE_LOOP('',(#137,#138,#139,#140,#141,#142));
#106=EDGE_LOOP('',(#143,#144,#145,#146));
#107=EDGE_LOOP('',(#147,#148,#149,#150));
#108=EDGE_LOOP('',(#151,#152,#153,#154));
#109=EDGE_LOOP('',(#155));
#110=EDGE_LOOP('',(#156));
#111=EDGE_LOOP('',(#157));
#112=EDGE_LOOP('',(#158));
#113=EDGE_LOOP('',(#159));
#114=EDGE_LOOP('',(#160));
#115=EDGE_LOOP('',(#161));
#116=EDGE_LOOP('',(#162));
#117=ORIENTED_EDGE('',*,*,#180,.T.);
#118=ORIENTED_EDGE('',*,*,#181,.T.);
#119=ORIENTED_EDGE('',*,*,#182,.T.);
#120=ORIENTED_EDGE('',*,*,#183,.T.);
#121=ORIENTED_EDGE('',*,*,#184,.T.);
#122=ORIENTED_EDGE('',*,*,#185,.T.);
#123=ORIENTED_EDGE('',*,*,#186,.T.);
#124=ORIENTED_EDGE('',*,*,#185,.F.);
#125=ORIENTED_EDGE('',*,*,#187,.T.);
#126=ORIENTED_EDGE('',*,*,#188,.F.);
#127=ORIENTED_EDGE('',*,*,#189,.T.);
#128=ORIENTED_EDGE('',*,*,#183,.F.);
#129=ORIENTED_EDGE('',*,*,#190,.T.);
#130=ORIENTED_EDGE('',*,*,#191,.F.);
#131=ORIENTED_EDGE('',*,*,#192,.T.);
#132=ORIENTED_EDGE('',*,*,#193,.F.);
#133=ORIENTED_EDGE('',*,*,#194,.T.);
#134=ORIENTED_EDGE('',*,*,#181,.F.);
#135=ORIENTED_EDGE('',*,*,#195,.T.);
#136=ORIENTED_EDGE('',*,*,#196,.F.);
#137=ORIENTED_EDGE('',*,*,#191,.T.);
#138=ORIENTED_EDGE('',*,*,#197,.T.);
#139=ORIENTED_EDGE('',*,*,#193,.T.);
#140=ORIENTED_EDGE('',*,*,#198,.T.);
#141=ORIENTED_EDGE('',*,*,#188,.T.);
#142=ORIENTED_EDGE('',*,*,#199,.T.);
#143=ORIENTED_EDGE('',*,*,#182,.F.);
#144=ORIENTED_EDGE('',*,*,#194,.F.);
#145=ORIENTED_EDGE('',*,*,#197,.F.);
#146=ORIENTED_EDGE('',*,*,#190,.F.);
#147=ORIENTED_EDGE('',*,*,#184,.F.);
#148=ORIENTED_EDGE('',*,*,#192,.F.);
#149=ORIENTED_EDGE('',*,*,#199,.F.);
#150=ORIENTED_EDGE('',*,*,#187,.F.);
#151=ORIENTED_EDGE('',*,*,#186,.F.);
#152=ORIENTED_EDGE('',*,*,#189,.F.);
#153=ORIENTED_EDGE('',*,*,#198,.F.);
#154=ORIENTED_EDGE('',*,*,#195,.F.);
#155=ORIENTED_EDGE('',*,*,#200,.T.);
#156=ORIENTED_EDGE('',*,*,#196,.T.);
#157=ORIENTED_EDGE('',*,*,#201,.T.);
#158=ORIENTED_EDGE('',*,*,#202,.T.);
#159=ORIENTED_EDGE('',*,*,#202,.F.);
#160=ORIENTED_EDGE('',*,*,#180,.F.);
#161=ORIENTED_EDGE('',*,*,#201,.F.);
#162=ORIENTED_EDGE('',*,*,#200,.F.);
#163=VERTEX_POINT('',#357);
#164=VERTEX_POINT('',#359);
#165=VERTEX_POINT('',#360);
#166=VERTEX_POINT('',#362);
#167=VERTEX_POINT('',#364);
#168=VERTEX_POINT('',#366);
#169=VERTEX_POINT('',#368);
#170=VERTEX_POINT('',#372);
#171=VERTEX_POINT('',#374);
#172=VERTEX_POINT('',#378);
#173=VERTEX_POINT('',#380);
#174=VERTEX_POINT('',#384);
#175=VERTEX_POINT('',#385);
#176=VERTEX_POINT('',#390);
#177=VERTEX_POINT('',#399);
#178=VERTEX_POINT('',#402);
#179=VERTEX_POINT('',#404);
#180=EDGE_CURVE('',#163,#163,#203,.T.);
#181=EDGE_CURVE('',#164,#165,#63,.T.);
#182=EDGE_CURVE('',#165,#166,#204,.T.);
#183=EDGE_CURVE('',#166,#167,#64,.T.);
#184=EDGE_CURVE('',#167,#168,#205,.T.);
#185=EDGE_CURVE('',#168,#169,#65,.T.);
#186=EDGE_CURVE('',#169,#164,#206,.T.);
#187=EDGE_CURVE('',#168,#170,#66,.T.);
#188=EDGE_CURVE('',#171,#170,#67,.T.);
#189=EDGE_CURVE('',#171,#169,#68,.T.);
#190=EDGE_CURVE('',#166,#172,#69,.T.);
#191=EDGE_CURVE('',#173,#172,#70,.T.);
#192=EDGE_CURVE('',#173,#167,#71,.T.);
#193=EDGE_CURVE('',#174,#175,#72,.T.);
#194=EDGE_CURVE('',#174,#165,#73,.T.);
#195=EDGE_CURVE('',#164,#175,#74,.T.);
#196=EDGE_CURVE('',#176,#176,#207,.T.);
#197=EDGE_CURVE('',#172,#174,#208,.T.);
#198=EDGE_CURVE('',#175,#171,#209,.T.);
#199=EDGE_CURVE('',#170,#173,#210,.T.);
#200=EDGE_CURVE('',#177,#177,#211,.T.);
#201=EDGE_CURVE('',#178,#178,#212,.T.);
#202=EDGE_CURVE('',#179,#179,#213,.T.);
#203=CIRCLE('',#245,1.4);
#204=CIRCLE('',#246,0.10449426434996);
#205=CIRCLE('',#247,0.10449426434996);
#206=CIRCLE('',#248,0.104494264349961);
#207=CIRCLE('',#253,1.91415901468837);
#208=CIRCLE('',#254,0.396875000000001);
#209=CIRCLE('',#255,0.396875000000001);
#210=CIRCLE('',#256,0.396875000000001);
#211=CIRCLE('',#261,1.88079929549041);
#212=CIRCLE('',#263,1.82993757179755);
#213=CIRCLE('',#264,1.39999999999999);
#214=CURVE_STYLE('',#218,POSITIVE_LENGTH_MEASURE(0.18),#217);
#215=CURVE_STYLE('',#219,POSITIVE_LENGTH_MEASURE(0.18),#240);
#216=CURVE_STYLE('',#220,POSITIVE_LENGTH_MEASURE(0.18),#240);
#217=DRAUGHTING_PRE_DEFINED_COLOUR('blue');
#218=DRAUGHTING_PRE_DEFINED_CURVE_FONT('continuous');
#219=DRAUGHTING_PRE_DEFINED_CURVE_FONT('continuous');
#220=DRAUGHTING_PRE_DEFINED_CURVE_FONT('continuous');
#221=TRIMMED_CURVE('CUTTING EDGE LINE',#222,(PARAMETER_VALUE(0.0)),(PARAMETER_VALUE(
     1.0)),.T.,.PARAMETER.);
#222=(BOUNDED_CURVE()B_SPLINE_CURVE(3,(#335,#336,#337,#338,#339,#340,#341,#342,#343,
     #344,#345,#346,#347,#348,#349,#350,#351,#352,#353),.UNSPECIFIED.,.T.,.F.)
     B_SPLINE_CURVE_WITH_KNOTS((1,3,3,3,3,3,3,3,1),(-0.0265014949236102,0.0,0.306831838409723,
     0.333333333333333,0.640165171743056,0.666666666666667,0.97349850507639,1.0,
     1.30683183840972),.UNSPECIFIED.)CURVE()GEOMETRIC_REPRESENTATION_ITEM()
     RATIONAL_B_SPLINE_CURVE((0.666666666666667,0.666666666666667,0.666666666666667,
     0.666666666666667,0.444444444444444,0.444444444444444,0.666666666666667,0.666666666666667,
     0.666666666666667,0.666666666666667,0.444444444444444,0.444444444444444,0.666666666666667,
     0.666666666666667,0.666666666666667,0.666666666666667,0.444444444444444,0.444444444444444,
     0.666666666666667))REPRESENTATION_ITEM('CUTTING EDGE LINE'));
#223=PRESENTATION_LAYER_ASSIGNMENT('1','Layer 1',(#221,#243,#244,#31));
#226=STYLED_ITEM('',(#232),#221);
#227=STYLED_ITEM('',(#233),#243);
#228=STYLED_ITEM('',(#234),#244);
#229=STYLED_ITEM('',(#235),#31);
#230=PRESENTATION_STYLE_ASSIGNMENT((#236));
#231=PRESENTATION_STYLE_ASSIGNMENT((#237));
#232=PRESENTATION_STYLE_ASSIGNMENT((#214));
#233=PRESENTATION_STYLE_ASSIGNMENT((#215));
#234=PRESENTATION_STYLE_ASSIGNMENT((#216));
#235=PRESENTATION_STYLE_ASSIGNMENT((#26));
#236=POINT_STYLE('',#238,POSITIVE_LENGTH_MEASURE(3.0),#240);
#237=POINT_STYLE('',#239,POSITIVE_LENGTH_MEASURE(3.0),#240);
#238=PRE_DEFINED_POINT_MARKER_SYMBOL('plus');
#239=PRE_DEFINED_POINT_MARKER_SYMBOL('plus');
#240=COLOUR_RGB('Medium Maroon',0.6,0.4,0.4);
#241=COLOUR_RGB('IsoInsertColor',0.8,0.8,0.8);
#242=AXIS2_PLACEMENT_3D('',#332,#268,#269);
#243=AXIS2_PLACEMENT_3D('PCS',#354,#270,#271);
#244=AXIS2_PLACEMENT_3D('MCS',#355,#272,#273);
#245=AXIS2_PLACEMENT_3D('',#356,#274,#275);
#246=AXIS2_PLACEMENT_3D('',#361,#277,#278);
#247=AXIS2_PLACEMENT_3D('',#365,#280,#281);
#248=AXIS2_PLACEMENT_3D('',#369,#283,#284);
#249=AXIS2_PLACEMENT_3D('',#370,#285,#286);
#250=AXIS2_PLACEMENT_3D('',#376,#290,#291);
#251=AXIS2_PLACEMENT_3D('',#382,#295,#296);
#252=AXIS2_PLACEMENT_3D('',#388,#300,#301);
#253=AXIS2_PLACEMENT_3D('',#389,#302,#303);
#254=AXIS2_PLACEMENT_3D('',#391,#304,#305);
#255=AXIS2_PLACEMENT_3D('',#392,#306,#307);
#256=AXIS2_PLACEMENT_3D('',#393,#308,#309);
#257=AXIS2_PLACEMENT_3D('',#394,#310,#311);
#258=AXIS2_PLACEMENT_3D('',#395,#312,#313);
#259=AXIS2_PLACEMENT_3D('',#396,#314,#315);
#260=AXIS2_PLACEMENT_3D('',#397,#316,#317);
#261=AXIS2_PLACEMENT_3D('',#398,#318,#319);
#262=AXIS2_PLACEMENT_3D('',#400,#320,#321);
#263=AXIS2_PLACEMENT_3D('',#401,#322,#323);
#264=AXIS2_PLACEMENT_3D('',#403,#324,#325);
#265=AXIS2_PLACEMENT_3D('',#405,#326,#327);
#266=AXIS2_PLACEMENT_3D('',#406,#328,#329);
#267=AXIS2_PLACEMENT_3D('',#407,#330,#331);
#268=DIRECTION('',(0.0,0.0,1.0));
#269=DIRECTION('',(1.0,0.0,0.0));
#270=DIRECTION('',(0.0,0.0,1.0));
#271=DIRECTION('',(1.0,0.0,0.0));
#272=DIRECTION('',(0.0,0.0,1.0));
#273=DIRECTION('',(1.0,0.0,0.0));
#274=DIRECTION('',(0.0,0.0,1.0));
#275=DIRECTION('',(-0.866025403784439,-0.5,0.0));
#276=DIRECTION('',(0.5,-0.866025403784438,0.0));
#277=DIRECTION('',(0.0,0.0,-1.0));
#278=DIRECTION('',(-0.866025403784442,-0.5,0.0));
#279=DIRECTION('',(-1.0,-8.88178419700125E-16,0.0));
#280=DIRECTION('',(0.0,0.0,-1.0));
#281=DIRECTION('',(-0.866025403784438,-0.5,0.0));
#282=DIRECTION('',(0.5,0.866025403784439,0.0));
#283=DIRECTION('',(0.0,0.0,-1.0));
#284=DIRECTION('',(-0.866025403784437,-0.500000000000007,0.0));
#285=DIRECTION('',(0.0,0.0,1.0));
#286=DIRECTION('',(-0.866025403784439,-0.5,0.0));
#287=DIRECTION('',(-0.105541947331387,0.0609346717025742,0.992546151641322));
#288=DIRECTION('',(-0.5,-0.866025403784439,3.36223185338982E-16));
#289=DIRECTION('',(0.105541947331387,-0.0609346717025742,-0.992546151641322));
#290=DIRECTION('',(0.859570181749867,-0.496273075820661,0.121869343405148));
#291=DIRECTION('',(0.5,0.866025403784439,0.0));
#292=DIRECTION('',(-9.71445146547012E-17,-0.121869343405147,0.992546151641322));
#293=DIRECTION('',(1.0,8.32667268468867E-16,2.04460276135047E-16));
#294=DIRECTION('',(9.71445146547012E-17,0.121869343405147,-0.992546151641322));
#295=DIRECTION('',(-8.88178419700125E-16,0.992546151641322,0.121869343405147));
#296=DIRECTION('',(-1.0,-8.88178419700125E-16,0.0));
#297=DIRECTION('',(-0.500000000000001,0.866025403784438,-5.34997492799627E-16));
#298=DIRECTION('',(-0.105541947331387,-0.0609346717025743,-0.992546151641322));
#299=DIRECTION('',(0.105541947331387,0.0609346717025743,0.992546151641322));
#300=DIRECTION('',(-0.859570181749866,-0.496273075820661,0.121869343405148));
#301=DIRECTION('',(-0.105541947331387,-0.0609346717025738,-0.992546151641322));
#302=DIRECTION('',(0.0,0.0,1.0));
#303=DIRECTION('',(-0.866025403784439,-0.5,0.0));
#304=DIRECTION('',(-2.0062405979986E-16,5.01931538035914E-16,1.0));
#305=DIRECTION('',(-0.5,0.866025403784439,-5.34997492799627E-16));
#306=DIRECTION('',(-2.0062405979986E-16,5.01931538035914E-16,1.0));
#307=DIRECTION('',(-0.5,0.866025403784437,-5.34997492799628E-16));
#308=DIRECTION('',(-2.0062405979986E-16,5.01931538035914E-16,1.0));
#309=DIRECTION('',(-0.5,0.866025403784439,-5.34997492799627E-16));
#310=DIRECTION('',(-2.0062405979986E-16,5.01931538035914E-16,1.0));
#311=DIRECTION('',(-0.5,0.866025403784439,-5.34997492799627E-16));
#312=DIRECTION('',(-2.0062405979986E-16,5.01931538035914E-16,1.0));
#313=DIRECTION('',(-0.5,0.866025403784439,-9.01290861311496E-16));
#314=DIRECTION('',(-2.0062405979986E-16,5.01931538035914E-16,1.0));
#315=DIRECTION('',(-0.5,0.866025403784439,-8.87208191603504E-16));
#316=DIRECTION('',(-2.0062405979986E-16,5.01931538035914E-16,1.0));
#317=DIRECTION('',(-0.5,0.866025403784439,-8.5904285218752E-16));
#318=DIRECTION('',(0.0,0.0,-1.0));
#319=DIRECTION('',(0.866025403784439,0.5,0.0));
#320=DIRECTION('',(0.0,0.0,1.0));
#321=DIRECTION('',(-0.866025403784439,-0.5,9.66395375326243E-17));
#322=DIRECTION('',(0.0,0.0,1.0));
#323=DIRECTION('',(0.866025403784439,0.5,0.0));
#324=DIRECTION('',(0.0,0.0,-1.0));
#325=DIRECTION('',(-0.866025403784438,-0.5,0.0));
#326=DIRECTION('',(0.0,0.0,1.0));
#327=DIRECTION('',(-0.866025403784439,-0.5,0.0));
#328=DIRECTION('',(0.0,0.0,1.0));
#329=DIRECTION('',(-0.866025403784438,-0.5,0.0));
#330=DIRECTION('',(0.0,0.0,-1.0));
#331=DIRECTION('',(0.866025403784438,0.5,0.0));
#332=CARTESIAN_POINT('',(0.0,0.0,0.0));
#335=CARTESIAN_POINT('',(10.6548187959354,0.5953125,0.0));
#336=CARTESIAN_POINT('',(9.05086757934299,3.3734375,0.0));
#337=CARTESIAN_POINT('',(7.44691636275055,6.15156249999999,1.84391468143692E-15));
#338=CARTESIAN_POINT('',(5.84296514615813,8.92968749999999,-1.53233907044617E-17));
#339=CARTESIAN_POINT('',(5.67111323009466,9.22734374999999,-2.14527469862466E-16));
#340=CARTESIAN_POINT('',(5.3274093979677,9.22734374999999,-9.33085041110984E-17));
#341=CARTESIAN_POINT('',(5.15555748190423,8.92968749999999,-8.42786488745405E-17));
#342=CARTESIAN_POINT('',(3.5516062653118,6.15156249999999,0.0));
#343=CARTESIAN_POINT('',(1.94765504871936,3.37343749999999,-3.70315275357834E-16));
#344=CARTESIAN_POINT('',(0.343703832126941,0.59531249999999,-8.42786488745402E-17));
#345=CARTESIAN_POINT('',(0.171851916063466,0.297656249999988,-5.36318674656157E-17));
#346=CARTESIAN_POINT('',(0.343703832126943,-1.09912079437891E-14,1.10273686676753E-16));
#347=CARTESIAN_POINT('',(0.687407664253893,-9.99200722162641E-15,9.96020395790024E-17));
#348=CARTESIAN_POINT('',(3.89531009743875,-6.66133814775094E-15,0.0));
#349=CARTESIAN_POINT('',(7.10321253062361,6.66133814775094E-16,-1.4735994060791E-15));
#350=CARTESIAN_POINT('',(10.3111149638085,-1.33226762955019E-15,9.96020395790021E-17));
#351=CARTESIAN_POINT('',(10.6548187959354,-9.99200722162641E-16,2.68159337328083E-16));
#352=CARTESIAN_POINT('',(10.8266707119989,0.297656249999999,1.5323390704462E-16));
#353=CARTESIAN_POINT('',(10.6548187959354,0.5953125,-3.06467814089227E-17));
#354=CARTESIAN_POINT('',(0.0,0.0,0.0));
#355=CARTESIAN_POINT('',(5.49926131403118,3.175,0.0));
#356=CARTESIAN_POINT('',(5.49926131403118,3.175,-2.38125000000001));
#357=CARTESIAN_POINT('',(4.28682574873297,2.475,-2.38125000000001));
#358=CARTESIAN_POINT('',(7.99568282639665,4.61630963217497,-2.38125));
#359=CARTESIAN_POINT('',(5.58975600150801,8.78349713217497,-2.38125));
#360=CARTESIAN_POINT('',(10.4016096512853,0.449122132174977,-2.38125));
#361=CARTESIAN_POINT('',(10.3111149638085,0.396875000000001,-2.38125));
#362=CARTESIAN_POINT('',(10.3111149638085,0.292380735650039,-2.38125));
#363=CARTESIAN_POINT('',(4.2725823371701,0.292380735650033,-2.38125));
#364=CARTESIAN_POINT('',(0.687407664253894,0.292380735650031,-2.38125));
#365=CARTESIAN_POINT('',(0.687407664253893,0.396874999999991,-2.38125));
#366=CARTESIAN_POINT('',(0.596912976777061,0.449122132174969,-2.38125));
#367=CARTESIAN_POINT('',(2.38950031323516,3.55397447592497,-2.38125));
#368=CARTESIAN_POINT('',(5.40876662655435,8.78349713217497,-2.38125));
#369=CARTESIAN_POINT('',(5.49926131403118,8.73124999999999,-2.38125));
#370=CARTESIAN_POINT('',(5.36200178761202,2.66274047358083,-2.38125));
#371=CARTESIAN_POINT('',(0.343703832126942,0.595312499999991,-2.07322259121806E-15));
#372=CARTESIAN_POINT('',(0.343703832126942,0.595312499999991,-2.18575157973078E-15));
#373=CARTESIAN_POINT('',(2.74963065701559,4.7625,-3.79470760369927E-15));
#374=CARTESIAN_POINT('',(5.15555748190423,8.92968749999999,-5.40366362766775E-15));
#375=CARTESIAN_POINT('',(5.15555748190423,8.92968749999999,-5.25639444183164E-15));
#376=CARTESIAN_POINT('',(2.13629116858505,3.70016484374999,-3.38453874301759E-15));
#377=CARTESIAN_POINT('',(10.3111149638085,-4.33680868994202E-16,3.88500102030546E-16));
#378=CARTESIAN_POINT('',(10.3111149638085,-4.33680868994202E-16,1.12757025938493E-16));
#379=CARTESIAN_POINT('',(5.49926131403119,-5.20417042793042E-15,-8.52616588442599E-16));
#380=CARTESIAN_POINT('',(0.687407664253893,-9.54097911787244E-15,-1.81799020282369E-15));
#381=CARTESIAN_POINT('',(0.687407664253893,-9.54097911787244E-15,-1.79494213528763E-15));
#382=CARTESIAN_POINT('',(4.2725823371701,-6.50521303491303E-15,-1.09871790485161E-15));
#383=CARTESIAN_POINT('',(8.24889197104677,4.7625,-2.69142347297802E-15));
#384=CARTESIAN_POINT('',(10.6548187959354,0.595312499999999,-1.17093834628434E-16));
#385=CARTESIAN_POINT('',(5.84296514615813,8.92968749999999,-5.2657531113276E-15));
#386=CARTESIAN_POINT('',(10.6548187959354,0.595312499999999,3.05625305738043E-18));
#387=CARTESIAN_POINT('',(5.84296514615813,8.92968749999999,-5.16081539476163E-15));
#388=CARTESIAN_POINT('',(8.24889197104677,4.76249999999999,-2.69142347297802E-15));
#389=CARTESIAN_POINT('',(5.49926131403118,3.175,0.0));
#390=CARTESIAN_POINT('',(3.84155098042807,2.21792049265582,0.0));
#391=CARTESIAN_POINT('',(10.3111149638085,0.396875000000001,-8.64470532195118E-17));
#392=CARTESIAN_POINT('',(5.49926131403118,8.73124999999999,-5.23510632991867E-15));
#393=CARTESIAN_POINT('',(0.687407664253892,0.396874999999991,-2.0171942819817E-15));
#394=CARTESIAN_POINT('',(5.49926131403118,3.175,-2.44624922170663E-15));
#395=CARTESIAN_POINT('',(10.3111149638085,0.396875000000001,0.0));
#396=CARTESIAN_POINT('',(0.687407664253892,0.396874999999991,-1.73472347597681E-15));
#397=CARTESIAN_POINT('',(5.49926131403118,8.73124999999999,-5.20417042793042E-15));
#398=CARTESIAN_POINT('',(5.49926131403118,3.175,-0.477066210407533));
#399=CARTESIAN_POINT('',(7.12808128334575,4.1153996477452,-0.477066210407533));
#400=CARTESIAN_POINT('',(5.49926131403118,3.175,-0.560000000032652));
#401=CARTESIAN_POINT('',(5.49926131403118,3.175,-0.624346635008659));
#402=CARTESIAN_POINT('',(7.08403373854747,4.08996878589877,-0.624346635008659));
#403=CARTESIAN_POINT('',(5.49926131403118,3.175,-2.02607469113959));
#404=CARTESIAN_POINT('',(4.28682574873297,2.475,-2.02607469113959));
#405=CARTESIAN_POINT('',(5.49926131403118,3.175,-2.02607469113959));
#406=CARTESIAN_POINT('',(5.49926131403118,3.175,-33.3676978394524));
#407=CARTESIAN_POINT('',(5.49926131403118,3.175,-0.456139268272947));
#408=MECHANICAL_DESIGN_GEOMETRIC_PRESENTATION_REPRESENTATION('',(#226,#227,#228,
     #229),#409);
#409=(GEOMETRIC_REPRESENTATION_CONTEXT(3)GLOBAL_UNCERTAINTY_ASSIGNED_CONTEXT((#410))
     GLOBAL_UNIT_ASSIGNED_CONTEXT((#416,#412,#411))REPRESENTATION_CONTEXT('TCMW110204S01020E',
     'TOP_LEVEL_ASSEMBLY_PART'));
#410=UNCERTAINTY_MEASURE_WITH_UNIT(LENGTH_MEASURE(2.0E-5),#416,'DISTANCE_ACCURACY_VALUE',
     'Maximum Tolerance applied to model');
#411=(NAMED_UNIT(*)SI_UNIT($,.STERADIAN.)SOLID_ANGLE_UNIT());
#412=(CONVERSION_BASED_UNIT('DEGREE',#414)NAMED_UNIT(#413)PLANE_ANGLE_UNIT());
#413=DIMENSIONAL_EXPONENTS(0.0,0.0,0.0,0.0,0.0,0.0,0.0);
#414=PLANE_ANGLE_MEASURE_WITH_UNIT(PLANE_ANGLE_MEASURE(0.0174532925),#415);
#415=(NAMED_UNIT(*)PLANE_ANGLE_UNIT()SI_UNIT($,.RADIAN.));
#416=(LENGTH_UNIT()NAMED_UNIT(*)SI_UNIT(.MILLI.,.METRE.));
#417=CONSTRUCTIVE_GEOMETRY_REPRESENTATION('supplemental geometry',(#243,#244),#409);
#418=CONSTRUCTIVE_GEOMETRY_REPRESENTATION_RELATIONSHIP('supplemental geometry','contains PCS and MCS coordinate systems',
     #24,#417);
ENDSEC;
END-ISO-10303-21;
