ISO-10303-21;
HEADER;
FILE_DESCRIPTION(
/* description */ (''),
/* implementation_level */ '2;1');
FILE_NAME(
/* name */ 'DCMX11T308-WM.stp'
/* time_stamp */ '2017-04-13T13:33:41',
/* author */ ('Sandvik Coromant R&D'),
/* organization */ ('Sandvik Machining Solutions'),
/* preprocessor_version */ 'ST-DEVELOPER v15',
/* originating_system */ 'SIEMENS PLM Software NX v8.5.3.3(64 bits)',
/* authorization */ '');
FILE_SCHEMA(('AUTOMOTIVE_DESIGN'));
ENDSEC;
DATA;
#10=GEOMETRICALLY_BOUNDED_WIREFRAME_SHAPE_REPRESENTATION('IsoTurningInsert-None',
     (#25),#523);
#11=SHAPE_REPRESENTATION_RELATIONSHIP('None','relationship between IsoTurningInsert-None and IsoTurningInsert-None',
     #24,#13);
#12=SHAPE_REPRESENTATION_RELATIONSHIP('None','relationship between IsoTurningInsert-None and IsoTurningInsert-None',
     #24,#10);
#13=ADVANCED_BREP_SHAPE_REPRESENTATION('IsoTurningInsert-None',(#31),#523);
#14=SHAPE_DEFINITION_REPRESENTATION(#15,#24);
#15=PRODUCT_DEFINITION_SHAPE('','',#16);
#16=PRODUCT_DEFINITION(' ','',#18,#17);
#17=PRODUCT_DEFINITION_CONTEXT('part definition',#23,'design');
#18=PRODUCT_DEFINITION_FORMATION_WITH_SPECIFIED_SOURCE(' ',' ',#20,.NOT_KNOWN.);
#19=PRODUCT_RELATED_PRODUCT_CATEGORY('part','',(#20));
#20=PRODUCT('IsoTurningInsert','IsoTurningInsert',' ',(#21));
#21=PRODUCT_CONTEXT(' ',#23,'mechanical');
#22=APPLICATION_PROTOCOL_DEFINITION('international standard','automotive_design',
     2010,#23);
#23=APPLICATION_CONTEXT('core data for automotive mechanical design processes');
#24=SHAPE_REPRESENTATION('IsoTurningInsert-None',(#281),#523);
#25=GEOMETRIC_CURVE_SET('geometric curve set',(#261));
#26=SURFACE_STYLE_USAGE(.BOTH.,#27);
#27=SURFACE_SIDE_STYLE('',(#28));
#28=SURFACE_STYLE_FILL_AREA(#29);
#29=FILL_AREA_STYLE('',(#30));
#30=FILL_AREA_STYLE_COLOUR('',#280);
#31=MANIFOLD_SOLID_BREP('CUT',#32);
#32=CLOSED_SHELL('',(#49,#50,#51,#52,#53,#54,#55,#56,#57,#58,#59,#60,#61,#62));
#33=CYLINDRICAL_SURFACE('',#309,2.2);
#34=TOROIDAL_SURFACE('',#308,6.19999999999999,4.0);
#35=TOROIDAL_SURFACE('',#310,2.70678285826048,0.3);
#36=CONICAL_SURFACE('',#300,0.79375,7.0);
#37=CONICAL_SURFACE('',#301,0.79375,7.0);
#38=CONICAL_SURFACE('',#302,0.79375,7.0);
#39=CONICAL_SURFACE('',#303,0.79375,7.0);
#40=CONICAL_SURFACE('',#305,2.99999999999613,4.00000000019652);
#41=FACE_OUTER_BOUND('',#115,.T.);
#42=FACE_OUTER_BOUND('',#116,.T.);
#43=FACE_OUTER_BOUND('',#117,.T.);
#44=FACE_OUTER_BOUND('',#118,.T.);
#45=FACE_OUTER_BOUND('',#121,.T.);
#46=FACE_OUTER_BOUND('',#122,.T.);
#47=FACE_OUTER_BOUND('',#123,.T.);
#48=FACE_OUTER_BOUND('',#124,.T.);
#49=ADVANCED_FACE('',(#101,#102),#63,.F.);
#50=ADVANCED_FACE('',(#41),#64,.F.);
#51=ADVANCED_FACE('',(#42),#65,.F.);
#52=ADVANCED_FACE('',(#43),#66,.F.);
#53=ADVANCED_FACE('',(#44),#67,.F.);
#54=ADVANCED_FACE('',(#103,#104),#68,.T.);
#55=ADVANCED_FACE('',(#45),#36,.T.);
#56=ADVANCED_FACE('',(#46),#37,.T.);
#57=ADVANCED_FACE('',(#47),#38,.T.);
#58=ADVANCED_FACE('',(#48),#39,.T.);
#59=ADVANCED_FACE('',(#105,#106),#40,.F.);
#60=ADVANCED_FACE('',(#107,#108),#34,.T.);
#61=ADVANCED_FACE('',(#109,#110),#33,.F.);
#62=ADVANCED_FACE('',(#111,#112),#35,.F.);
#63=PLANE('',#289);
#64=PLANE('',#290);
#65=PLANE('',#291);
#66=PLANE('',#292);
#67=PLANE('',#293);
#68=PLANE('',#299);
#69=LINE('',#460,#85);
#70=LINE('',#465,#86);
#71=LINE('',#469,#87);
#72=LINE('',#473,#88);
#73=LINE('',#477,#89);
#74=LINE('',#480,#90);
#75=LINE('',#481,#91);
#76=LINE('',#483,#92);
#77=LINE('',#485,#93);
#78=LINE('',#487,#94);
#79=LINE('',#489,#95);
#80=LINE('',#491,#96);
#81=LINE('',#493,#97);
#82=LINE('',#495,#98);
#83=LINE('',#497,#99);
#84=LINE('',#499,#100);
#85=VECTOR('',#319,1.0);
#86=VECTOR('',#322,1.0);
#87=VECTOR('',#325,1.0);
#88=VECTOR('',#328,1.0);
#89=VECTOR('',#333,1.0);
#90=VECTOR('',#334,1.0);
#91=VECTOR('',#335,1.0);
#92=VECTOR('',#338,1.0);
#93=VECTOR('',#339,1.0);
#94=VECTOR('',#340,1.0);
#95=VECTOR('',#343,1.0);
#96=VECTOR('',#344,1.0);
#97=VECTOR('',#345,1.0);
#98=VECTOR('',#348,1.0);
#99=VECTOR('',#349,1.0);
#100=VECTOR('',#350,1.0);
#101=FACE_BOUND('',#113,.T.);
#102=FACE_BOUND('',#114,.T.);
#103=FACE_BOUND('',#119,.T.);
#104=FACE_BOUND('',#120,.T.);
#105=FACE_BOUND('',#125,.T.);
#106=FACE_BOUND('',#126,.T.);
#107=FACE_BOUND('',#127,.T.);
#108=FACE_BOUND('',#128,.T.);
#109=FACE_BOUND('',#129,.T.);
#110=FACE_BOUND('',#130,.T.);
#111=FACE_BOUND('',#131,.T.);
#112=FACE_BOUND('',#132,.T.);
#113=EDGE_LOOP('',(#133));
#114=EDGE_LOOP('',(#134,#135,#136,#137,#138,#139,#140,#141));
#115=EDGE_LOOP('',(#142,#143,#144,#145));
#116=EDGE_LOOP('',(#146,#147,#148,#149));
#117=EDGE_LOOP('',(#150,#151,#152,#153));
#118=EDGE_LOOP('',(#154,#155,#156,#157));
#119=EDGE_LOOP('',(#158));
#120=EDGE_LOOP('',(#159,#160,#161,#162,#163,#164,#165,#166));
#121=EDGE_LOOP('',(#167,#168,#169,#170));
#122=EDGE_LOOP('',(#171,#172,#173,#174));
#123=EDGE_LOOP('',(#175,#176,#177,#178));
#124=EDGE_LOOP('',(#179,#180,#181,#182));
#125=EDGE_LOOP('',(#183));
#126=EDGE_LOOP('',(#184));
#127=EDGE_LOOP('',(#185));
#128=EDGE_LOOP('',(#186));
#129=EDGE_LOOP('',(#187));
#130=EDGE_LOOP('',(#188));
#131=EDGE_LOOP('',(#189));
#132=EDGE_LOOP('',(#190));
#133=ORIENTED_EDGE('',*,*,#212,.T.);
#134=ORIENTED_EDGE('',*,*,#213,.T.);
#135=ORIENTED_EDGE('',*,*,#214,.T.);
#136=ORIENTED_EDGE('',*,*,#215,.T.);
#137=ORIENTED_EDGE('',*,*,#216,.T.);
#138=ORIENTED_EDGE('',*,*,#217,.T.);
#139=ORIENTED_EDGE('',*,*,#218,.T.);
#140=ORIENTED_EDGE('',*,*,#219,.T.);
#141=ORIENTED_EDGE('',*,*,#220,.T.);
#142=ORIENTED_EDGE('',*,*,#221,.F.);
#143=ORIENTED_EDGE('',*,*,#222,.T.);
#144=ORIENTED_EDGE('',*,*,#213,.F.);
#145=ORIENTED_EDGE('',*,*,#223,.T.);
#146=ORIENTED_EDGE('',*,*,#219,.F.);
#147=ORIENTED_EDGE('',*,*,#224,.T.);
#148=ORIENTED_EDGE('',*,*,#225,.F.);
#149=ORIENTED_EDGE('',*,*,#226,.T.);
#150=ORIENTED_EDGE('',*,*,#217,.F.);
#151=ORIENTED_EDGE('',*,*,#227,.T.);
#152=ORIENTED_EDGE('',*,*,#228,.F.);
#153=ORIENTED_EDGE('',*,*,#229,.T.);
#154=ORIENTED_EDGE('',*,*,#215,.F.);
#155=ORIENTED_EDGE('',*,*,#230,.T.);
#156=ORIENTED_EDGE('',*,*,#231,.F.);
#157=ORIENTED_EDGE('',*,*,#232,.T.);
#158=ORIENTED_EDGE('',*,*,#233,.F.);
#159=ORIENTED_EDGE('',*,*,#231,.T.);
#160=ORIENTED_EDGE('',*,*,#234,.T.);
#161=ORIENTED_EDGE('',*,*,#221,.T.);
#162=ORIENTED_EDGE('',*,*,#235,.T.);
#163=ORIENTED_EDGE('',*,*,#225,.T.);
#164=ORIENTED_EDGE('',*,*,#236,.T.);
#165=ORIENTED_EDGE('',*,*,#228,.T.);
#166=ORIENTED_EDGE('',*,*,#237,.T.);
#167=ORIENTED_EDGE('',*,*,#214,.F.);
#168=ORIENTED_EDGE('',*,*,#222,.F.);
#169=ORIENTED_EDGE('',*,*,#234,.F.);
#170=ORIENTED_EDGE('',*,*,#230,.F.);
#171=ORIENTED_EDGE('',*,*,#216,.F.);
#172=ORIENTED_EDGE('',*,*,#232,.F.);
#173=ORIENTED_EDGE('',*,*,#237,.F.);
#174=ORIENTED_EDGE('',*,*,#227,.F.);
#175=ORIENTED_EDGE('',*,*,#218,.F.);
#176=ORIENTED_EDGE('',*,*,#229,.F.);
#177=ORIENTED_EDGE('',*,*,#236,.F.);
#178=ORIENTED_EDGE('',*,*,#224,.F.);
#179=ORIENTED_EDGE('',*,*,#220,.F.);
#180=ORIENTED_EDGE('',*,*,#226,.F.);
#181=ORIENTED_EDGE('',*,*,#235,.F.);
#182=ORIENTED_EDGE('',*,*,#223,.F.);
#183=ORIENTED_EDGE('',*,*,#238,.T.);
#184=ORIENTED_EDGE('',*,*,#233,.T.);
#185=ORIENTED_EDGE('',*,*,#239,.T.);
#186=ORIENTED_EDGE('',*,*,#240,.T.);
#187=ORIENTED_EDGE('',*,*,#240,.F.);
#188=ORIENTED_EDGE('',*,*,#212,.F.);
#189=ORIENTED_EDGE('',*,*,#239,.F.);
#190=ORIENTED_EDGE('',*,*,#238,.F.);
#191=VERTEX_POINT('',#459);
#192=VERTEX_POINT('',#461);
#193=VERTEX_POINT('',#462);
#194=VERTEX_POINT('',#464);
#195=VERTEX_POINT('',#466);
#196=VERTEX_POINT('',#468);
#197=VERTEX_POINT('',#470);
#198=VERTEX_POINT('',#472);
#199=VERTEX_POINT('',#474);
#200=VERTEX_POINT('',#478);
#201=VERTEX_POINT('',#479);
#202=VERTEX_POINT('',#484);
#203=VERTEX_POINT('',#486);
#204=VERTEX_POINT('',#490);
#205=VERTEX_POINT('',#492);
#206=VERTEX_POINT('',#496);
#207=VERTEX_POINT('',#498);
#208=VERTEX_POINT('',#502);
#209=VERTEX_POINT('',#513);
#210=VERTEX_POINT('',#516);
#211=VERTEX_POINT('',#518);
#212=EDGE_CURVE('',#191,#191,#241,.T.);
#213=EDGE_CURVE('',#192,#193,#69,.T.);
#214=EDGE_CURVE('',#193,#194,#242,.T.);
#215=EDGE_CURVE('',#194,#195,#70,.T.);
#216=EDGE_CURVE('',#195,#196,#243,.T.);
#217=EDGE_CURVE('',#196,#197,#71,.T.);
#218=EDGE_CURVE('',#197,#198,#244,.T.);
#219=EDGE_CURVE('',#198,#199,#72,.T.);
#220=EDGE_CURVE('',#199,#192,#245,.T.);
#221=EDGE_CURVE('',#200,#201,#73,.T.);
#222=EDGE_CURVE('',#200,#193,#74,.T.);
#223=EDGE_CURVE('',#192,#201,#75,.T.);
#224=EDGE_CURVE('',#198,#202,#76,.T.);
#225=EDGE_CURVE('',#203,#202,#77,.T.);
#226=EDGE_CURVE('',#203,#199,#78,.T.);
#227=EDGE_CURVE('',#196,#204,#79,.T.);
#228=EDGE_CURVE('',#205,#204,#80,.T.);
#229=EDGE_CURVE('',#205,#197,#81,.T.);
#230=EDGE_CURVE('',#194,#206,#82,.T.);
#231=EDGE_CURVE('',#207,#206,#83,.T.);
#232=EDGE_CURVE('',#207,#195,#84,.T.);
#233=EDGE_CURVE('',#208,#208,#246,.T.);
#234=EDGE_CURVE('',#206,#200,#247,.T.);
#235=EDGE_CURVE('',#201,#203,#248,.T.);
#236=EDGE_CURVE('',#202,#205,#249,.T.);
#237=EDGE_CURVE('',#204,#207,#250,.T.);
#238=EDGE_CURVE('',#209,#209,#251,.T.);
#239=EDGE_CURVE('',#210,#210,#252,.T.);
#240=EDGE_CURVE('',#211,#211,#253,.T.);
#241=CIRCLE('',#284,2.2);
#242=CIRCLE('',#285,0.306448773916598);
#243=CIRCLE('',#286,0.306448773916598);
#244=CIRCLE('',#287,0.306448773916598);
#245=CIRCLE('',#288,0.306448773916598);
#246=CIRCLE('',#294,3.07132534818238);
#247=CIRCLE('',#295,0.79375);
#248=CIRCLE('',#296,0.79375);
#249=CIRCLE('',#297,0.79375);
#250=CIRCLE('',#298,0.79375);
#251=CIRCLE('',#304,3.00605207333835);
#252=CIRCLE('',#306,2.95049568210277);
#253=CIRCLE('',#307,2.2);
#254=CURVE_STYLE('',#258,POSITIVE_LENGTH_MEASURE(0.18),#257);
#255=CURVE_STYLE('',#259,POSITIVE_LENGTH_MEASURE(0.18),#279);
#256=CURVE_STYLE('',#260,POSITIVE_LENGTH_MEASURE(0.18),#279);
#257=DRAUGHTING_PRE_DEFINED_COLOUR('blue');
#258=DRAUGHTING_PRE_DEFINED_CURVE_FONT('continuous');
#259=DRAUGHTING_PRE_DEFINED_CURVE_FONT('continuous');
#260=DRAUGHTING_PRE_DEFINED_CURVE_FONT('continuous');
#261=B_SPLINE_CURVE_WITH_KNOTS('CUTTING EDGE LINE',5,(#390,#391,#392,#393,#394,#395,
     #396,#397,#398,#399,#400,#401,#402,#403,#404,#405,#406,#407,#408,#409,#410,
     #411,#412,#413,#414,#415,#416,#417,#418,#419,#420,#421,#422,#423,#424,#425,
     #426,#427,#428,#429,#430,#431,#432,#433,#434,#435,#436,#437,#438,#439,#440,
     #441,#442,#443,#444,#445,#446,#447,#448,#449,#450,#451,#452,#453,#454,#455),
     .UNSPECIFIED.,.T.,.F.,(2,4,1,4,4,1,1,1,1,1,1,1,1,1,1,1,1,1,1,1,4,4,1,4,4,1,
     1,1,1,1,1,1,1,1,1,1,1,1,1,1,4,4,1,1),(-0.2214992287,0.0,0.00870856900000005,
     0.017417138,0.2389163666,0.24139039189375,0.2438644171875,0.24633844248125,
     0.248812467775008,0.25128649306875,0.2537605183625,0.25623454365625,0.25870856895,
     0.26118259424375,0.2636566195375,0.26613064483125,0.268604670125023,0.27107869541875,
     0.2735527207125,0.27602674600625,0.2785007713,0.5,0.508708569,0.517417138,0.7389163666,
     0.74139039189375,0.7438644171875,0.74633844248125,0.748812467775,0.75128649306875,
     0.7537605183625,0.75623454365625,0.75870856895,0.76118259424375,0.7636566195375,
     0.76613064483125,0.768604670125006,0.77107869541875,0.7735527207125,0.77602674600625,
     0.7785007713,1.0,1.008708569,1.017417138),.UNSPECIFIED.);
#262=PRESENTATION_LAYER_ASSIGNMENT('1','Layer 1',(#261,#282,#283,#31));
#265=STYLED_ITEM('',(#271),#261);
#266=STYLED_ITEM('',(#272),#282);
#267=STYLED_ITEM('',(#273),#283);
#268=STYLED_ITEM('',(#274),#31);
#269=PRESENTATION_STYLE_ASSIGNMENT((#275));
#270=PRESENTATION_STYLE_ASSIGNMENT((#276));
#271=PRESENTATION_STYLE_ASSIGNMENT((#254));
#272=PRESENTATION_STYLE_ASSIGNMENT((#255));
#273=PRESENTATION_STYLE_ASSIGNMENT((#256));
#274=PRESENTATION_STYLE_ASSIGNMENT((#26));
#275=POINT_STYLE('',#277,POSITIVE_LENGTH_MEASURE(3.0),#279);
#276=POINT_STYLE('',#278,POSITIVE_LENGTH_MEASURE(3.0),#279);
#277=PRE_DEFINED_POINT_MARKER_SYMBOL('plus');
#278=PRE_DEFINED_POINT_MARKER_SYMBOL('plus');
#279=COLOUR_RGB('Medium Maroon',0.6,0.4,0.4);
#280=COLOUR_RGB('IsoInsertColor',0.8,0.8,0.8);
#281=AXIS2_PLACEMENT_3D('',#387,#311,#312);
#282=AXIS2_PLACEMENT_3D('PCS',#456,#313,#314);
#283=AXIS2_PLACEMENT_3D('MCS',#457,#315,#316);
#284=AXIS2_PLACEMENT_3D('',#458,#317,#318);
#285=AXIS2_PLACEMENT_3D('',#463,#320,#321);
#286=AXIS2_PLACEMENT_3D('',#467,#323,#324);
#287=AXIS2_PLACEMENT_3D('',#471,#326,#327);
#288=AXIS2_PLACEMENT_3D('',#475,#329,#330);
#289=AXIS2_PLACEMENT_3D('',#476,#331,#332);
#290=AXIS2_PLACEMENT_3D('',#482,#336,#337);
#291=AXIS2_PLACEMENT_3D('',#488,#341,#342);
#292=AXIS2_PLACEMENT_3D('',#494,#346,#347);
#293=AXIS2_PLACEMENT_3D('',#500,#351,#352);
#294=AXIS2_PLACEMENT_3D('',#501,#353,#354);
#295=AXIS2_PLACEMENT_3D('',#503,#355,#356);
#296=AXIS2_PLACEMENT_3D('',#504,#357,#358);
#297=AXIS2_PLACEMENT_3D('',#505,#359,#360);
#298=AXIS2_PLACEMENT_3D('',#506,#361,#362);
#299=AXIS2_PLACEMENT_3D('',#507,#363,#364);
#300=AXIS2_PLACEMENT_3D('',#508,#365,#366);
#301=AXIS2_PLACEMENT_3D('',#509,#367,#368);
#302=AXIS2_PLACEMENT_3D('',#510,#369,#370);
#303=AXIS2_PLACEMENT_3D('',#511,#371,#372);
#304=AXIS2_PLACEMENT_3D('',#512,#373,#374);
#305=AXIS2_PLACEMENT_3D('',#514,#375,#376);
#306=AXIS2_PLACEMENT_3D('',#515,#377,#378);
#307=AXIS2_PLACEMENT_3D('',#517,#379,#380);
#308=AXIS2_PLACEMENT_3D('',#519,#381,#382);
#309=AXIS2_PLACEMENT_3D('',#520,#383,#384);
#310=AXIS2_PLACEMENT_3D('',#521,#385,#386);
#311=DIRECTION('',(0.0,0.0,1.0));
#312=DIRECTION('',(1.0,0.0,0.0));
#313=DIRECTION('',(0.0,0.0,1.0));
#314=DIRECTION('',(1.0,0.0,0.0));
#315=DIRECTION('',(0.0,0.0,1.0));
#316=DIRECTION('',(1.0,0.0,0.0));
#317=DIRECTION('',(0.0,0.0,1.0));
#318=DIRECTION('',(-0.887010833178222,-0.461748613235034,0.0));
#319=DIRECTION('',(1.0,6.10622663543836E-16,0.0));
#320=DIRECTION('',(0.0,0.0,-1.0));
#321=DIRECTION('',(-0.887010833178222,-0.461748613235032,0.0));
#322=DIRECTION('',(-0.573576436351046,-0.819152044288992,0.0));
#323=DIRECTION('',(0.0,0.0,-1.0));
#324=DIRECTION('',(-0.887010833178224,-0.461748613235034,0.0));
#325=DIRECTION('',(-1.0,1.66533453693773E-16,0.0));
#326=DIRECTION('',(0.0,0.0,-1.0));
#327=DIRECTION('',(-0.887010833178222,-0.461748613235034,0.0));
#328=DIRECTION('',(0.573576436351046,0.819152044288991,0.0));
#329=DIRECTION('',(0.0,0.0,-1.0));
#330=DIRECTION('',(-0.887010833178222,-0.461748613235032,0.0));
#331=DIRECTION('',(0.0,0.0,1.0));
#332=DIRECTION('',(-0.887010833178222,-0.461748613235034,0.0));
#333=DIRECTION('',(-1.0,-6.10622663543836E-16,-1.19689526338967E-16));
#334=DIRECTION('',(1.87350135405495E-16,-0.121869343405148,-0.992546151641322));
#335=DIRECTION('',(-1.87350135405495E-16,0.121869343405148,0.992546151641322));
#336=DIRECTION('',(6.10622663543836E-16,-0.992546151641322,0.121869343405148));
#337=DIRECTION('',(1.0,6.10622663543836E-16,0.0));
#338=DIRECTION('',(-0.0998295217864837,0.0699013836907669,0.992546151641322));
#339=DIRECTION('',(-0.573576436351046,-0.819152044288991,4.03049328176126E-16));
#340=DIRECTION('',(0.0998295217864837,-0.0699013836907669,-0.992546151641322));
#341=DIRECTION('',(0.81304620916816,-0.569301084572375,0.121869343405148));
#342=DIRECTION('',(0.573576436351046,0.819152044288991,0.0));
#343=DIRECTION('',(-1.2490009027033E-16,-0.121869343405147,0.992546151641322));
#344=DIRECTION('',(1.0,-1.66533453693773E-16,1.19689526338968E-16));
#345=DIRECTION('',(1.2490009027033E-16,0.121869343405147,-0.992546151641322));
#346=DIRECTION('',(1.11022302462516E-16,0.992546151641322,0.121869343405147));
#347=DIRECTION('',(-1.0,1.66533453693773E-16,0.0));
#348=DIRECTION('',(0.0998295217864836,-0.0699013836907657,0.992546151641322));
#349=DIRECTION('',(0.573576436351046,0.819152044288992,-4.03049328176126E-16));
#350=DIRECTION('',(-0.0998295217864836,0.0699013836907657,-0.992546151641322));
#351=DIRECTION('',(-0.813046209168161,0.569301084572374,0.121869343405147));
#352=DIRECTION('',(-0.573576436351046,-0.819152044288992,0.0));
#353=DIRECTION('',(0.0,0.0,1.0));
#354=DIRECTION('',(-0.887010833178222,-0.461748613235034,0.0));
#355=DIRECTION('',(-1.1457530207728E-16,5.71230636268423E-16,1.0));
#356=DIRECTION('',(-0.461748613235032,0.887010833178221,-5.59592749458549E-16));
#357=DIRECTION('',(-1.1457530207728E-16,5.71230636268423E-16,1.0));
#358=DIRECTION('',(-0.461748613235033,0.887010833178221,-5.59592749458549E-16));
#359=DIRECTION('',(-1.1457530207728E-16,5.71230636268423E-16,1.0));
#360=DIRECTION('',(-0.461748613235034,0.887010833178222,-5.59592749458549E-16));
#361=DIRECTION('',(-1.1457530207728E-16,5.71230636268423E-16,1.0));
#362=DIRECTION('',(-0.461748613235034,0.887010833178222,-5.59592749458549E-16));
#363=DIRECTION('',(-1.1457530207728E-16,5.71230636268423E-16,1.0));
#364=DIRECTION('',(-0.461748613235034,0.887010833178222,-5.59592749458549E-16));
#365=DIRECTION('',(-1.1457530207728E-16,5.71230636268423E-16,1.0));
#366=DIRECTION('',(-0.461748613235034,0.887010833178222,-8.63302734865801E-16));
#367=DIRECTION('',(-1.1457530207728E-16,5.71230636268423E-16,1.0));
#368=DIRECTION('',(-0.461748613235034,0.887010833178222,-8.98396341974166E-16));
#369=DIRECTION('',(-1.1457530207728E-16,5.71230636268423E-16,1.0));
#370=DIRECTION('',(-0.461748613235034,0.887010833178222,-8.91377620552493E-16));
#371=DIRECTION('',(-1.1457530207728E-16,5.71230636268423E-16,1.0));
#372=DIRECTION('',(-0.461748613235034,0.887010833178222,-8.56284013444127E-16));
#373=DIRECTION('',(0.0,0.0,-1.0));
#374=DIRECTION('',(0.887010833178221,0.461748613235034,0.0));
#375=DIRECTION('',(0.0,0.0,1.0));
#376=DIRECTION('',(-0.887010833178222,-0.461748613235034,4.75743674970637E-16));
#377=DIRECTION('',(0.0,0.0,1.0));
#378=DIRECTION('',(0.887010833178221,0.461748613235034,0.0));
#379=DIRECTION('',(0.0,0.0,-1.0));
#380=DIRECTION('',(-0.887010833178222,-0.461748613235034,0.0));
#381=DIRECTION('',(0.0,0.0,1.0));
#382=DIRECTION('',(-0.887010833178222,-0.461748613235034,0.0));
#383=DIRECTION('',(0.0,0.0,1.0));
#384=DIRECTION('',(-0.887010833178222,-0.461748613235034,0.0));
#385=DIRECTION('',(0.0,0.0,-1.0));
#386=DIRECTION('',(0.887010833178221,0.461748613235034,0.0));
#387=CARTESIAN_POINT('',(0.0,0.0,0.0));
#390=CARTESIAN_POINT('',(9.2766982019186,-5.32907051820075E-15,-8.87468518373638E-32));
#391=CARTESIAN_POINT('',(11.2879804539285,-3.5527136788005E-15,4.61812984199732E-16));
#392=CARTESIAN_POINT('',(11.4345856386306,0.0169236851823129,4.68942990068371E-16));
#393=CARTESIAN_POINT('',(11.5917272970863,0.0694447734028394,4.59829116060585E-16));
#394=CARTESIAN_POINT('',(11.7248828063298,0.168042825554987,3.93267857913651E-16));
#395=CARTESIAN_POINT('',(11.8228351570358,0.278427735270297,2.59897995147067E-16));
#396=CARTESIAN_POINT('',(12.9764592636397,1.92597370364635,3.34564851575568E-17));
#397=CARTESIAN_POINT('',(14.0880387305476,3.51347370364635,7.39557098644699E-32));
#398=CARTESIAN_POINT('',(15.1996181974555,5.10097370364635,-3.94430452610506E-32));
#399=CARTESIAN_POINT('',(16.3111976643634,6.68847370364635,3.34564851575569E-17));
#400=CARTESIAN_POINT('',(17.4345863896525,8.29283907246447,1.75729702352016E-16));
#401=CARTESIAN_POINT('',(17.4571112436233,8.32733560103156,1.88577558963451E-16));
#402=CARTESIAN_POINT('',(17.4887704278493,8.38327989401842,1.97634322398123E-16));
#403=CARTESIAN_POINT('',(17.5232354711846,8.4620986993528,1.90833527711994E-16));
#404=CARTESIAN_POINT('',(17.5534794937095,8.56865360145985,1.59811689211425E-16));
#405=CARTESIAN_POINT('',(17.5685163539077,8.67901981696591,1.12424578214004E-16));
#406=CARTESIAN_POINT('',(17.5679692217747,8.79069992876774,5.49391276849313E-17));
#407=CARTESIAN_POINT('',(17.5521045408318,8.8997535358164,-7.13551935747482E-18));
#408=CARTESIAN_POINT('',(17.5216821028239,9.00429596633895,-7.01073242461986E-17));
#409=CARTESIAN_POINT('',(17.4795385482753,9.09927182708493,-1.29218546262261E-16));
#410=CARTESIAN_POINT('',(17.4259114276278,9.18826972167938,-1.86261869113782E-16));
#411=CARTESIAN_POINT('',(17.3577248755214,9.27315339872389,-2.42240152783303E-16));
#412=CARTESIAN_POINT('',(17.2774929975322,9.34869956384759,-2.91828727408532E-16));
#413=CARTESIAN_POINT('',(17.1863238277412,9.41320482879346,-3.30484383124407E-16));
#414=CARTESIAN_POINT('',(17.087292328003,9.46419081460494,-3.52071666300016E-16));
#415=CARTESIAN_POINT('',(16.9826604034521,9.50053374275288,-3.49068180008255E-16));
#416=CARTESIAN_POINT('',(16.8983274811994,9.51751024152911,-3.21978799457986E-16));
#417=CARTESIAN_POINT('',(16.8343416371667,9.52366488425549,-2.82158169122401E-16));
#418=CARTESIAN_POINT('',(16.7931640098002,9.525,-2.47018905098763E-16));
#419=CARTESIAN_POINT('',(14.8345955364582,9.525,-4.53414317538061E-17));
#420=CARTESIAN_POINT('',(12.8966158767994,9.525,-1.8735446498999E-31));
#421=CARTESIAN_POINT('',(10.9586362171405,9.52499999999999,-2.36658271566304E-31));
#422=CARTESIAN_POINT('',(9.02065655748174,9.52499999999999,-4.53414317538062E-17));
#423=CARTESIAN_POINT('',(7.00937430547187,9.52499999999999,-3.20665598341944E-16));
#424=CARTESIAN_POINT('',(6.86276912076975,9.50807631481767,-4.38298211427896E-16));
#425=CARTESIAN_POINT('',(6.70562746231401,9.45555522659714,-4.63736569846949E-16));
#426=CARTESIAN_POINT('',(6.57247195307059,9.35695717444499,-3.93267857913651E-16));
#427=CARTESIAN_POINT('',(6.47451960236456,9.24657226472969,-2.59897995147066E-16));
#428=CARTESIAN_POINT('',(5.32089549576063,7.59902629635363,-3.34564851575568E-17));
#429=CARTESIAN_POINT('',(4.20931602885271,6.01152629635364,-1.97215226305253E-32));
#430=CARTESIAN_POINT('',(3.0977365619448,4.42402629635364,3.74708929979981E-31));
#431=CARTESIAN_POINT('',(1.98615709503688,2.83652629635364,-3.34564851575569E-17));
#432=CARTESIAN_POINT('',(0.862768369747839,1.23216092753553,-1.75729702352016E-16));
#433=CARTESIAN_POINT('',(0.840243515777058,1.19766439896844,-1.88577558963451E-16));
#434=CARTESIAN_POINT('',(0.808584331551044,1.14172010598157,-1.97634322398123E-16));
#435=CARTESIAN_POINT('',(0.774119288215719,1.06290130064726,-1.90833527712E-16));
#436=CARTESIAN_POINT('',(0.743875265690873,0.956346398540218,-1.59811689211448E-16));
#437=CARTESIAN_POINT('',(0.728838405492608,0.845980183034154,-1.1242457821404E-16));
#438=CARTESIAN_POINT('',(0.729385537625653,0.734300071232319,-5.49391276849675E-17));
#439=CARTESIAN_POINT('',(0.745250218568499,0.625246464183668,7.13551935742435E-18));
#440=CARTESIAN_POINT('',(0.77567265657647,0.520704033661003,7.01073242462223E-17));
#441=CARTESIAN_POINT('',(0.817816211124967,0.425728172915153,1.29218546262202E-16));
#442=CARTESIAN_POINT('',(0.871443331772593,0.33673027832042,1.86261869113909E-16));
#443=CARTESIAN_POINT('',(0.939629883878819,0.251846601276311,2.42240152783168E-16));
#444=CARTESIAN_POINT('',(1.01986176186806,0.176300436152478,2.91828727408486E-16));
#445=CARTESIAN_POINT('',(1.11103093165903,0.111795171206639,3.30484383124353E-16));
#446=CARTESIAN_POINT('',(1.21006243139717,0.0608091853950929,3.52071666300012E-16));
#447=CARTESIAN_POINT('',(1.31469435594815,0.0244662572471617,3.49068180008301E-16));
#448=CARTESIAN_POINT('',(1.39902727820096,0.00748975847087419,3.21978799457986E-16));
#449=CARTESIAN_POINT('',(1.46301312223363,0.00133511574451539,2.82158169122401E-16));
#450=CARTESIAN_POINT('',(1.50419074960012,8.88178419700125E-16,2.47018905098763E-16));
#451=CARTESIAN_POINT('',(3.46275922294217,-2.66453525910038E-15,4.53414317538061E-17));
#452=CARTESIAN_POINT('',(5.40073888260098,-2.66453525910038E-15,1.8735446498999E-31));
#453=CARTESIAN_POINT('',(7.33871854225978,-5.32907051820075E-15,-1.28189897098414E-31));
#454=CARTESIAN_POINT('',(9.2766982019186,-5.32907051820075E-15,-8.87468518373638E-32));
#455=CARTESIAN_POINT('',(11.2879804539285,-3.5527136788005E-15,4.61812984199732E-16));
#456=CARTESIAN_POINT('',(0.0,0.0,0.0));
#457=CARTESIAN_POINT('',(9.14867737970017,4.7625,0.0));
#458=CARTESIAN_POINT('',(9.14867737970017,4.7625,-3.96875));
#459=CARTESIAN_POINT('',(7.19725354670809,3.74665305088292,-3.96875));
#460=CARTESIAN_POINT('',(9.14867737970017,9.03769877391659,-3.96875));
#461=CARTESIAN_POINT('',(7.08267689782293,9.03769877391658,-3.96875));
#462=CARTESIAN_POINT('',(16.772575196117,9.03769877391659,-3.96875));
#463=CARTESIAN_POINT('',(16.772575196117,8.73125,-3.96875));
#464=CARTESIAN_POINT('',(17.0236033357406,8.55547820433276,-3.96875));
#465=CARTESIAN_POINT('',(12.6507151950957,2.31034672256455,-3.96875));
#466=CARTESIAN_POINT('',(11.465706001201,0.617978204332765,-3.96875));
#467=CARTESIAN_POINT('',(11.2146778615774,0.793749999999998,-3.96875));
#468=CARTESIAN_POINT('',(11.2146778615774,0.487301226083397,-3.96875));
#469=CARTESIAN_POINT('',(9.14867737970017,0.487301226083397,-3.96875));
#470=CARTESIAN_POINT('',(1.52477956328336,0.487301226083398,-3.96875));
#471=CARTESIAN_POINT('',(1.52477956328336,0.79375,-3.96875));
#472=CARTESIAN_POINT('',(1.27375142365972,0.969521795667227,-3.96875));
#473=CARTESIAN_POINT('',(5.6466395643046,7.21465327743544,-3.96875));
#474=CARTESIAN_POINT('',(6.83164875819929,8.90702179566722,-3.96875));
#475=CARTESIAN_POINT('',(7.08267689782293,8.73124999999999,-3.96875));
#476=CARTESIAN_POINT('',(8.98920404722148,4.25671520759503,-3.96875));
#477=CARTESIAN_POINT('',(9.14867737970017,9.52499999999999,-5.65390330310514E-15));
#478=CARTESIAN_POINT('',(16.772575196117,9.525,-4.78039290778288E-15));
#479=CARTESIAN_POINT('',(7.08267689782293,9.52499999999999,-5.89061593240803E-15));
#480=CARTESIAN_POINT('',(16.772575196117,9.525,-4.42770892789238E-15));
#481=CARTESIAN_POINT('',(7.08267689782293,9.52499999999999,-5.19096184501316E-15));
#482=CARTESIAN_POINT('',(9.14867737970017,9.52499999999999,-5.65390330310514E-15));
#483=CARTESIAN_POINT('',(0.87457762812897,1.24902629635364,-1.87784085249613E-15));
#484=CARTESIAN_POINT('',(0.87457762812897,1.24902629635364,-1.87442105708432E-15));
#485=CARTESIAN_POINT('',(5.24746576877385,7.49415777812186,-4.94080650733019E-15));
#486=CARTESIAN_POINT('',(6.43247496266854,9.18652629635363,-5.77176646644554E-15));
#487=CARTESIAN_POINT('',(6.43247496266854,9.18652629635363,-5.36649394266664E-15));
#488=CARTESIAN_POINT('',(5.24746576877385,7.49415777812185,-4.94080650733019E-15));
#489=CARTESIAN_POINT('',(11.2146778615774,-3.46944695195361E-15,-6.27800564237425E-18));
#490=CARTESIAN_POINT('',(11.2146778615774,-3.46944695195361E-15,2.37811366544766E-17));
#491=CARTESIAN_POINT('',(9.14867737970017,-3.46944695195361E-15,-2.12931492648413E-16));
#492=CARTESIAN_POINT('',(1.52477956328336,-2.60208521396521E-15,-1.08644188797068E-15));
#493=CARTESIAN_POINT('',(1.52477956328336,-2.60208521396521E-15,-9.01872755672692E-16));
#494=CARTESIAN_POINT('',(9.14867737970017,-2.60208521396521E-15,-2.12931492648414E-16));
#495=CARTESIAN_POINT('',(17.4227771312714,8.27597370364635,-3.39619619331132E-15));
#496=CARTESIAN_POINT('',(17.4227771312714,8.27597370364635,-3.99241373866925E-15));
#497=CARTESIAN_POINT('',(13.0498889906265,2.03084222187815,-9.26028288423373E-16));
#498=CARTESIAN_POINT('',(11.8648797967318,0.338473703646354,-9.5068329308016E-17));
#499=CARTESIAN_POINT('',(11.8648797967318,0.338473703646354,6.33806256834817E-17));
#500=CARTESIAN_POINT('',(13.0498889906265,2.03084222187814,-9.2602828842337E-16));
#501=CARTESIAN_POINT('',(9.14867737970017,4.7625,-6.93889390390723E-15));
#502=CARTESIAN_POINT('',(6.42437852364753,3.34431977968317,-6.93889390390723E-15));
#503=CARTESIAN_POINT('',(16.772575196117,8.73125,-4.32697859024482E-15));
#504=CARTESIAN_POINT('',(7.08267689782293,8.73124999999999,-5.43720161486997E-15));
#505=CARTESIAN_POINT('',(1.52477956328336,0.793749999999999,-1.53985620550875E-15));
#506=CARTESIAN_POINT('',(11.2146778615774,0.793749999999997,-4.29633180883585E-16));
#507=CARTESIAN_POINT('',(9.14867737970017,4.7625,-2.93341739787678E-15));
#508=CARTESIAN_POINT('',(16.772575196117,8.73125,-4.33680868994202E-15));
#509=CARTESIAN_POINT('',(11.2146778615774,0.793749999999997,0.0));
#510=CARTESIAN_POINT('',(1.52477956328336,0.793749999999999,-8.67361737988404E-16));
#511=CARTESIAN_POINT('',(7.08267689782293,8.73124999999999,-5.20417042793042E-15));
#512=CARTESIAN_POINT('',(9.14867737970017,4.7625,-0.9334513189811));
#513=CARTESIAN_POINT('',(11.8150781338491,6.15054037617628,-0.9334513189811));
#514=CARTESIAN_POINT('',(9.14867737970017,4.7625,-1.02000000000516));
#515=CARTESIAN_POINT('',(9.14867737970017,4.7625,-1.08746453661101));
#516=CARTESIAN_POINT('',(11.7657990129709,6.1248872895669,-1.08746453661101));
#517=CARTESIAN_POINT('',(9.14867737970017,4.7625,-3.42000000000001));
#518=CARTESIAN_POINT('',(7.19725354670809,3.74665305088292,-3.42000000000001));
#519=CARTESIAN_POINT('',(9.14867737970017,4.7625,-3.42));
#520=CARTESIAN_POINT('',(9.14867737970017,4.7625,-33.3676978394524));
#521=CARTESIAN_POINT('',(9.14867737970017,4.7625,-0.912524376856841));
#522=MECHANICAL_DESIGN_GEOMETRIC_PRESENTATION_REPRESENTATION('',(#265,#266,#267,
     #268),#523);
#523=(GEOMETRIC_REPRESENTATION_CONTEXT(3)GLOBAL_UNCERTAINTY_ASSIGNED_CONTEXT((#524))
     GLOBAL_UNIT_ASSIGNED_CONTEXT((#530,#526,#525))REPRESENTATION_CONTEXT('DCMX11T308-WM',
     'TOP_LEVEL_ASSEMBLY_PART'));
#524=UNCERTAINTY_MEASURE_WITH_UNIT(LENGTH_MEASURE(2.0E-5),#530,'DISTANCE_ACCURACY_VALUE',
     'Maximum Tolerance applied to model');
#525=(NAMED_UNIT(*)SI_UNIT($,.STERADIAN.)SOLID_ANGLE_UNIT());
#526=(CONVERSION_BASED_UNIT('DEGREE',#528)NAMED_UNIT(#527)PLANE_ANGLE_UNIT());
#527=DIMENSIONAL_EXPONENTS(0.0,0.0,0.0,0.0,0.0,0.0,0.0);
#528=PLANE_ANGLE_MEASURE_WITH_UNIT(PLANE_ANGLE_MEASURE(0.0174532925),#529);
#529=(NAMED_UNIT(*)PLANE_ANGLE_UNIT()SI_UNIT($,.RADIAN.));
#530=(LENGTH_UNIT()NAMED_UNIT(*)SI_UNIT(.MILLI.,.METRE.));
#531=CONSTRUCTIVE_GEOMETRY_REPRESENTATION('supplemental geometry',(#282,#283),#523);
#532=CONSTRUCTIVE_GEOMETRY_REPRESENTATION_RELATIONSHIP('supplemental geometry','contains PCS and MCS coordinate systems',
     #24,#531);
ENDSEC;
END-ISO-10303-21;
