ISO-10303-21;
HEADER;
FILE_DESCRIPTION(
/* description */ (''),
/* implementation_level */ '2;1');
FILE_NAME(
/* name */ 'SNMG120404.stp',
/* time_stamp */ '2017-03-21T10:54:20',
/* author */ ('Sandvik Coromant R&D'),
/* organization */ ('Sandvik Machining Solutions'),
/* preprocessor_version */ 'ST-DEVELOPER v15',
/* originating_system */ 'SIEMENS PLM Software NX v8.5.3.3(64 bits)',
/* authorization */ '');
FILE_SCHEMA(('AUTOMOTIVE_DESIGN'));
ENDSEC;
DATA;
#10=GEOMETRICALLY_BOUNDED_WIREFRAME_SHAPE_REPRESENTATION('IsoTurningInsert-None',
     (#25),#443);
#11=SHAPE_REPRESENTATION_RELATIONSHIP('None','relationship between IsoTurningInsert-None and IsoTurningInsert-None',
     #24,#13);
#12=SHAPE_REPRESENTATION_RELATIONSHIP('None','relationship between IsoTurningInsert-None and IsoTurningInsert-None',
     #24,#10);
#13=ADVANCED_BREP_SHAPE_REPRESENTATION('IsoTurningInsert-None',(#31),#443);
#14=SHAPE_DEFINITION_REPRESENTATION(#15,#24);
#15=PRODUCT_DEFINITION_SHAPE('','',#16);
#16=PRODUCT_DEFINITION(' ','',#18,#17);
#17=PRODUCT_DEFINITION_CONTEXT('part definition',#23,'design');
#18=PRODUCT_DEFINITION_FORMATION_WITH_SPECIFIED_SOURCE(' ',' ',#20,.NOT_KNOWN.);
#19=PRODUCT_RELATED_PRODUCT_CATEGORY('part','',(#20));
#20=PRODUCT('IsoTurningInsert','IsoTurningInsert',' ',(#21));
#21=PRODUCT_CONTEXT(' ',#23,'mechanical');
#22=APPLICATION_PROTOCOL_DEFINITION('international standard','automotive_design',
     2010,#23);
#23=APPLICATION_CONTEXT('core data for automotive mechanical design processes');
#24=SHAPE_REPRESENTATION('IsoTurningInsert-None',(#248),#443);
#25=GEOMETRIC_CURVE_SET('geometric curve set',(#228));
#26=SURFACE_STYLE_USAGE(.BOTH.,#27);
#27=SURFACE_SIDE_STYLE('',(#28));
#28=SURFACE_STYLE_FILL_AREA(#29);
#29=FILL_AREA_STYLE('',(#30));
#30=FILL_AREA_STYLE_COLOUR('',#247);
#31=MANIFOLD_SOLID_BREP('CUT',#32);
#32=CLOSED_SHELL('',(#46,#47,#48,#49,#50,#51,#52,#53,#54,#55,#56));
#33=CYLINDRICAL_SURFACE('',#267,0.396875);
#34=CYLINDRICAL_SURFACE('',#268,0.396875);
#35=CYLINDRICAL_SURFACE('',#269,0.396875);
#36=CYLINDRICAL_SURFACE('',#270,0.396875);
#37=CYLINDRICAL_SURFACE('',#271,2.578);
#38=FACE_OUTER_BOUND('',#103,.T.);
#39=FACE_OUTER_BOUND('',#104,.T.);
#40=FACE_OUTER_BOUND('',#105,.T.);
#41=FACE_OUTER_BOUND('',#106,.T.);
#42=FACE_OUTER_BOUND('',#109,.T.);
#43=FACE_OUTER_BOUND('',#110,.T.);
#44=FACE_OUTER_BOUND('',#111,.T.);
#45=FACE_OUTER_BOUND('',#112,.T.);
#46=ADVANCED_FACE('',(#95,#96),#57,.F.);
#47=ADVANCED_FACE('',(#38),#58,.T.);
#48=ADVANCED_FACE('',(#39),#59,.T.);
#49=ADVANCED_FACE('',(#40),#60,.T.);
#50=ADVANCED_FACE('',(#41),#61,.T.);
#51=ADVANCED_FACE('',(#97,#98),#62,.T.);
#52=ADVANCED_FACE('',(#42),#33,.T.);
#53=ADVANCED_FACE('',(#43),#34,.T.);
#54=ADVANCED_FACE('',(#44),#35,.T.);
#55=ADVANCED_FACE('',(#45),#36,.T.);
#56=ADVANCED_FACE('',(#99,#100),#37,.F.);
#57=PLANE('',#256);
#58=PLANE('',#257);
#59=PLANE('',#258);
#60=PLANE('',#259);
#61=PLANE('',#260);
#62=PLANE('',#266);
#63=LINE('',#389,#79);
#64=LINE('',#394,#80);
#65=LINE('',#398,#81);
#66=LINE('',#402,#82);
#67=LINE('',#406,#83);
#68=LINE('',#409,#84);
#69=LINE('',#410,#85);
#70=LINE('',#412,#86);
#71=LINE('',#414,#87);
#72=LINE('',#416,#88);
#73=LINE('',#418,#89);
#74=LINE('',#420,#90);
#75=LINE('',#422,#91);
#76=LINE('',#424,#92);
#77=LINE('',#426,#93);
#78=LINE('',#428,#94);
#79=VECTOR('',#280,1.0);
#80=VECTOR('',#283,1.0);
#81=VECTOR('',#286,1.0);
#82=VECTOR('',#289,1.0);
#83=VECTOR('',#294,1.0);
#84=VECTOR('',#295,1.0);
#85=VECTOR('',#296,1.0);
#86=VECTOR('',#299,1.0);
#87=VECTOR('',#300,1.0);
#88=VECTOR('',#301,1.0);
#89=VECTOR('',#304,1.0);
#90=VECTOR('',#305,1.0);
#91=VECTOR('',#306,1.0);
#92=VECTOR('',#309,1.0);
#93=VECTOR('',#310,1.0);
#94=VECTOR('',#311,1.0);
#95=FACE_BOUND('',#101,.T.);
#96=FACE_BOUND('',#102,.T.);
#97=FACE_BOUND('',#107,.T.);
#98=FACE_BOUND('',#108,.T.);
#99=FACE_BOUND('',#113,.T.);
#100=FACE_BOUND('',#114,.T.);
#101=EDGE_LOOP('',(#115));
#102=EDGE_LOOP('',(#116,#117,#118,#119,#120,#121,#122,#123));
#103=EDGE_LOOP('',(#124,#125,#126,#127));
#104=EDGE_LOOP('',(#128,#129,#130,#131));
#105=EDGE_LOOP('',(#132,#133,#134,#135));
#106=EDGE_LOOP('',(#136,#137,#138,#139));
#107=EDGE_LOOP('',(#140));
#108=EDGE_LOOP('',(#141,#142,#143,#144,#145,#146,#147,#148));
#109=EDGE_LOOP('',(#149,#150,#151,#152));
#110=EDGE_LOOP('',(#153,#154,#155,#156));
#111=EDGE_LOOP('',(#157,#158,#159,#160));
#112=EDGE_LOOP('',(#161,#162,#163,#164));
#113=EDGE_LOOP('',(#165));
#114=EDGE_LOOP('',(#166));
#115=ORIENTED_EDGE('',*,*,#185,.T.);
#116=ORIENTED_EDGE('',*,*,#186,.T.);
#117=ORIENTED_EDGE('',*,*,#187,.T.);
#118=ORIENTED_EDGE('',*,*,#188,.T.);
#119=ORIENTED_EDGE('',*,*,#189,.T.);
#120=ORIENTED_EDGE('',*,*,#190,.T.);
#121=ORIENTED_EDGE('',*,*,#191,.T.);
#122=ORIENTED_EDGE('',*,*,#192,.T.);
#123=ORIENTED_EDGE('',*,*,#193,.T.);
#124=ORIENTED_EDGE('',*,*,#194,.F.);
#125=ORIENTED_EDGE('',*,*,#195,.T.);
#126=ORIENTED_EDGE('',*,*,#186,.F.);
#127=ORIENTED_EDGE('',*,*,#196,.T.);
#128=ORIENTED_EDGE('',*,*,#192,.F.);
#129=ORIENTED_EDGE('',*,*,#197,.T.);
#130=ORIENTED_EDGE('',*,*,#198,.F.);
#131=ORIENTED_EDGE('',*,*,#199,.T.);
#132=ORIENTED_EDGE('',*,*,#190,.F.);
#133=ORIENTED_EDGE('',*,*,#200,.T.);
#134=ORIENTED_EDGE('',*,*,#201,.F.);
#135=ORIENTED_EDGE('',*,*,#202,.T.);
#136=ORIENTED_EDGE('',*,*,#188,.F.);
#137=ORIENTED_EDGE('',*,*,#203,.T.);
#138=ORIENTED_EDGE('',*,*,#204,.F.);
#139=ORIENTED_EDGE('',*,*,#205,.T.);
#140=ORIENTED_EDGE('',*,*,#206,.F.);
#141=ORIENTED_EDGE('',*,*,#204,.T.);
#142=ORIENTED_EDGE('',*,*,#207,.T.);
#143=ORIENTED_EDGE('',*,*,#194,.T.);
#144=ORIENTED_EDGE('',*,*,#208,.T.);
#145=ORIENTED_EDGE('',*,*,#198,.T.);
#146=ORIENTED_EDGE('',*,*,#209,.T.);
#147=ORIENTED_EDGE('',*,*,#201,.T.);
#148=ORIENTED_EDGE('',*,*,#210,.T.);
#149=ORIENTED_EDGE('',*,*,#187,.F.);
#150=ORIENTED_EDGE('',*,*,#195,.F.);
#151=ORIENTED_EDGE('',*,*,#207,.F.);
#152=ORIENTED_EDGE('',*,*,#203,.F.);
#153=ORIENTED_EDGE('',*,*,#189,.F.);
#154=ORIENTED_EDGE('',*,*,#205,.F.);
#155=ORIENTED_EDGE('',*,*,#210,.F.);
#156=ORIENTED_EDGE('',*,*,#200,.F.);
#157=ORIENTED_EDGE('',*,*,#191,.F.);
#158=ORIENTED_EDGE('',*,*,#202,.F.);
#159=ORIENTED_EDGE('',*,*,#209,.F.);
#160=ORIENTED_EDGE('',*,*,#197,.F.);
#161=ORIENTED_EDGE('',*,*,#193,.F.);
#162=ORIENTED_EDGE('',*,*,#199,.F.);
#163=ORIENTED_EDGE('',*,*,#208,.F.);
#164=ORIENTED_EDGE('',*,*,#196,.F.);
#165=ORIENTED_EDGE('',*,*,#185,.F.);
#166=ORIENTED_EDGE('',*,*,#206,.T.);
#167=VERTEX_POINT('',#388);
#168=VERTEX_POINT('',#390);
#169=VERTEX_POINT('',#391);
#170=VERTEX_POINT('',#393);
#171=VERTEX_POINT('',#395);
#172=VERTEX_POINT('',#397);
#173=VERTEX_POINT('',#399);
#174=VERTEX_POINT('',#401);
#175=VERTEX_POINT('',#403);
#176=VERTEX_POINT('',#407);
#177=VERTEX_POINT('',#408);
#178=VERTEX_POINT('',#413);
#179=VERTEX_POINT('',#415);
#180=VERTEX_POINT('',#419);
#181=VERTEX_POINT('',#421);
#182=VERTEX_POINT('',#425);
#183=VERTEX_POINT('',#427);
#184=VERTEX_POINT('',#431);
#185=EDGE_CURVE('',#167,#167,#211,.T.);
#186=EDGE_CURVE('',#168,#169,#63,.T.);
#187=EDGE_CURVE('',#169,#170,#212,.T.);
#188=EDGE_CURVE('',#170,#171,#64,.T.);
#189=EDGE_CURVE('',#171,#172,#213,.T.);
#190=EDGE_CURVE('',#172,#173,#65,.T.);
#191=EDGE_CURVE('',#173,#174,#214,.T.);
#192=EDGE_CURVE('',#174,#175,#66,.T.);
#193=EDGE_CURVE('',#175,#168,#215,.T.);
#194=EDGE_CURVE('',#176,#177,#67,.T.);
#195=EDGE_CURVE('',#176,#169,#68,.T.);
#196=EDGE_CURVE('',#168,#177,#69,.T.);
#197=EDGE_CURVE('',#174,#178,#70,.T.);
#198=EDGE_CURVE('',#179,#178,#71,.T.);
#199=EDGE_CURVE('',#179,#175,#72,.T.);
#200=EDGE_CURVE('',#172,#180,#73,.T.);
#201=EDGE_CURVE('',#181,#180,#74,.T.);
#202=EDGE_CURVE('',#181,#173,#75,.T.);
#203=EDGE_CURVE('',#170,#182,#76,.T.);
#204=EDGE_CURVE('',#183,#182,#77,.T.);
#205=EDGE_CURVE('',#183,#171,#78,.T.);
#206=EDGE_CURVE('',#184,#184,#216,.T.);
#207=EDGE_CURVE('',#182,#176,#217,.T.);
#208=EDGE_CURVE('',#177,#179,#218,.T.);
#209=EDGE_CURVE('',#178,#181,#219,.T.);
#210=EDGE_CURVE('',#180,#183,#220,.T.);
#211=CIRCLE('',#251,2.578);
#212=CIRCLE('',#252,0.396875);
#213=CIRCLE('',#253,0.396875);
#214=CIRCLE('',#254,0.396875);
#215=CIRCLE('',#255,0.396875);
#216=CIRCLE('',#261,2.578);
#217=CIRCLE('',#262,0.396875);
#218=CIRCLE('',#263,0.396875);
#219=CIRCLE('',#264,0.396875);
#220=CIRCLE('',#265,0.396875);
#221=CURVE_STYLE('',#225,POSITIVE_LENGTH_MEASURE(0.18),#224);
#222=CURVE_STYLE('',#226,POSITIVE_LENGTH_MEASURE(0.18),#246);
#223=CURVE_STYLE('',#227,POSITIVE_LENGTH_MEASURE(0.18),#246);
#224=DRAUGHTING_PRE_DEFINED_COLOUR('blue');
#225=DRAUGHTING_PRE_DEFINED_CURVE_FONT('continuous');
#226=DRAUGHTING_PRE_DEFINED_CURVE_FONT('continuous');
#227=DRAUGHTING_PRE_DEFINED_CURVE_FONT('continuous');
#228=B_SPLINE_CURVE_WITH_KNOTS('CUTTING EDGE LINE',5,(#339,#340,#341,#342,#343,#344,
     #345,#346,#347,#348,#349,#350,#351,#352,#353,#354,#355,#356,#357,#358,#359,
     #360,#361,#362,#363,#364,#365,#366,#367,#368,#369,#370,#371,#372,#373,#374,
     #375,#376,#377,#378,#379,#380,#381,#382,#383,#384),.UNSPECIFIED.,.T.,.F.,(2,
     4,1,1,1,4,4,1,1,1,4,4,1,1,1,4,4,1,1,1,4,4,1,1),(-0.2375613185,0.0,0.00310967037499998,
     0.00621934074999997,0.00932901112499995,0.0124386815,0.25,0.253109670375,0.25621934075,
     0.259329011125,0.2624386815,0.5,0.503109670375,0.50621934075,0.509329011125,
     0.5124386815,0.75,0.753109670375,0.75621934075,0.759329011125,0.7624386815,
     1.0,1.003109670375,1.00621934075),.UNSPECIFIED.);
#229=PRESENTATION_LAYER_ASSIGNMENT('1','Layer 1',(#228,#249,#250,#31));
#232=STYLED_ITEM('',(#238),#228);
#233=STYLED_ITEM('',(#239),#249);
#234=STYLED_ITEM('',(#240),#250);
#235=STYLED_ITEM('',(#241),#31);
#236=PRESENTATION_STYLE_ASSIGNMENT((#242));
#237=PRESENTATION_STYLE_ASSIGNMENT((#243));
#238=PRESENTATION_STYLE_ASSIGNMENT((#221));
#239=PRESENTATION_STYLE_ASSIGNMENT((#222));
#240=PRESENTATION_STYLE_ASSIGNMENT((#223));
#241=PRESENTATION_STYLE_ASSIGNMENT((#26));
#242=POINT_STYLE('',#244,POSITIVE_LENGTH_MEASURE(3.0),#246);
#243=POINT_STYLE('',#245,POSITIVE_LENGTH_MEASURE(3.0),#246);
#244=PRE_DEFINED_POINT_MARKER_SYMBOL('plus');
#245=PRE_DEFINED_POINT_MARKER_SYMBOL('plus');
#246=COLOUR_RGB('Medium Maroon',0.6,0.4,0.4);
#247=COLOUR_RGB('IsoInsertColor',0.8,0.8,0.8);
#248=AXIS2_PLACEMENT_3D('',#336,#272,#273);
#249=AXIS2_PLACEMENT_3D('PCS',#385,#274,#275);
#250=AXIS2_PLACEMENT_3D('MCS',#386,#276,#277);
#251=AXIS2_PLACEMENT_3D('',#387,#278,#279);
#252=AXIS2_PLACEMENT_3D('',#392,#281,#282);
#253=AXIS2_PLACEMENT_3D('',#396,#284,#285);
#254=AXIS2_PLACEMENT_3D('',#400,#287,#288);
#255=AXIS2_PLACEMENT_3D('',#404,#290,#291);
#256=AXIS2_PLACEMENT_3D('',#405,#292,#293);
#257=AXIS2_PLACEMENT_3D('',#411,#297,#298);
#258=AXIS2_PLACEMENT_3D('',#417,#302,#303);
#259=AXIS2_PLACEMENT_3D('',#423,#307,#308);
#260=AXIS2_PLACEMENT_3D('',#429,#312,#313);
#261=AXIS2_PLACEMENT_3D('',#430,#314,#315);
#262=AXIS2_PLACEMENT_3D('',#432,#316,#317);
#263=AXIS2_PLACEMENT_3D('',#433,#318,#319);
#264=AXIS2_PLACEMENT_3D('',#434,#320,#321);
#265=AXIS2_PLACEMENT_3D('',#435,#322,#323);
#266=AXIS2_PLACEMENT_3D('',#436,#324,#325);
#267=AXIS2_PLACEMENT_3D('',#437,#326,#327);
#268=AXIS2_PLACEMENT_3D('',#438,#328,#329);
#269=AXIS2_PLACEMENT_3D('',#439,#330,#331);
#270=AXIS2_PLACEMENT_3D('',#440,#332,#333);
#271=AXIS2_PLACEMENT_3D('',#441,#334,#335);
#272=DIRECTION('',(0.0,0.0,1.0));
#273=DIRECTION('',(1.0,0.0,0.0));
#274=DIRECTION('',(0.0,0.0,1.0));
#275=DIRECTION('',(1.0,0.0,0.0));
#276=DIRECTION('',(0.0,0.0,1.0));
#277=DIRECTION('',(1.0,0.0,0.0));
#278=DIRECTION('',(0.0,0.0,1.0));
#279=DIRECTION('',(-0.707106781186548,-0.707106781186548,0.0));
#280=DIRECTION('',(1.0,-5.55111512312578E-16,0.0));
#281=DIRECTION('',(0.0,0.0,-1.0));
#282=DIRECTION('',(-0.707106781186549,-0.707106781186549,0.0));
#283=DIRECTION('',(-2.77555756156289E-16,-1.0,0.0));
#284=DIRECTION('',(0.0,0.0,-1.0));
#285=DIRECTION('',(-0.707106781186549,-0.707106781186547,0.0));
#286=DIRECTION('',(-1.0,-1.11022302462516E-16,0.0));
#287=DIRECTION('',(0.0,0.0,-1.0));
#288=DIRECTION('',(-0.707106781186548,-0.707106781186547,0.0));
#289=DIRECTION('',(0.0,1.0,0.0));
#290=DIRECTION('',(0.0,0.0,-1.0));
#291=DIRECTION('',(-0.707106781186548,-0.707106781186549,0.0));
#292=DIRECTION('',(0.0,0.0,1.0));
#293=DIRECTION('',(-0.707106781186548,-0.707106781186547,0.0));
#294=DIRECTION('',(-1.0,5.55111512312578E-16,-1.04902962956708E-16));
#295=DIRECTION('',(1.04902962956707E-16,-3.68253109545943E-16,-1.0));
#296=DIRECTION('',(-1.04902962956707E-16,3.68253109545943E-16,1.0));
#297=DIRECTION('',(5.55111512312578E-16,1.0,-3.68253109545943E-16));
#298=DIRECTION('',(-1.0,5.55111512312578E-16,0.0));
#299=DIRECTION('',(-1.04902962956707E-16,3.68253109545943E-16,1.0));
#300=DIRECTION('',(0.0,-1.0,3.68253109545943E-16));
#301=DIRECTION('',(1.04902962956707E-16,-3.68253109545943E-16,-1.0));
#302=DIRECTION('',(-1.0,0.0,-1.04902962956707E-16));
#303=DIRECTION('',(0.0,-1.0,0.0));
#304=DIRECTION('',(-1.04902962956707E-16,3.68253109545943E-16,1.0));
#305=DIRECTION('',(1.0,1.11022302462516E-16,1.04902962956707E-16));
#306=DIRECTION('',(1.04902962956707E-16,-3.68253109545943E-16,-1.0));
#307=DIRECTION('',(1.11022302462516E-16,-1.0,3.68253109545943E-16));
#308=DIRECTION('',(1.0,1.11022302462516E-16,0.0));
#309=DIRECTION('',(-1.04902962956707E-16,3.68253109545943E-16,1.0));
#310=DIRECTION('',(2.77555756156289E-16,1.0,-3.68253109545943E-16));
#311=DIRECTION('',(1.04902962956707E-16,-3.68253109545943E-16,-1.0));
#312=DIRECTION('',(1.0,-2.77555756156289E-16,1.04902962956708E-16));
#313=DIRECTION('',(2.77555756156289E-16,1.0,0.0));
#314=DIRECTION('',(0.0,0.0,1.0));
#315=DIRECTION('',(-0.707106781186548,-0.707106781186548,0.0));
#316=DIRECTION('',(-1.04902962956707E-16,3.68253109545943E-16,1.0));
#317=DIRECTION('',(-0.707106781186549,0.707106781186549,-3.34571867426218E-16));
#318=DIRECTION('',(-1.04902962956707E-16,3.68253109545943E-16,1.0));
#319=DIRECTION('',(-0.707106781186547,0.707106781186549,-3.34571867426218E-16));
#320=DIRECTION('',(-1.04902962956707E-16,3.68253109545943E-16,1.0));
#321=DIRECTION('',(-0.707106781186547,0.707106781186547,-3.34571867426217E-16));
#322=DIRECTION('',(-1.04902962956707E-16,3.68253109545943E-16,1.0));
#323=DIRECTION('',(-0.707106781186549,0.707106781186547,-3.34571867426218E-16));
#324=DIRECTION('',(-1.04902962956707E-16,3.68253109545943E-16,1.0));
#325=DIRECTION('',(-0.707106781186547,0.707106781186548,-3.34571867426218E-16));
#326=DIRECTION('',(-1.04902962956707E-16,3.68253109545943E-16,1.0));
#327=DIRECTION('',(-0.707106781186549,0.707106781186549,-3.34571867426218E-16));
#328=DIRECTION('',(-1.04902962956707E-16,3.68253109545943E-16,1.0));
#329=DIRECTION('',(-0.707106781186549,0.707106781186547,-3.34571867426218E-16));
#330=DIRECTION('',(-1.04902962956707E-16,3.68253109545943E-16,1.0));
#331=DIRECTION('',(-0.707106781186547,0.707106781186547,-3.34571867426217E-16));
#332=DIRECTION('',(-1.04902962956707E-16,3.68253109545943E-16,1.0));
#333=DIRECTION('',(-0.707106781186547,0.707106781186549,-3.34571867426218E-16));
#334=DIRECTION('',(0.0,0.0,1.0));
#335=DIRECTION('',(-0.707106781186548,-0.707106781186548,0.0));
#336=CARTESIAN_POINT('',(0.0,0.0,0.0));
#339=CARTESIAN_POINT('',(9.921875,-5.32907051820075E-15,-4.93038065763132E-33));
#340=CARTESIAN_POINT('',(12.3311883003783,-1.77635683940025E-15,1.49094376211079E-16));
#341=CARTESIAN_POINT('',(12.387314901135,0.00496093749999815,1.52895133749108E-16));
#342=CARTESIAN_POINT('',(12.4829112630947,0.0290837384930001,1.52774902240437E-16));
#343=CARTESIAN_POINT('',(12.5952913706769,0.104708629322938,1.32748169735334E-16));
#344=CARTESIAN_POINT('',(12.6709162615071,0.21708873690559,9.34026176568766E-17));
#345=CARTESIAN_POINT('',(12.6950390625,0.312685098864976,5.57153425943148E-17));
#346=CARTESIAN_POINT('',(12.7,0.368811699621658,3.26230410201839E-17));
#347=CARTESIAN_POINT('',(12.7,2.778125,1.24900090270331E-17));
#348=CARTESIAN_POINT('',(12.7,5.159375,8.32667268468874E-18));
#349=CARTESIAN_POINT('',(12.7,7.540625,8.32667268468869E-18));
#350=CARTESIAN_POINT('',(12.7,9.92187499999999,1.2490009027033E-17));
#351=CARTESIAN_POINT('',(12.7,12.3311883003783,1.19542457632918E-17));
#352=CARTESIAN_POINT('',(12.6950390625,12.387314901135,-5.37760284604204E-18));
#353=CARTESIAN_POINT('',(12.670916261507,12.4829112630947,-3.3655994650902E-17));
#354=CARTESIAN_POINT('',(12.5952913706771,12.5952913706769,-6.31545401055076E-17));
#355=CARTESIAN_POINT('',(12.4829112630944,12.6709162615071,-7.8133847980732E-17));
#356=CARTESIAN_POINT('',(12.387314901135,12.6950390625,-7.81783806488541E-17));
#357=CARTESIAN_POINT('',(12.3311883003783,12.7,-7.52985018797139E-17));
#358=CARTESIAN_POINT('',(9.921875,12.7,-4.38451358553138E-17));
#359=CARTESIAN_POINT('',(7.540625,12.7,-2.92300905702092E-17));
#360=CARTESIAN_POINT('',(5.159375,12.7,-2.92300905702093E-17));
#361=CARTESIAN_POINT('',(2.778125,12.7,-4.38451358553139E-17));
#362=CARTESIAN_POINT('',(0.368811699621654,12.7,-8.11863485997783E-17));
#363=CARTESIAN_POINT('',(0.312685098864977,12.6950390625,-9.53215037662538E-17));
#364=CARTESIAN_POINT('',(0.217088736905324,12.670916261507,-1.12803101034042E-16));
#365=CARTESIAN_POINT('',(0.104708629323138,12.5952913706771,-1.13468530563064E-16));
#366=CARTESIAN_POINT('',(0.0290837384929112,12.4829112630944,-8.80475290882584E-17));
#367=CARTESIAN_POINT('',(0.00496093749999815,12.387314901135,-5.48019022639953E-17));
#368=CARTESIAN_POINT('',(-1.77635683940025E-15,12.3311883003783,-3.26230410201834E-17));
#369=CARTESIAN_POINT('',(-1.77635683940025E-15,9.921875,-1.24900090270329E-17));
#370=CARTESIAN_POINT('',(-1.77635683940025E-15,7.540625,-8.32667268468862E-18));
#371=CARTESIAN_POINT('',(-1.77635683940025E-15,5.159375,-8.32667268468871E-18));
#372=CARTESIAN_POINT('',(-1.77635683940025E-15,2.778125,-1.24900090270331E-17));
#373=CARTESIAN_POINT('',(0.0,0.368811699621657,-1.1954245763292E-17));
#374=CARTESIAN_POINT('',(0.00496093749999638,0.312685098864971,5.37760284604195E-18));
#375=CARTESIAN_POINT('',(0.0290837384930018,0.217088736905333,3.3655994650902E-17));
#376=CARTESIAN_POINT('',(0.104708629322936,0.104708629323134,6.31545401055078E-17));
#377=CARTESIAN_POINT('',(0.217088736905588,0.0290837384929015,7.81338479807324E-17));
#378=CARTESIAN_POINT('',(0.312685098864975,0.00496093749999282,7.81783806488544E-17));
#379=CARTESIAN_POINT('',(0.368811699621658,-7.105427357601E-15,7.52985018797141E-17));
#380=CARTESIAN_POINT('',(2.778125,-7.105427357601E-15,4.38451358553139E-17));
#381=CARTESIAN_POINT('',(5.159375,-7.105427357601E-15,2.19225679276569E-17));
#382=CARTESIAN_POINT('',(7.540625,-5.32907051820075E-15,7.30752264255231E-18));
#383=CARTESIAN_POINT('',(9.921875,-5.32907051820075E-15,-4.93038065763132E-33));
#384=CARTESIAN_POINT('',(12.3311883003783,-1.77635683940025E-15,1.49094376211079E-16));
#385=CARTESIAN_POINT('',(0.0,0.0,0.0));
#386=CARTESIAN_POINT('',(6.35,6.35,0.0));
#387=CARTESIAN_POINT('',(6.35,6.35,-4.7625));
#388=CARTESIAN_POINT('',(4.52707871810108,4.52707871810108,-4.7625));
#389=CARTESIAN_POINT('',(6.35,12.7,-4.7625));
#390=CARTESIAN_POINT('',(0.396874999999995,12.7,-4.7625));
#391=CARTESIAN_POINT('',(12.303125,12.7,-4.7625));
#392=CARTESIAN_POINT('',(12.303125,12.303125,-4.7625));
#393=CARTESIAN_POINT('',(12.7,12.303125,-4.7625));
#394=CARTESIAN_POINT('',(12.7,6.35,-4.7625));
#395=CARTESIAN_POINT('',(12.7,0.396874999999996,-4.7625));
#396=CARTESIAN_POINT('',(12.303125,0.396874999999997,-4.7625));
#397=CARTESIAN_POINT('',(12.303125,-5.20417042793042E-15,-4.7625));
#398=CARTESIAN_POINT('',(6.35,-5.20417042793042E-15,-4.7625));
#399=CARTESIAN_POINT('',(0.396875,-6.07153216591882E-15,-4.7625));
#400=CARTESIAN_POINT('',(0.396874999999999,0.396874999999993,-4.7625));
#401=CARTESIAN_POINT('',(-2.60208521396521E-15,0.396874999999994,-4.7625));
#402=CARTESIAN_POINT('',(-2.60208521396521E-15,6.35,-4.7625));
#403=CARTESIAN_POINT('',(-2.60208521396521E-15,12.303125,-4.7625));
#404=CARTESIAN_POINT('',(0.396874999999998,12.303125,-4.7625));
#405=CARTESIAN_POINT('',(6.35,5.81966991411009,-4.7625));
#406=CARTESIAN_POINT('',(6.35,12.7,-5.27182464349351E-15));
#407=CARTESIAN_POINT('',(12.303125,12.7,-4.64732419214187E-15));
#408=CARTESIAN_POINT('',(0.396874999999995,12.7,-5.89632509484517E-15));
#409=CARTESIAN_POINT('',(12.303125,12.7,-4.33680868994202E-15));
#410=CARTESIAN_POINT('',(0.396874999999995,12.7,-5.20417042793042E-15));
#411=CARTESIAN_POINT('',(6.35,12.7,-5.27182464349351E-15));
#412=CARTESIAN_POINT('',(-2.60208521396521E-15,0.396874999999996,-8.67361737988404E-16));
#413=CARTESIAN_POINT('',(-2.60208521396521E-15,0.396874999999996,-1.40729441988618E-15));
#414=CARTESIAN_POINT('',(-1.73472347597681E-15,6.35,-3.59955121265187E-15));
#415=CARTESIAN_POINT('',(-2.60208521396521E-15,12.303125,-5.79180800541756E-15));
#416=CARTESIAN_POINT('',(-2.60208521396521E-15,12.303125,-5.20417042793042E-15));
#417=CARTESIAN_POINT('',(-2.60208521396521E-15,6.35,-3.59955121265187E-15));
#418=CARTESIAN_POINT('',(12.303125,-4.33680868994202E-15,2.88889491658085E-31));
#419=CARTESIAN_POINT('',(12.303125,-4.33680868994202E-15,2.94902990916043E-17));
#420=CARTESIAN_POINT('',(6.35,-6.07153216591882E-15,-5.95010152260044E-16));
#421=CARTESIAN_POINT('',(0.396875,-3.46944695195361E-15,-1.21951060361169E-15));
#422=CARTESIAN_POINT('',(0.396875,-3.46944695195361E-15,-8.67361737988403E-16));
#423=CARTESIAN_POINT('',(6.35,-4.33680868994202E-15,-5.95010152260045E-16));
#424=CARTESIAN_POINT('',(12.7,12.303125,-4.33680868994202E-15));
#425=CARTESIAN_POINT('',(12.7,12.303125,-4.45954037586738E-15));
#426=CARTESIAN_POINT('',(12.7,6.35,-2.26728358310169E-15));
#427=CARTESIAN_POINT('',(12.7,0.396874999999998,-7.50267903359992E-17));
#428=CARTESIAN_POINT('',(12.7,0.396874999999998,0.0));
#429=CARTESIAN_POINT('',(12.7,6.35,-2.26728358310169E-15));
#430=CARTESIAN_POINT('',(6.35,6.35,-6.93889390390723E-15));
#431=CARTESIAN_POINT('',(4.52707871810108,4.52707871810108,-6.93889390390723E-15));
#432=CARTESIAN_POINT('',(12.303125,12.303125,-4.50117373929082E-15));
#433=CARTESIAN_POINT('',(0.396874999999998,12.303125,-5.75017464199412E-15));
#434=CARTESIAN_POINT('',(0.396874999999999,0.396874999999996,-1.36566105646274E-15));
#435=CARTESIAN_POINT('',(12.303125,0.396874999999999,-1.16660153759443E-16));
#436=CARTESIAN_POINT('',(6.35,6.35,-2.93341739787678E-15));
#437=CARTESIAN_POINT('',(12.303125,12.303125,-4.33680868994202E-15));
#438=CARTESIAN_POINT('',(12.303125,0.396874999999999,0.0));
#439=CARTESIAN_POINT('',(0.396874999999999,0.396874999999996,-8.67361737988404E-16));
#440=CARTESIAN_POINT('',(0.396874999999998,12.303125,-5.20417042793042E-15));
#441=CARTESIAN_POINT('',(6.35,6.35,-33.3676978394524));
#442=MECHANICAL_DESIGN_GEOMETRIC_PRESENTATION_REPRESENTATION('',(#232,#233,#234,
     #235),#443);
#443=(GEOMETRIC_REPRESENTATION_CONTEXT(3)GLOBAL_UNCERTAINTY_ASSIGNED_CONTEXT((#444))
     GLOBAL_UNIT_ASSIGNED_CONTEXT((#450,#446,#445))REPRESENTATION_CONTEXT('SNMG120404',
     'TOP_LEVEL_ASSEMBLY_PART'));
#444=UNCERTAINTY_MEASURE_WITH_UNIT(LENGTH_MEASURE(2.0E-5),#450,'DISTANCE_ACCURACY_VALUE',
     'Maximum Tolerance applied to model');
#445=(NAMED_UNIT(*)SI_UNIT($,.STERADIAN.)SOLID_ANGLE_UNIT());
#446=(CONVERSION_BASED_UNIT('DEGREE',#448)NAMED_UNIT(#447)PLANE_ANGLE_UNIT());
#447=DIMENSIONAL_EXPONENTS(0.0,0.0,0.0,0.0,0.0,0.0,0.0);
#448=PLANE_ANGLE_MEASURE_WITH_UNIT(PLANE_ANGLE_MEASURE(0.0174532925),#449);
#449=(NAMED_UNIT(*)PLANE_ANGLE_UNIT()SI_UNIT($,.RADIAN.));
#450=(LENGTH_UNIT()NAMED_UNIT(*)SI_UNIT(.MILLI.,.METRE.));
#451=CONSTRUCTIVE_GEOMETRY_REPRESENTATION('supplemental geometry',(#249,#250),#443);
#452=CONSTRUCTIVE_GEOMETRY_REPRESENTATION_RELATIONSHIP('supplemental geometry','contains PCS and MCS coordinate systems',
     #24,#451);
ENDSEC;
END-ISO-10303-21;
