ISO-10303-21;
HEADER;
FILE_DESCRIPTION(
/* description */ (''),
/* implementation_level */ '2;1');
FILE_NAME(
/* name */ 'CNMG160616.stp',
/* time_stamp */ '2017-03-21T10:53:56',
/* author */ ('Sandvik Coromant R&D'),
/* organization */ ('Sandvik Machining Solutions'),
/* preprocessor_version */ 'ST-DEVELOPER v15',
/* originating_system */ 'SIEMENS PLM Software NX v8.5.3.3(64 bits)',
/* authorization */ '');
FILE_SCHEMA(('AUTOMOTIVE_DESIGN'));
ENDSEC;
DATA;
#10=GEOMETRICALLY_BOUNDED_WIREFRAME_SHAPE_REPRESENTATION('IsoTurningInsert-None',
     (#25),#475);
#11=SHAPE_REPRESENTATION_RELATIONSHIP('None','relationship between IsoTurningInsert-None and IsoTurningInsert-None',
     #24,#13);
#12=SHAPE_REPRESENTATION_RELATIONSHIP('None','relationship between IsoTurningInsert-None and IsoTurningInsert-None',
     #24,#10);
#13=ADVANCED_BREP_SHAPE_REPRESENTATION('IsoTurningInsert-None',(#31),#475);
#14=SHAPE_DEFINITION_REPRESENTATION(#15,#24);
#15=PRODUCT_DEFINITION_SHAPE('','',#16);
#16=PRODUCT_DEFINITION(' ','',#18,#17);
#17=PRODUCT_DEFINITION_CONTEXT('part definition',#23,'design');
#18=PRODUCT_DEFINITION_FORMATION_WITH_SPECIFIED_SOURCE(' ',' ',#20,.NOT_KNOWN.);
#19=PRODUCT_RELATED_PRODUCT_CATEGORY('part','',(#20));
#20=PRODUCT('IsoTurningInsert','IsoTurningInsert',' ',(#21));
#21=PRODUCT_CONTEXT(' ',#23,'mechanical');
#22=APPLICATION_PROTOCOL_DEFINITION('international standard','automotive_design',
     2010,#23);
#23=APPLICATION_CONTEXT('core data for automotive mechanical design processes');
#24=SHAPE_REPRESENTATION('IsoTurningInsert-None',(#248),#475);
#25=GEOMETRIC_CURVE_SET('geometric curve set',(#228));
#26=SURFACE_STYLE_USAGE(.BOTH.,#27);
#27=SURFACE_SIDE_STYLE('',(#28));
#28=SURFACE_STYLE_FILL_AREA(#29);
#29=FILL_AREA_STYLE('',(#30));
#30=FILL_AREA_STYLE_COLOUR('',#247);
#31=MANIFOLD_SOLID_BREP('CUT',#32);
#32=CLOSED_SHELL('',(#46,#47,#48,#49,#50,#51,#52,#53,#54,#55,#56));
#33=CYLINDRICAL_SURFACE('',#267,1.5875);
#34=CYLINDRICAL_SURFACE('',#268,1.5875);
#35=CYLINDRICAL_SURFACE('',#269,1.5875);
#36=CYLINDRICAL_SURFACE('',#270,1.5875);
#37=CYLINDRICAL_SURFACE('',#271,3.17499999999999);
#38=FACE_OUTER_BOUND('',#103,.T.);
#39=FACE_OUTER_BOUND('',#104,.T.);
#40=FACE_OUTER_BOUND('',#105,.T.);
#41=FACE_OUTER_BOUND('',#106,.T.);
#42=FACE_OUTER_BOUND('',#109,.T.);
#43=FACE_OUTER_BOUND('',#110,.T.);
#44=FACE_OUTER_BOUND('',#111,.T.);
#45=FACE_OUTER_BOUND('',#112,.T.);
#46=ADVANCED_FACE('',(#95,#96),#57,.F.);
#47=ADVANCED_FACE('',(#38),#58,.T.);
#48=ADVANCED_FACE('',(#39),#59,.T.);
#49=ADVANCED_FACE('',(#40),#60,.T.);
#50=ADVANCED_FACE('',(#41),#61,.T.);
#51=ADVANCED_FACE('',(#97,#98),#62,.T.);
#52=ADVANCED_FACE('',(#42),#33,.T.);
#53=ADVANCED_FACE('',(#43),#34,.T.);
#54=ADVANCED_FACE('',(#44),#35,.T.);
#55=ADVANCED_FACE('',(#45),#36,.T.);
#56=ADVANCED_FACE('',(#99,#100),#37,.F.);
#57=PLANE('',#256);
#58=PLANE('',#257);
#59=PLANE('',#258);
#60=PLANE('',#259);
#61=PLANE('',#260);
#62=PLANE('',#266);
#63=LINE('',#421,#79);
#64=LINE('',#426,#80);
#65=LINE('',#430,#81);
#66=LINE('',#434,#82);
#67=LINE('',#438,#83);
#68=LINE('',#441,#84);
#69=LINE('',#442,#85);
#70=LINE('',#444,#86);
#71=LINE('',#446,#87);
#72=LINE('',#448,#88);
#73=LINE('',#450,#89);
#74=LINE('',#452,#90);
#75=LINE('',#454,#91);
#76=LINE('',#456,#92);
#77=LINE('',#458,#93);
#78=LINE('',#460,#94);
#79=VECTOR('',#280,1.0);
#80=VECTOR('',#283,1.0);
#81=VECTOR('',#286,1.0);
#82=VECTOR('',#289,1.0);
#83=VECTOR('',#294,1.0);
#84=VECTOR('',#295,1.0);
#85=VECTOR('',#296,1.0);
#86=VECTOR('',#299,1.0);
#87=VECTOR('',#300,1.0);
#88=VECTOR('',#301,1.0);
#89=VECTOR('',#304,1.0);
#90=VECTOR('',#305,1.0);
#91=VECTOR('',#306,1.0);
#92=VECTOR('',#309,1.0);
#93=VECTOR('',#310,1.0);
#94=VECTOR('',#311,1.0);
#95=FACE_BOUND('',#101,.T.);
#96=FACE_BOUND('',#102,.T.);
#97=FACE_BOUND('',#107,.T.);
#98=FACE_BOUND('',#108,.T.);
#99=FACE_BOUND('',#113,.T.);
#100=FACE_BOUND('',#114,.T.);
#101=EDGE_LOOP('',(#115));
#102=EDGE_LOOP('',(#116,#117,#118,#119,#120,#121,#122,#123));
#103=EDGE_LOOP('',(#124,#125,#126,#127));
#104=EDGE_LOOP('',(#128,#129,#130,#131));
#105=EDGE_LOOP('',(#132,#133,#134,#135));
#106=EDGE_LOOP('',(#136,#137,#138,#139));
#107=EDGE_LOOP('',(#140));
#108=EDGE_LOOP('',(#141,#142,#143,#144,#145,#146,#147,#148));
#109=EDGE_LOOP('',(#149,#150,#151,#152));
#110=EDGE_LOOP('',(#153,#154,#155,#156));
#111=EDGE_LOOP('',(#157,#158,#159,#160));
#112=EDGE_LOOP('',(#161,#162,#163,#164));
#113=EDGE_LOOP('',(#165));
#114=EDGE_LOOP('',(#166));
#115=ORIENTED_EDGE('',*,*,#185,.T.);
#116=ORIENTED_EDGE('',*,*,#186,.T.);
#117=ORIENTED_EDGE('',*,*,#187,.T.);
#118=ORIENTED_EDGE('',*,*,#188,.T.);
#119=ORIENTED_EDGE('',*,*,#189,.T.);
#120=ORIENTED_EDGE('',*,*,#190,.T.);
#121=ORIENTED_EDGE('',*,*,#191,.T.);
#122=ORIENTED_EDGE('',*,*,#192,.T.);
#123=ORIENTED_EDGE('',*,*,#193,.T.);
#124=ORIENTED_EDGE('',*,*,#194,.F.);
#125=ORIENTED_EDGE('',*,*,#195,.T.);
#126=ORIENTED_EDGE('',*,*,#186,.F.);
#127=ORIENTED_EDGE('',*,*,#196,.T.);
#128=ORIENTED_EDGE('',*,*,#192,.F.);
#129=ORIENTED_EDGE('',*,*,#197,.T.);
#130=ORIENTED_EDGE('',*,*,#198,.F.);
#131=ORIENTED_EDGE('',*,*,#199,.T.);
#132=ORIENTED_EDGE('',*,*,#190,.F.);
#133=ORIENTED_EDGE('',*,*,#200,.T.);
#134=ORIENTED_EDGE('',*,*,#201,.F.);
#135=ORIENTED_EDGE('',*,*,#202,.T.);
#136=ORIENTED_EDGE('',*,*,#188,.F.);
#137=ORIENTED_EDGE('',*,*,#203,.T.);
#138=ORIENTED_EDGE('',*,*,#204,.F.);
#139=ORIENTED_EDGE('',*,*,#205,.T.);
#140=ORIENTED_EDGE('',*,*,#206,.F.);
#141=ORIENTED_EDGE('',*,*,#204,.T.);
#142=ORIENTED_EDGE('',*,*,#207,.T.);
#143=ORIENTED_EDGE('',*,*,#194,.T.);
#144=ORIENTED_EDGE('',*,*,#208,.T.);
#145=ORIENTED_EDGE('',*,*,#198,.T.);
#146=ORIENTED_EDGE('',*,*,#209,.T.);
#147=ORIENTED_EDGE('',*,*,#201,.T.);
#148=ORIENTED_EDGE('',*,*,#210,.T.);
#149=ORIENTED_EDGE('',*,*,#187,.F.);
#150=ORIENTED_EDGE('',*,*,#195,.F.);
#151=ORIENTED_EDGE('',*,*,#207,.F.);
#152=ORIENTED_EDGE('',*,*,#203,.F.);
#153=ORIENTED_EDGE('',*,*,#189,.F.);
#154=ORIENTED_EDGE('',*,*,#205,.F.);
#155=ORIENTED_EDGE('',*,*,#210,.F.);
#156=ORIENTED_EDGE('',*,*,#200,.F.);
#157=ORIENTED_EDGE('',*,*,#191,.F.);
#158=ORIENTED_EDGE('',*,*,#202,.F.);
#159=ORIENTED_EDGE('',*,*,#209,.F.);
#160=ORIENTED_EDGE('',*,*,#197,.F.);
#161=ORIENTED_EDGE('',*,*,#193,.F.);
#162=ORIENTED_EDGE('',*,*,#199,.F.);
#163=ORIENTED_EDGE('',*,*,#208,.F.);
#164=ORIENTED_EDGE('',*,*,#196,.F.);
#165=ORIENTED_EDGE('',*,*,#185,.F.);
#166=ORIENTED_EDGE('',*,*,#206,.T.);
#167=VERTEX_POINT('',#420);
#168=VERTEX_POINT('',#422);
#169=VERTEX_POINT('',#423);
#170=VERTEX_POINT('',#425);
#171=VERTEX_POINT('',#427);
#172=VERTEX_POINT('',#429);
#173=VERTEX_POINT('',#431);
#174=VERTEX_POINT('',#433);
#175=VERTEX_POINT('',#435);
#176=VERTEX_POINT('',#439);
#177=VERTEX_POINT('',#440);
#178=VERTEX_POINT('',#445);
#179=VERTEX_POINT('',#447);
#180=VERTEX_POINT('',#451);
#181=VERTEX_POINT('',#453);
#182=VERTEX_POINT('',#457);
#183=VERTEX_POINT('',#459);
#184=VERTEX_POINT('',#463);
#185=EDGE_CURVE('',#167,#167,#211,.T.);
#186=EDGE_CURVE('',#168,#169,#63,.T.);
#187=EDGE_CURVE('',#169,#170,#212,.T.);
#188=EDGE_CURVE('',#170,#171,#64,.T.);
#189=EDGE_CURVE('',#171,#172,#213,.T.);
#190=EDGE_CURVE('',#172,#173,#65,.T.);
#191=EDGE_CURVE('',#173,#174,#214,.T.);
#192=EDGE_CURVE('',#174,#175,#66,.T.);
#193=EDGE_CURVE('',#175,#168,#215,.T.);
#194=EDGE_CURVE('',#176,#177,#67,.T.);
#195=EDGE_CURVE('',#176,#169,#68,.T.);
#196=EDGE_CURVE('',#168,#177,#69,.T.);
#197=EDGE_CURVE('',#174,#178,#70,.T.);
#198=EDGE_CURVE('',#179,#178,#71,.T.);
#199=EDGE_CURVE('',#179,#175,#72,.T.);
#200=EDGE_CURVE('',#172,#180,#73,.T.);
#201=EDGE_CURVE('',#181,#180,#74,.T.);
#202=EDGE_CURVE('',#181,#173,#75,.T.);
#203=EDGE_CURVE('',#170,#182,#76,.T.);
#204=EDGE_CURVE('',#183,#182,#77,.T.);
#205=EDGE_CURVE('',#183,#171,#78,.T.);
#206=EDGE_CURVE('',#184,#184,#216,.T.);
#207=EDGE_CURVE('',#182,#176,#217,.T.);
#208=EDGE_CURVE('',#177,#179,#218,.T.);
#209=EDGE_CURVE('',#178,#181,#219,.T.);
#210=EDGE_CURVE('',#180,#183,#220,.T.);
#211=CIRCLE('',#251,3.17499999999999);
#212=CIRCLE('',#252,1.5875);
#213=CIRCLE('',#253,1.5875);
#214=CIRCLE('',#254,1.5875);
#215=CIRCLE('',#255,1.5875);
#216=CIRCLE('',#261,3.17499999999999);
#217=CIRCLE('',#262,1.5875);
#218=CIRCLE('',#263,1.5875);
#219=CIRCLE('',#264,1.5875);
#220=CIRCLE('',#265,1.5875);
#221=CURVE_STYLE('',#225,POSITIVE_LENGTH_MEASURE(0.18),#224);
#222=CURVE_STYLE('',#226,POSITIVE_LENGTH_MEASURE(0.18),#246);
#223=CURVE_STYLE('',#227,POSITIVE_LENGTH_MEASURE(0.18),#246);
#224=DRAUGHTING_PRE_DEFINED_COLOUR('blue');
#225=DRAUGHTING_PRE_DEFINED_CURVE_FONT('continuous');
#226=DRAUGHTING_PRE_DEFINED_CURVE_FONT('continuous');
#227=DRAUGHTING_PRE_DEFINED_CURVE_FONT('continuous');
#228=B_SPLINE_CURVE_WITH_KNOTS('CUTTING EDGE LINE',5,(#339,#340,#341,#342,#343,#344,
     #345,#346,#347,#348,#349,#350,#351,#352,#353,#354,#355,#356,#357,#358,#359,
     #360,#361,#362,#363,#364,#365,#366,#367,#368,#369,#370,#371,#372,#373,#374,
     #375,#376,#377,#378,#379,#380,#381,#382,#383,#384,#385,#386,#387,#388,#389,
     #390,#391,#392,#393,#394,#395,#396,#397,#398,#399,#400,#401,#402,#403,#404,
     #405,#406,#407,#408,#409,#410,#411,#412,#413,#414,#415,#416),.UNSPECIFIED.,
     .T.,.F.,(2,4,1,1,1,1,1,1,1,4,4,1,1,1,1,1,1,1,1,1,1,1,1,1,1,1,4,4,1,1,1,1,1,
     1,1,4,4,1,1,1,1,1,1,1,1,1,1,1,1,1,1,1,4,4,1,1),(-0.2094913755,0.0,0.00450095827499997,
     0.00900191655000004,0.013502874825,0.0180038331,0.0225047913750001,0.02700574965,
     0.031506707925,0.0360076662,0.2454990417,0.248312140625,0.25112523955,0.253938338475,
     0.2567514374,0.259564536325,0.26237763525,0.265190734175,0.2680038331,0.270816932025,
     0.27363003095,0.276443129875,0.2792562288,0.282069327725,0.28488242665,0.287695525575,
     0.2905086245,0.5,0.504500958275,0.50900191655,0.513502874825,0.5180038331,0.522504791375,
     0.52700574965,0.531506707925,0.5360076662,0.7454990417,0.748312140625,0.75112523955,
     0.753938338475,0.7567514374,0.759564536325,0.76237763525,0.765190734175,0.7680038331,
     0.770816932025,0.77363003095,0.776443129875,0.7792562288,0.782069327725,0.78488242665,
     0.787695525575,0.7905086245,1.0,1.004500958275,1.00900191655),.UNSPECIFIED.);
#229=PRESENTATION_LAYER_ASSIGNMENT('1','Layer 1',(#228,#249,#250,#31));
#232=STYLED_ITEM('',(#238),#228);
#233=STYLED_ITEM('',(#239),#249);
#234=STYLED_ITEM('',(#240),#250);
#235=STYLED_ITEM('',(#241),#31);
#236=PRESENTATION_STYLE_ASSIGNMENT((#242));
#237=PRESENTATION_STYLE_ASSIGNMENT((#243));
#238=PRESENTATION_STYLE_ASSIGNMENT((#221));
#239=PRESENTATION_STYLE_ASSIGNMENT((#222));
#240=PRESENTATION_STYLE_ASSIGNMENT((#223));
#241=PRESENTATION_STYLE_ASSIGNMENT((#26));
#242=POINT_STYLE('',#244,POSITIVE_LENGTH_MEASURE(3.0),#246);
#243=POINT_STYLE('',#245,POSITIVE_LENGTH_MEASURE(3.0),#246);
#244=PRE_DEFINED_POINT_MARKER_SYMBOL('plus');
#245=PRE_DEFINED_POINT_MARKER_SYMBOL('plus');
#246=COLOUR_RGB('Medium Maroon',0.6,0.4,0.4);
#247=COLOUR_RGB('IsoInsertColor',0.8,0.8,0.8);
#248=AXIS2_PLACEMENT_3D('',#336,#272,#273);
#249=AXIS2_PLACEMENT_3D('PCS',#417,#274,#275);
#250=AXIS2_PLACEMENT_3D('MCS',#418,#276,#277);
#251=AXIS2_PLACEMENT_3D('',#419,#278,#279);
#252=AXIS2_PLACEMENT_3D('',#424,#281,#282);
#253=AXIS2_PLACEMENT_3D('',#428,#284,#285);
#254=AXIS2_PLACEMENT_3D('',#432,#287,#288);
#255=AXIS2_PLACEMENT_3D('',#436,#290,#291);
#256=AXIS2_PLACEMENT_3D('',#437,#292,#293);
#257=AXIS2_PLACEMENT_3D('',#443,#297,#298);
#258=AXIS2_PLACEMENT_3D('',#449,#302,#303);
#259=AXIS2_PLACEMENT_3D('',#455,#307,#308);
#260=AXIS2_PLACEMENT_3D('',#461,#312,#313);
#261=AXIS2_PLACEMENT_3D('',#462,#314,#315);
#262=AXIS2_PLACEMENT_3D('',#464,#316,#317);
#263=AXIS2_PLACEMENT_3D('',#465,#318,#319);
#264=AXIS2_PLACEMENT_3D('',#466,#320,#321);
#265=AXIS2_PLACEMENT_3D('',#467,#322,#323);
#266=AXIS2_PLACEMENT_3D('',#468,#324,#325);
#267=AXIS2_PLACEMENT_3D('',#469,#326,#327);
#268=AXIS2_PLACEMENT_3D('',#470,#328,#329);
#269=AXIS2_PLACEMENT_3D('',#471,#330,#331);
#270=AXIS2_PLACEMENT_3D('',#472,#332,#333);
#271=AXIS2_PLACEMENT_3D('',#473,#334,#335);
#272=DIRECTION('',(0.0,0.0,1.0));
#273=DIRECTION('',(1.0,0.0,0.0));
#274=DIRECTION('',(0.0,0.0,1.0));
#275=DIRECTION('',(1.0,0.0,0.0));
#276=DIRECTION('',(0.0,0.0,1.0));
#277=DIRECTION('',(1.0,0.0,0.0));
#278=DIRECTION('',(0.0,0.0,1.0));
#279=DIRECTION('',(-0.766044443118978,-0.642787609686539,0.0));
#280=DIRECTION('',(1.0,8.88178419700125E-16,0.0));
#281=DIRECTION('',(0.0,0.0,-1.0));
#282=DIRECTION('',(-0.766044443118978,-0.64278760968654,0.0));
#283=DIRECTION('',(-0.173648177666928,-0.984807753012209,0.0));
#284=DIRECTION('',(0.0,0.0,-1.0));
#285=DIRECTION('',(-0.766044443118978,-0.642787609686539,0.0));
#286=DIRECTION('',(-1.0,1.22124532708767E-15,0.0));
#287=DIRECTION('',(0.0,0.0,-1.0));
#288=DIRECTION('',(-0.766044443118978,-0.642787609686539,0.0));
#289=DIRECTION('',(0.17364817766693,0.984807753012208,0.0));
#290=DIRECTION('',(0.0,0.0,-1.0));
#291=DIRECTION('',(-0.766044443118978,-0.64278760968654,0.0));
#292=DIRECTION('',(0.0,0.0,1.0));
#293=DIRECTION('',(-0.766044443118978,-0.642787609686539,0.0));
#294=DIRECTION('',(-1.0,-8.88178419700125E-16,-8.26474009869752E-17));
#295=DIRECTION('',(8.26474009869755E-17,-3.09175454316192E-16,-1.0));
#296=DIRECTION('',(-8.26474009869755E-17,3.09175454316192E-16,1.0));
#297=DIRECTION('',(-9.43689570931383E-16,1.0,-3.09175454316192E-16));
#298=DIRECTION('',(-1.0,-8.88178419700125E-16,0.0));
#299=DIRECTION('',(-8.26474009869755E-17,3.09175454316192E-16,1.0));
#300=DIRECTION('',(-0.17364817766693,-0.984807753012208,2.90126813881361E-16));
#301=DIRECTION('',(8.26474009869755E-17,-3.09175454316192E-16,-1.0));
#302=DIRECTION('',(-0.984807753012208,0.17364817766693,-1.35079555479634E-16));
#303=DIRECTION('',(-0.17364817766693,-0.984807753012208,0.0));
#304=DIRECTION('',(-8.26474009869755E-17,3.09175454316192E-16,1.0));
#305=DIRECTION('',(1.0,-1.22124532708767E-15,8.26474009869758E-17));
#306=DIRECTION('',(8.26474009869755E-17,-3.09175454316192E-16,-1.0));
#307=DIRECTION('',(-1.22124532708767E-15,-1.0,3.09175454316191E-16));
#308=DIRECTION('',(1.0,-1.22124532708767E-15,0.0));
#309=DIRECTION('',(-8.26474009869755E-17,3.09175454316192E-16,1.0));
#310=DIRECTION('',(0.173648177666928,0.984807753012209,-2.90126813881361E-16));
#311=DIRECTION('',(8.26474009869755E-17,-3.09175454316192E-16,-1.0));
#312=DIRECTION('',(0.984807753012209,-0.173648177666928,1.35079555479633E-16));
#313=DIRECTION('',(0.173648177666928,0.984807753012209,0.0));
#314=DIRECTION('',(0.0,0.0,1.0));
#315=DIRECTION('',(-0.766044443118978,-0.642787609686539,0.0));
#316=DIRECTION('',(-8.26474009869755E-17,3.09175454316192E-16,1.0));
#317=DIRECTION('',(-0.64278760968654,0.766044443118978,-2.89966864054927E-16));
#318=DIRECTION('',(-8.26474009869755E-17,3.09175454316192E-16,1.0));
#319=DIRECTION('',(-0.642787609686539,0.766044443118978,-2.89966864054927E-16));
#320=DIRECTION('',(-8.26474009869755E-17,3.09175454316192E-16,1.0));
#321=DIRECTION('',(-0.642787609686539,0.766044443118978,-2.89966864054927E-16));
#322=DIRECTION('',(-8.26474009869755E-17,3.09175454316192E-16,1.0));
#323=DIRECTION('',(-0.64278760968654,0.766044443118978,-2.89966864054927E-16));
#324=DIRECTION('',(-8.26474009869755E-17,3.09175454316192E-16,1.0));
#325=DIRECTION('',(-0.642787609686539,0.766044443118978,-2.89966864054927E-16));
#326=DIRECTION('',(-8.26474009869755E-17,3.09175454316192E-16,1.0));
#327=DIRECTION('',(-0.64278760968654,0.766044443118978,-2.89966864054927E-16));
#328=DIRECTION('',(-8.26474009869755E-17,3.09175454316192E-16,1.0));
#329=DIRECTION('',(-0.64278760968654,0.766044443118978,-2.89966864054927E-16));
#330=DIRECTION('',(-8.26474009869755E-17,3.09175454316192E-16,1.0));
#331=DIRECTION('',(-0.642787609686539,0.766044443118978,-2.89966864054927E-16));
#332=DIRECTION('',(-8.26474009869755E-17,3.09175454316192E-16,1.0));
#333=DIRECTION('',(-0.642787609686539,0.766044443118978,-2.89966864054927E-16));
#334=DIRECTION('',(0.0,0.0,1.0));
#335=DIRECTION('',(-0.766044443118978,-0.642787609686539,0.0));
#336=CARTESIAN_POINT('',(0.0,0.0,0.0));
#339=CARTESIAN_POINT('',(12.2086432050024,8.5265128291212E-14,0.0));
#340=CARTESIAN_POINT('',(14.8388480657111,8.43769498715119E-14,4.95032808799801E-16));
#341=CARTESIAN_POINT('',(14.9408905987488,0.00409947974369107,5.01863839817177E-16));
#342=CARTESIAN_POINT('',(15.102834121044,0.0232577077308784,5.07758947854231E-16));
#343=CARTESIAN_POINT('',(15.3155122009658,0.0773864093849745,5.04176899852271E-16));
#344=CARTESIAN_POINT('',(15.5777288496104,0.195140457967963,4.7981743333172E-16));
#345=CARTESIAN_POINT('',(15.8166947391786,0.361342936216174,4.34597476796057E-16));
#346=CARTESIAN_POINT('',(16.0218682195755,0.56781763949706,3.70841933466401E-16));
#347=CARTESIAN_POINT('',(16.1833667627596,0.805602852101704,2.91237243795006E-16));
#348=CARTESIAN_POINT('',(16.2736042888172,1.00565052370245,2.20494920190041E-16));
#349=CARTESIAN_POINT('',(16.3205926578045,1.16180696863184,1.63335594589602E-16));
#350=CARTESIAN_POINT('',(16.3423493571458,1.26158737911755,1.26128775826794E-16));
#351=CARTESIAN_POINT('',(16.7990796380986,3.85183351795382,6.43316382971754E-17));
#352=CARTESIAN_POINT('',(17.2469501690981,6.3918335179538,4.28877588647835E-17));
#353=CARTESIAN_POINT('',(17.6948207000976,8.93183351795379,4.28877588647835E-17));
#354=CARTESIAN_POINT('',(18.142691231097,11.4718335179538,6.43316382971752E-17));
#355=CARTESIAN_POINT('',(18.5958410815147,14.0417740261898,1.00121831454849E-16));
#356=CARTESIAN_POINT('',(18.6049662353536,14.1019078047434,8.59363490793901E-17));
#357=CARTESIAN_POINT('',(18.6148845290162,14.1970010116534,6.37163422863123E-17));
#358=CARTESIAN_POINT('',(18.6184599303212,14.3259439163111,3.40515414429557E-17));
#359=CARTESIAN_POINT('',(18.6058347544666,14.4941334503447,-3.82866352646041E-18));
#360=CARTESIAN_POINT('',(18.5741762077687,14.6648862481051,-4.13993858834204E-17));
#361=CARTESIAN_POINT('',(18.5224973602024,14.8356046096894,-7.80199331638847E-17));
#362=CARTESIAN_POINT('',(18.4503833276454,15.0026389525018,-1.12835912530174E-16));
#363=CARTESIAN_POINT('',(18.3582697710969,15.1624213945993,-1.45051653388931E-16));
#364=CARTESIAN_POINT('',(18.2474288915178,15.3114108528063,-1.73916989050071E-16));
#365=CARTESIAN_POINT('',(18.1199502347084,15.4464395582758,-1.98805620926757E-16));
#366=CARTESIAN_POINT('',(17.9785905981685,15.5648996328157,-2.19250734618169E-16));
#367=CARTESIAN_POINT('',(17.8266163526854,15.6649233004159,-2.34978802986763E-16));
#368=CARTESIAN_POINT('',(17.6674655243192,15.7454619625494,-2.4591177031871E-16));
#369=CARTESIAN_POINT('',(17.5048042941786,15.8062904569491,-2.52170685827199E-16));
#370=CARTESIAN_POINT('',(17.3413622758645,15.8479296341015,-2.54003172410907E-16));
#371=CARTESIAN_POINT('',(17.2137574417454,15.866799251593,-2.52313728546502E-16));
#372=CARTESIAN_POINT('',(17.1183866206985,15.8735444011859,-2.49367896470485E-16));
#373=CARTESIAN_POINT('',(17.0575818430259,15.875,-2.46838969256302E-16));
#374=CARTESIAN_POINT('',(14.4479958599999,15.875,-1.47244810118086E-16));
#375=CARTESIAN_POINT('',(11.8688122658101,15.875,-9.81632067453907E-17));
#376=CARTESIAN_POINT('',(9.28962867162035,15.875,-9.81632067453907E-17));
#377=CARTESIAN_POINT('',(6.71044507743058,15.875,-1.47244810118086E-16));
#378=CARTESIAN_POINT('',(4.08024021672194,15.875,-2.59024464317081E-16));
#379=CARTESIAN_POINT('',(3.9781976836842,15.8709005202564,-2.84521669299365E-16));
#380=CARTESIAN_POINT('',(3.816254161389,15.8517422922692,-3.19629358769983E-16));
#381=CARTESIAN_POINT('',(3.60357608146723,15.7976135906151,-3.53470735077489E-16));
#382=CARTESIAN_POINT('',(3.34135943282259,15.6798595420321,-3.73594350187457E-16));
#383=CARTESIAN_POINT('',(3.10239354325442,15.5136570637839,-3.67000139046412E-16));
#384=CARTESIAN_POINT('',(2.89722006285746,15.307182360503,-3.34336514032982E-16));
#385=CARTESIAN_POINT('',(2.73572151967341,15.0693971478984,-2.76760372302227E-16));
#386=CARTESIAN_POINT('',(2.64548399361586,14.8693494762976,-2.16144041932329E-16));
#387=CARTESIAN_POINT('',(2.59849562462853,14.7131930313682,-1.62568694536904E-16));
#388=CARTESIAN_POINT('',(2.57673892528719,14.6134126208825,-1.26128775826795E-16));
#389=CARTESIAN_POINT('',(2.12000864433443,12.0231664820463,-6.43316382971757E-17));
#390=CARTESIAN_POINT('',(1.67213811333494,9.48316648204629,-4.28877588647838E-17));
#391=CARTESIAN_POINT('',(1.22426758233544,6.94316648204631,-4.28877588647837E-17));
#392=CARTESIAN_POINT('',(0.776397051335939,4.40316648204633,-6.43316382971755E-17));
#393=CARTESIAN_POINT('',(0.323247200918301,1.83322597381028,-1.0012183145485E-16));
#394=CARTESIAN_POINT('',(0.314122047079417,1.77309219525667,-8.59363490793907E-17));
#395=CARTESIAN_POINT('',(0.304203753416829,1.67799898834668,-6.37163422863129E-17));
#396=CARTESIAN_POINT('',(0.300628352111818,1.54905608368905,-3.40515414429564E-17));
#397=CARTESIAN_POINT('',(0.313253527966408,1.38086654965539,3.82866352645968E-18));
#398=CARTESIAN_POINT('',(0.344912074664229,1.21011375189505,4.13993858834197E-17));
#399=CARTESIAN_POINT('',(0.396590922230626,1.03939539031072,7.8019933163884E-17));
#400=CARTESIAN_POINT('',(0.468704954787578,0.872361047498329,1.12835912530174E-16));
#401=CARTESIAN_POINT('',(0.560818511336068,0.712578605400784,1.45051653388931E-16));
#402=CARTESIAN_POINT('',(0.671659390915201,0.563589147193787,1.7391698905007E-16));
#403=CARTESIAN_POINT('',(0.799138047724618,0.428560441724333,1.98805620926757E-16));
#404=CARTESIAN_POINT('',(0.940497684264455,0.310100367184443,2.19250734618168E-16));
#405=CARTESIAN_POINT('',(1.09247192974761,0.210076699584217,2.34978802986763E-16));
#406=CARTESIAN_POINT('',(1.25162275811376,0.129538037450693,2.45911770318709E-16));
#407=CARTESIAN_POINT('',(1.41428398825436,0.0687095430509617,2.52170685827199E-16));
#408=CARTESIAN_POINT('',(1.57772600656848,0.0270703658986307,2.54003172410907E-16));
#409=CARTESIAN_POINT('',(1.70533084068758,0.00820074840705143,2.52313728546502E-16));
#410=CARTESIAN_POINT('',(1.80070166173446,0.00145559881419466,2.49367896470485E-16));
#411=CARTESIAN_POINT('',(1.86150643940703,9.85878045867139E-14,2.46838969256302E-16));
#412=CARTESIAN_POINT('',(4.47109242243309,9.50350909079134E-14,1.47244810118086E-16));
#413=CARTESIAN_POINT('',(7.05027601662287,9.2370555648813E-14,7.36224050590429E-17));
#414=CARTESIAN_POINT('',(9.62945961081265,8.88178419700125E-14,2.45408016863476E-17));
#415=CARTESIAN_POINT('',(12.2086432050024,8.5265128291212E-14,0.0));
#416=CARTESIAN_POINT('',(14.8388480657111,8.43769498715119E-14,4.95032808799801E-16));
#417=CARTESIAN_POINT('',(0.0,0.0,0.0));
#418=CARTESIAN_POINT('',(9.45954414121654,7.9375,0.0));
#419=CARTESIAN_POINT('',(9.45954414121654,7.9375,-6.35000000000001));
#420=CARTESIAN_POINT('',(7.02735303431379,5.89664933924524,-6.35000000000001));
#421=CARTESIAN_POINT('',(9.4595441412165,15.875,-6.35));
#422=CARTESIAN_POINT('',(4.13126148324081,15.875,-6.35));
#423=CARTESIAN_POINT('',(17.0271794541897,15.875,-6.35));
#424=CARTESIAN_POINT('',(17.0271794541897,14.2875,-6.35));
#425=CARTESIAN_POINT('',(18.5905617620965,14.0118335179538,-6.35));
#426=CARTESIAN_POINT('',(17.2764556807509,6.5591675897688,-6.35));
#427=CARTESIAN_POINT('',(16.3512091070991,1.31183351795383,-6.35));
#428=CARTESIAN_POINT('',(14.7878267991922,1.58750000000008,-6.35));
#429=CARTESIAN_POINT('',(14.7878267991922,7.97972798949331E-14,-6.35));
#430=CARTESIAN_POINT('',(9.45954414121649,8.84708972748172E-14,-6.35));
#431=CARTESIAN_POINT('',(1.89190882824332,9.71445146547012E-14,-6.35));
#432=CARTESIAN_POINT('',(1.89190882824332,1.5875000000001,-6.35));
#433=CARTESIAN_POINT('',(0.328526520336445,1.86316648204634,-6.35));
#434=CARTESIAN_POINT('',(1.64263260168215,9.31583241023129,-6.35));
#435=CARTESIAN_POINT('',(2.56787917533393,14.5631664820462,-6.35));
#436=CARTESIAN_POINT('',(4.13126148324081,14.2875,-6.35));
#437=CARTESIAN_POINT('',(9.41332282867938,7.40918798019793,-6.35));
#438=CARTESIAN_POINT('',(9.45954414121653,15.875,-5.38749756651153E-15));
#439=CARTESIAN_POINT('',(17.0271794541897,15.875,-4.76205217627705E-15));
#440=CARTESIAN_POINT('',(4.13126148324081,15.875,-5.8278662799172E-15));
#441=CARTESIAN_POINT('',(17.0271794541897,15.875,-4.33680868994202E-15));
#442=CARTESIAN_POINT('',(4.13126148324081,15.875,-5.20417042793042E-15));
#443=CARTESIAN_POINT('',(9.4595441412165,15.875,-5.38749756651153E-15));
#444=CARTESIAN_POINT('',(0.328526520336445,1.86316648204635,-1.73472347597681E-15));
#445=CARTESIAN_POINT('',(0.328526520336445,1.86316648204635,-1.81003744752739E-15));
#446=CARTESIAN_POINT('',(1.64263260168214,9.31583241023126,-4.00561136949636E-15));
#447=CARTESIAN_POINT('',(2.56787917533393,14.5631664820462,-5.55148904051416E-15));
#448=CARTESIAN_POINT('',(2.56787917533393,14.5631664820462,-5.20417042793042E-15));
#449=CARTESIAN_POINT('',(1.64263260168215,9.31583241023129,-4.00561136949636E-15));
#450=CARTESIAN_POINT('',(14.7878267991922,8.15320033709099E-14,-1.92592994438724E-31));
#451=CARTESIAN_POINT('',(14.7878267991922,8.15320033709099E-14,-3.89685158363535E-17));
#452=CARTESIAN_POINT('',(9.45954414121653,8.84708972748172E-14,-4.79337229242019E-16));
#453=CARTESIAN_POINT('',(1.89190882824332,9.8879238130678E-14,-1.10478261947651E-15));
#454=CARTESIAN_POINT('',(1.89190882824332,9.8879238130678E-14,-8.67361737988404E-16));
#455=CARTESIAN_POINT('',(9.45954414121649,8.84708972748172E-14,-4.79337229242022E-16));
#456=CARTESIAN_POINT('',(18.5905617620965,14.0118335179538,-3.46944695195361E-15));
#457=CARTESIAN_POINT('',(18.5905617620965,14.0118335179538,-4.05679734822617E-15));
#458=CARTESIAN_POINT('',(17.2764556807509,6.55916758976878,-1.86122342625718E-15));
#459=CARTESIAN_POINT('',(16.3512091070991,1.31183351795383,-3.15345755239389E-16));
#460=CARTESIAN_POINT('',(16.3512091070991,1.31183351795383,0.0));
#461=CARTESIAN_POINT('',(17.2764556807509,6.5591675897688,-1.86122342625719E-15));
#462=CARTESIAN_POINT('',(9.45954414121654,7.9375,0.0));
#463=CARTESIAN_POINT('',(7.02735303431379,5.89664933924524,0.0));
#464=CARTESIAN_POINT('',(17.0271794541897,14.2875,-4.27123614255009E-15));
#465=CARTESIAN_POINT('',(4.13126148324081,14.2875,-5.33705024619024E-15));
#466=CARTESIAN_POINT('',(1.89190882824332,1.5875000000001,-1.59559865320347E-15));
#467=CARTESIAN_POINT('',(14.7878267991922,1.58750000000008,-5.29784549563307E-16));
#468=CARTESIAN_POINT('',(9.45954414121654,7.9375,-2.93341739787676E-15));
#469=CARTESIAN_POINT('',(17.0271794541897,14.2875,-4.33680868994202E-15));
#470=CARTESIAN_POINT('',(14.7878267991922,1.58750000000008,0.0));
#471=CARTESIAN_POINT('',(1.89190882824332,1.5875000000001,-8.67361737988404E-16));
#472=CARTESIAN_POINT('',(4.13126148324081,14.2875,-5.20417042793042E-15));
#473=CARTESIAN_POINT('',(9.45954414121654,7.9375,-33.3676978394524));
#474=MECHANICAL_DESIGN_GEOMETRIC_PRESENTATION_REPRESENTATION('',(#232,#233,#234,
     #235),#475);
#475=(GEOMETRIC_REPRESENTATION_CONTEXT(3)GLOBAL_UNCERTAINTY_ASSIGNED_CONTEXT((#476))
     GLOBAL_UNIT_ASSIGNED_CONTEXT((#482,#478,#477))REPRESENTATION_CONTEXT('CNMG160616',
     'TOP_LEVEL_ASSEMBLY_PART'));
#476=UNCERTAINTY_MEASURE_WITH_UNIT(LENGTH_MEASURE(2.0E-5),#482,'DISTANCE_ACCURACY_VALUE',
     'Maximum Tolerance applied to model');
#477=(NAMED_UNIT(*)SI_UNIT($,.STERADIAN.)SOLID_ANGLE_UNIT());
#478=(CONVERSION_BASED_UNIT('DEGREE',#480)NAMED_UNIT(#479)PLANE_ANGLE_UNIT());
#479=DIMENSIONAL_EXPONENTS(0.0,0.0,0.0,0.0,0.0,0.0,0.0);
#480=PLANE_ANGLE_MEASURE_WITH_UNIT(PLANE_ANGLE_MEASURE(0.0174532925),#481);
#481=(NAMED_UNIT(*)PLANE_ANGLE_UNIT()SI_UNIT($,.RADIAN.));
#482=(LENGTH_UNIT()NAMED_UNIT(*)SI_UNIT(.MILLI.,.METRE.));
#483=CONSTRUCTIVE_GEOMETRY_REPRESENTATION('supplemental geometry',(#249,#250),#475);
#484=CONSTRUCTIVE_GEOMETRY_REPRESENTATION_RELATIONSHIP('supplemental geometry','contains PCS and MCS coordinate systems',
     #24,#483);
ENDSEC;
END-ISO-10303-21;
