ISO-10303-21;
HEADER;
FILE_DESCRIPTION(
/* description */ (''),
/* implementation_level */ '2;1');
FILE_NAME(
/* name */ 'VNMG160408.stp',
/* time_stamp */ '2017-03-21T10:54:47',
/* author */ ('Sandvik Coromant R&D'),
/* organization */ ('Sandvik Machining Solutions'),
/* preprocessor_version */ 'ST-DEVELOPER v15',
/* originating_system */ 'SIEMENS PLM Software NX v8.5.3.3(64 bits)',
/* authorization */ '');
FILE_SCHEMA(('AUTOMOTIVE_DESIGN'));
ENDSEC;
DATA;
#10=GEOMETRICALLY_BOUNDED_WIREFRAME_SHAPE_REPRESENTATION('IsoTurningInsert-None',
     (#25),#463);
#11=SHAPE_REPRESENTATION_RELATIONSHIP('None','relationship between IsoTurningInsert-None and IsoTurningInsert-None',
     #24,#13);
#12=SHAPE_REPRESENTATION_RELATIONSHIP('None','relationship between IsoTurningInsert-None and IsoTurningInsert-None',
     #24,#10);
#13=ADVANCED_BREP_SHAPE_REPRESENTATION('IsoTurningInsert-None',(#31),#463);
#14=SHAPE_DEFINITION_REPRESENTATION(#15,#24);
#15=PRODUCT_DEFINITION_SHAPE('','',#16);
#16=PRODUCT_DEFINITION(' ','',#18,#17);
#17=PRODUCT_DEFINITION_CONTEXT('part definition',#23,'design');
#18=PRODUCT_DEFINITION_FORMATION_WITH_SPECIFIED_SOURCE(' ',' ',#20,.NOT_KNOWN.);
#19=PRODUCT_RELATED_PRODUCT_CATEGORY('part','',(#20));
#20=PRODUCT('IsoTurningInsert','IsoTurningInsert',' ',(#21));
#21=PRODUCT_CONTEXT(' ',#23,'mechanical');
#22=APPLICATION_PROTOCOL_DEFINITION('international standard','automotive_design',
     2010,#23);
#23=APPLICATION_CONTEXT('core data for automotive mechanical design processes');
#24=SHAPE_REPRESENTATION('IsoTurningInsert-None',(#248),#463);
#25=GEOMETRIC_CURVE_SET('geometric curve set',(#228));
#26=SURFACE_STYLE_USAGE(.BOTH.,#27);
#27=SURFACE_SIDE_STYLE('',(#28));
#28=SURFACE_STYLE_FILL_AREA(#29);
#29=FILL_AREA_STYLE('',(#30));
#30=FILL_AREA_STYLE_COLOUR('',#247);
#31=MANIFOLD_SOLID_BREP('CUT',#32);
#32=CLOSED_SHELL('',(#46,#47,#48,#49,#50,#51,#52,#53,#54,#55,#56));
#33=CYLINDRICAL_SURFACE('',#267,0.793750000000005);
#34=CYLINDRICAL_SURFACE('',#268,0.793750000000005);
#35=CYLINDRICAL_SURFACE('',#269,0.793750000000005);
#36=CYLINDRICAL_SURFACE('',#270,0.793750000000005);
#37=CYLINDRICAL_SURFACE('',#271,1.905);
#38=FACE_OUTER_BOUND('',#103,.T.);
#39=FACE_OUTER_BOUND('',#104,.T.);
#40=FACE_OUTER_BOUND('',#105,.T.);
#41=FACE_OUTER_BOUND('',#106,.T.);
#42=FACE_OUTER_BOUND('',#109,.T.);
#43=FACE_OUTER_BOUND('',#110,.T.);
#44=FACE_OUTER_BOUND('',#111,.T.);
#45=FACE_OUTER_BOUND('',#112,.T.);
#46=ADVANCED_FACE('',(#95,#96),#57,.F.);
#47=ADVANCED_FACE('',(#38),#58,.T.);
#48=ADVANCED_FACE('',(#39),#59,.T.);
#49=ADVANCED_FACE('',(#40),#60,.T.);
#50=ADVANCED_FACE('',(#41),#61,.T.);
#51=ADVANCED_FACE('',(#97,#98),#62,.T.);
#52=ADVANCED_FACE('',(#42),#33,.T.);
#53=ADVANCED_FACE('',(#43),#34,.T.);
#54=ADVANCED_FACE('',(#44),#35,.T.);
#55=ADVANCED_FACE('',(#45),#36,.T.);
#56=ADVANCED_FACE('',(#99,#100),#37,.F.);
#57=PLANE('',#256);
#58=PLANE('',#257);
#59=PLANE('',#258);
#60=PLANE('',#259);
#61=PLANE('',#260);
#62=PLANE('',#266);
#63=LINE('',#409,#79);
#64=LINE('',#414,#80);
#65=LINE('',#418,#81);
#66=LINE('',#422,#82);
#67=LINE('',#426,#83);
#68=LINE('',#429,#84);
#69=LINE('',#430,#85);
#70=LINE('',#432,#86);
#71=LINE('',#434,#87);
#72=LINE('',#436,#88);
#73=LINE('',#438,#89);
#74=LINE('',#440,#90);
#75=LINE('',#442,#91);
#76=LINE('',#444,#92);
#77=LINE('',#446,#93);
#78=LINE('',#448,#94);
#79=VECTOR('',#280,1.0);
#80=VECTOR('',#283,1.0);
#81=VECTOR('',#286,1.0);
#82=VECTOR('',#289,1.0);
#83=VECTOR('',#294,1.0);
#84=VECTOR('',#295,1.0);
#85=VECTOR('',#296,1.0);
#86=VECTOR('',#299,1.0);
#87=VECTOR('',#300,1.0);
#88=VECTOR('',#301,1.0);
#89=VECTOR('',#304,1.0);
#90=VECTOR('',#305,1.0);
#91=VECTOR('',#306,1.0);
#92=VECTOR('',#309,1.0);
#93=VECTOR('',#310,1.0);
#94=VECTOR('',#311,1.0);
#95=FACE_BOUND('',#101,.T.);
#96=FACE_BOUND('',#102,.T.);
#97=FACE_BOUND('',#107,.T.);
#98=FACE_BOUND('',#108,.T.);
#99=FACE_BOUND('',#113,.T.);
#100=FACE_BOUND('',#114,.T.);
#101=EDGE_LOOP('',(#115));
#102=EDGE_LOOP('',(#116,#117,#118,#119,#120,#121,#122,#123));
#103=EDGE_LOOP('',(#124,#125,#126,#127));
#104=EDGE_LOOP('',(#128,#129,#130,#131));
#105=EDGE_LOOP('',(#132,#133,#134,#135));
#106=EDGE_LOOP('',(#136,#137,#138,#139));
#107=EDGE_LOOP('',(#140));
#108=EDGE_LOOP('',(#141,#142,#143,#144,#145,#146,#147,#148));
#109=EDGE_LOOP('',(#149,#150,#151,#152));
#110=EDGE_LOOP('',(#153,#154,#155,#156));
#111=EDGE_LOOP('',(#157,#158,#159,#160));
#112=EDGE_LOOP('',(#161,#162,#163,#164));
#113=EDGE_LOOP('',(#165));
#114=EDGE_LOOP('',(#166));
#115=ORIENTED_EDGE('',*,*,#185,.T.);
#116=ORIENTED_EDGE('',*,*,#186,.T.);
#117=ORIENTED_EDGE('',*,*,#187,.T.);
#118=ORIENTED_EDGE('',*,*,#188,.T.);
#119=ORIENTED_EDGE('',*,*,#189,.T.);
#120=ORIENTED_EDGE('',*,*,#190,.T.);
#121=ORIENTED_EDGE('',*,*,#191,.T.);
#122=ORIENTED_EDGE('',*,*,#192,.T.);
#123=ORIENTED_EDGE('',*,*,#193,.T.);
#124=ORIENTED_EDGE('',*,*,#194,.F.);
#125=ORIENTED_EDGE('',*,*,#195,.T.);
#126=ORIENTED_EDGE('',*,*,#186,.F.);
#127=ORIENTED_EDGE('',*,*,#196,.T.);
#128=ORIENTED_EDGE('',*,*,#192,.F.);
#129=ORIENTED_EDGE('',*,*,#197,.T.);
#130=ORIENTED_EDGE('',*,*,#198,.F.);
#131=ORIENTED_EDGE('',*,*,#199,.T.);
#132=ORIENTED_EDGE('',*,*,#190,.F.);
#133=ORIENTED_EDGE('',*,*,#200,.T.);
#134=ORIENTED_EDGE('',*,*,#201,.F.);
#135=ORIENTED_EDGE('',*,*,#202,.T.);
#136=ORIENTED_EDGE('',*,*,#188,.F.);
#137=ORIENTED_EDGE('',*,*,#203,.T.);
#138=ORIENTED_EDGE('',*,*,#204,.F.);
#139=ORIENTED_EDGE('',*,*,#205,.T.);
#140=ORIENTED_EDGE('',*,*,#206,.F.);
#141=ORIENTED_EDGE('',*,*,#204,.T.);
#142=ORIENTED_EDGE('',*,*,#207,.T.);
#143=ORIENTED_EDGE('',*,*,#194,.T.);
#144=ORIENTED_EDGE('',*,*,#208,.T.);
#145=ORIENTED_EDGE('',*,*,#198,.T.);
#146=ORIENTED_EDGE('',*,*,#209,.T.);
#147=ORIENTED_EDGE('',*,*,#201,.T.);
#148=ORIENTED_EDGE('',*,*,#210,.T.);
#149=ORIENTED_EDGE('',*,*,#187,.F.);
#150=ORIENTED_EDGE('',*,*,#195,.F.);
#151=ORIENTED_EDGE('',*,*,#207,.F.);
#152=ORIENTED_EDGE('',*,*,#203,.F.);
#153=ORIENTED_EDGE('',*,*,#189,.F.);
#154=ORIENTED_EDGE('',*,*,#205,.F.);
#155=ORIENTED_EDGE('',*,*,#210,.F.);
#156=ORIENTED_EDGE('',*,*,#200,.F.);
#157=ORIENTED_EDGE('',*,*,#191,.F.);
#158=ORIENTED_EDGE('',*,*,#202,.F.);
#159=ORIENTED_EDGE('',*,*,#209,.F.);
#160=ORIENTED_EDGE('',*,*,#197,.F.);
#161=ORIENTED_EDGE('',*,*,#193,.F.);
#162=ORIENTED_EDGE('',*,*,#199,.F.);
#163=ORIENTED_EDGE('',*,*,#208,.F.);
#164=ORIENTED_EDGE('',*,*,#196,.F.);
#165=ORIENTED_EDGE('',*,*,#185,.F.);
#166=ORIENTED_EDGE('',*,*,#206,.T.);
#167=VERTEX_POINT('',#408);
#168=VERTEX_POINT('',#410);
#169=VERTEX_POINT('',#411);
#170=VERTEX_POINT('',#413);
#171=VERTEX_POINT('',#415);
#172=VERTEX_POINT('',#417);
#173=VERTEX_POINT('',#419);
#174=VERTEX_POINT('',#421);
#175=VERTEX_POINT('',#423);
#176=VERTEX_POINT('',#427);
#177=VERTEX_POINT('',#428);
#178=VERTEX_POINT('',#433);
#179=VERTEX_POINT('',#435);
#180=VERTEX_POINT('',#439);
#181=VERTEX_POINT('',#441);
#182=VERTEX_POINT('',#445);
#183=VERTEX_POINT('',#447);
#184=VERTEX_POINT('',#451);
#185=EDGE_CURVE('',#167,#167,#211,.T.);
#186=EDGE_CURVE('',#168,#169,#63,.T.);
#187=EDGE_CURVE('',#169,#170,#212,.T.);
#188=EDGE_CURVE('',#170,#171,#64,.T.);
#189=EDGE_CURVE('',#171,#172,#213,.T.);
#190=EDGE_CURVE('',#172,#173,#65,.T.);
#191=EDGE_CURVE('',#173,#174,#214,.T.);
#192=EDGE_CURVE('',#174,#175,#66,.T.);
#193=EDGE_CURVE('',#175,#168,#215,.T.);
#194=EDGE_CURVE('',#176,#177,#67,.T.);
#195=EDGE_CURVE('',#176,#169,#68,.T.);
#196=EDGE_CURVE('',#168,#177,#69,.T.);
#197=EDGE_CURVE('',#174,#178,#70,.T.);
#198=EDGE_CURVE('',#179,#178,#71,.T.);
#199=EDGE_CURVE('',#179,#175,#72,.T.);
#200=EDGE_CURVE('',#172,#180,#73,.T.);
#201=EDGE_CURVE('',#181,#180,#74,.T.);
#202=EDGE_CURVE('',#181,#173,#75,.T.);
#203=EDGE_CURVE('',#170,#182,#76,.T.);
#204=EDGE_CURVE('',#183,#182,#77,.T.);
#205=EDGE_CURVE('',#183,#171,#78,.T.);
#206=EDGE_CURVE('',#184,#184,#216,.T.);
#207=EDGE_CURVE('',#182,#176,#217,.T.);
#208=EDGE_CURVE('',#177,#179,#218,.T.);
#209=EDGE_CURVE('',#178,#181,#219,.T.);
#210=EDGE_CURVE('',#180,#183,#220,.T.);
#211=CIRCLE('',#251,1.905);
#212=CIRCLE('',#252,0.793750000000005);
#213=CIRCLE('',#253,0.793750000000005);
#214=CIRCLE('',#254,0.793750000000005);
#215=CIRCLE('',#255,0.793750000000005);
#216=CIRCLE('',#261,1.905);
#217=CIRCLE('',#262,0.793750000000005);
#218=CIRCLE('',#263,0.793750000000005);
#219=CIRCLE('',#264,0.793750000000005);
#220=CIRCLE('',#265,0.793750000000005);
#221=CURVE_STYLE('',#225,POSITIVE_LENGTH_MEASURE(0.18),#224);
#222=CURVE_STYLE('',#226,POSITIVE_LENGTH_MEASURE(0.18),#246);
#223=CURVE_STYLE('',#227,POSITIVE_LENGTH_MEASURE(0.18),#246);
#224=DRAUGHTING_PRE_DEFINED_COLOUR('blue');
#225=DRAUGHTING_PRE_DEFINED_CURVE_FONT('continuous');
#226=DRAUGHTING_PRE_DEFINED_CURVE_FONT('continuous');
#227=DRAUGHTING_PRE_DEFINED_CURVE_FONT('continuous');
#228=B_SPLINE_CURVE_WITH_KNOTS('CUTTING EDGE LINE',5,(#339,#340,#341,#342,#343,#344,
     #345,#346,#347,#348,#349,#350,#351,#352,#353,#354,#355,#356,#357,#358,#359,
     #360,#361,#362,#363,#364,#365,#366,#367,#368,#369,#370,#371,#372,#373,#374,
     #375,#376,#377,#378,#379,#380,#381,#382,#383,#384,#385,#386,#387,#388,#389,
     #390,#391,#392,#393,#394,#395,#396,#397,#398,#399,#400,#401,#402,#403,#404),
     .UNSPECIFIED.,.T.,.F.,(2,4,1,4,4,1,1,1,1,1,1,1,1,1,1,1,1,1,1,1,4,4,1,4,4,1,
     1,1,1,1,1,1,1,1,1,1,1,1,1,1,4,4,1,1),(-0.2293373523,0.0,0.00401773704999997,
     0.00803547410000005,0.2373728263,0.2394534401375,0.241534053975,0.2436146678125,
     0.245695281650008,0.2477758954875,0.249856509325,0.2519371231625,0.254017737000048,
     0.2560983508375,0.258178964675,0.2602595785125,0.26234019235,0.2644208061875,
     0.266501420025,0.2685820338625,0.2706626477,0.5,0.50401773705,0.5080354741,
     0.7373728263,0.7394534401375,0.741534053975,0.7436146678125,0.745695281650008,
     0.7477758954875,0.749856509325,0.7519371231625,0.754017737000048,0.7560983508375,
     0.758178964675,0.7602595785125,0.76234019235,0.7644208061875,0.766501420025,
     0.7685820338625,0.7706626477,1.0,1.00401773705,1.0080354741),.UNSPECIFIED.);
#229=PRESENTATION_LAYER_ASSIGNMENT('1','Layer 1',(#228,#249,#250,#31));
#232=STYLED_ITEM('',(#238),#228);
#233=STYLED_ITEM('',(#239),#249);
#234=STYLED_ITEM('',(#240),#250);
#235=STYLED_ITEM('',(#241),#31);
#236=PRESENTATION_STYLE_ASSIGNMENT((#242));
#237=PRESENTATION_STYLE_ASSIGNMENT((#243));
#238=PRESENTATION_STYLE_ASSIGNMENT((#221));
#239=PRESENTATION_STYLE_ASSIGNMENT((#222));
#240=PRESENTATION_STYLE_ASSIGNMENT((#223));
#241=PRESENTATION_STYLE_ASSIGNMENT((#26));
#242=POINT_STYLE('',#244,POSITIVE_LENGTH_MEASURE(3.0),#246);
#243=POINT_STYLE('',#245,POSITIVE_LENGTH_MEASURE(3.0),#246);
#244=PRE_DEFINED_POINT_MARKER_SYMBOL('plus');
#245=PRE_DEFINED_POINT_MARKER_SYMBOL('plus');
#246=COLOUR_RGB('Medium Maroon',0.6,0.4,0.4);
#247=COLOUR_RGB('IsoInsertColor',0.8,0.8,0.8);
#248=AXIS2_PLACEMENT_3D('',#336,#272,#273);
#249=AXIS2_PLACEMENT_3D('PCS',#405,#274,#275);
#250=AXIS2_PLACEMENT_3D('MCS',#406,#276,#277);
#251=AXIS2_PLACEMENT_3D('',#407,#278,#279);
#252=AXIS2_PLACEMENT_3D('',#412,#281,#282);
#253=AXIS2_PLACEMENT_3D('',#416,#284,#285);
#254=AXIS2_PLACEMENT_3D('',#420,#287,#288);
#255=AXIS2_PLACEMENT_3D('',#424,#290,#291);
#256=AXIS2_PLACEMENT_3D('',#425,#292,#293);
#257=AXIS2_PLACEMENT_3D('',#431,#297,#298);
#258=AXIS2_PLACEMENT_3D('',#437,#302,#303);
#259=AXIS2_PLACEMENT_3D('',#443,#307,#308);
#260=AXIS2_PLACEMENT_3D('',#449,#312,#313);
#261=AXIS2_PLACEMENT_3D('',#450,#314,#315);
#262=AXIS2_PLACEMENT_3D('',#452,#316,#317);
#263=AXIS2_PLACEMENT_3D('',#453,#318,#319);
#264=AXIS2_PLACEMENT_3D('',#454,#320,#321);
#265=AXIS2_PLACEMENT_3D('',#455,#322,#323);
#266=AXIS2_PLACEMENT_3D('',#456,#324,#325);
#267=AXIS2_PLACEMENT_3D('',#457,#326,#327);
#268=AXIS2_PLACEMENT_3D('',#458,#328,#329);
#269=AXIS2_PLACEMENT_3D('',#459,#330,#331);
#270=AXIS2_PLACEMENT_3D('',#460,#332,#333);
#271=AXIS2_PLACEMENT_3D('',#461,#334,#335);
#272=DIRECTION('',(0.0,0.0,1.0));
#273=DIRECTION('',(1.0,0.0,0.0));
#274=DIRECTION('',(0.0,0.0,1.0));
#275=DIRECTION('',(1.0,0.0,0.0));
#276=DIRECTION('',(0.0,0.0,1.0));
#277=DIRECTION('',(1.0,0.0,0.0));
#278=DIRECTION('',(0.0,0.0,1.0));
#279=DIRECTION('',(-0.953716950748227,-0.300705799504274,0.0));
#280=DIRECTION('',(1.0,9.43689570931383E-16,0.0));
#281=DIRECTION('',(0.0,0.0,-1.0));
#282=DIRECTION('',(-0.953716950748229,-0.300705799504273,0.0));
#283=DIRECTION('',(-0.819152044288991,-0.573576436351047,0.0));
#284=DIRECTION('',(0.0,0.0,-1.0));
#285=DIRECTION('',(-0.953716950748227,-0.300705799504273,0.0));
#286=DIRECTION('',(-1.0,1.66533453693773E-16,0.0));
#287=DIRECTION('',(0.0,0.0,-1.0));
#288=DIRECTION('',(-0.953716950748227,-0.300705799504273,0.0));
#289=DIRECTION('',(0.819152044288992,0.573576436351046,0.0));
#290=DIRECTION('',(0.0,0.0,-1.0));
#291=DIRECTION('',(-0.953716950748227,-0.300705799504273,0.0));
#292=DIRECTION('',(0.0,0.0,1.0));
#293=DIRECTION('',(-0.953716950748227,-0.300705799504273,0.0));
#294=DIRECTION('',(-1.0,-9.43689570931383E-16,-8.02264902071657E-17));
#295=DIRECTION('',(8.02264902071663E-17,-6.05579448138538E-16,-1.0));
#296=DIRECTION('',(-8.02264902071663E-17,6.05579448138538E-16,1.0));
#297=DIRECTION('',(-9.43689570931383E-16,1.0,-6.05579448138538E-16));
#298=DIRECTION('',(-1.0,-9.43689570931383E-16,0.0));
#299=DIRECTION('',(-8.02264902071663E-17,6.05579448138538E-16,1.0));
#300=DIRECTION('',(-0.819152044288992,-0.573576436351046,2.81628408331405E-16));
#301=DIRECTION('',(8.02264902071663E-17,-6.05579448138538E-16,-1.0));
#302=DIRECTION('',(-0.573576436351046,0.819152044288992,-5.42077667276061E-16));
#303=DIRECTION('',(-0.819152044288992,-0.573576436351046,0.0));
#304=DIRECTION('',(-8.02264902071663E-17,6.05579448138538E-16,1.0));
#305=DIRECTION('',(1.0,-1.66533453693773E-16,8.02264902071664E-17));
#306=DIRECTION('',(8.02264902071663E-17,-6.05579448138538E-16,-1.0));
#307=DIRECTION('',(-1.66533453693773E-16,-1.0,6.05579448138537E-16));
#308=DIRECTION('',(1.0,-1.66533453693773E-16,0.0));
#309=DIRECTION('',(-8.02264902071663E-17,6.05579448138538E-16,1.0));
#310=DIRECTION('',(0.819152044288991,0.573576436351047,-2.81628408331405E-16));
#311=DIRECTION('',(8.02264902071663E-17,-6.05579448138538E-16,-1.0));
#312=DIRECTION('',(0.573576436351047,-0.819152044288991,5.4207766727606E-16));
#313=DIRECTION('',(0.819152044288991,0.573576436351047,0.0));
#314=DIRECTION('',(0.0,0.0,1.0));
#315=DIRECTION('',(-0.953716950748227,-0.300705799504273,0.0));
#316=DIRECTION('',(-8.02264902071663E-17,6.05579448138538E-16,1.0));
#317=DIRECTION('',(-0.300705799504276,0.953716950748227,-6.01675955593647E-16));
#318=DIRECTION('',(-8.02264902071663E-17,6.05579448138538E-16,1.0));
#319=DIRECTION('',(-0.300705799504273,0.953716950748227,-6.01675955593647E-16));
#320=DIRECTION('',(-8.02264902071663E-17,6.05579448138538E-16,1.0));
#321=DIRECTION('',(-0.300705799504273,0.953716950748227,-6.01675955593648E-16));
#322=DIRECTION('',(-8.02264902071663E-17,6.05579448138538E-16,1.0));
#323=DIRECTION('',(-0.300705799504276,0.953716950748227,-6.01675955593648E-16));
#324=DIRECTION('',(-8.02264902071663E-17,6.05579448138538E-16,1.0));
#325=DIRECTION('',(-0.300705799504273,0.953716950748227,-6.01675955593648E-16));
#326=DIRECTION('',(-8.02264902071663E-17,6.05579448138538E-16,1.0));
#327=DIRECTION('',(-0.300705799504276,0.953716950748227,-6.01675955593647E-16));
#328=DIRECTION('',(-8.02264902071663E-17,6.05579448138538E-16,1.0));
#329=DIRECTION('',(-0.300705799504276,0.953716950748227,-6.01675955593648E-16));
#330=DIRECTION('',(-8.02264902071663E-17,6.05579448138538E-16,1.0));
#331=DIRECTION('',(-0.300705799504273,0.953716950748227,-6.01675955593648E-16));
#332=DIRECTION('',(-8.02264902071663E-17,6.05579448138538E-16,1.0));
#333=DIRECTION('',(-0.300705799504273,0.953716950748227,-6.01675955593647E-16));
#334=DIRECTION('',(0.0,0.0,1.0));
#335=DIRECTION('',(-0.953716950748227,-0.300705799504273,0.0));
#336=CARTESIAN_POINT('',(0.0,0.0,0.0));
#339=CARTESIAN_POINT('',(13.5883405265698,-1.77635683940025E-15,0.0));
#340=CARTESIAN_POINT('',(16.4037993602895,-5.32907051820075E-15,4.84508462587034E-16));
#341=CARTESIAN_POINT('',(16.4992734516321,0.00717740324227556,4.87821525946642E-16));
#342=CARTESIAN_POINT('',(16.5971987174273,0.0289630381901391,4.83989439852337E-16));
#343=CARTESIAN_POINT('',(16.689910125948,0.0672849157699886,4.42168810649033E-16));
#344=CARTESIAN_POINT('',(16.7722347124219,0.116167220307535,3.12644572110898E-16));
#345=CARTESIAN_POINT('',(19.078523571675,1.73104806484561,4.30274148400375E-17));
#346=CARTESIAN_POINT('',(21.3457085323781,3.31854806484561,-7.39557098644699E-32));
#347=CARTESIAN_POINT('',(23.6128934930812,4.90604806484561,-7.88860905221012E-32));
#348=CARTESIAN_POINT('',(25.8800784537843,6.49354806484561,4.30274148400377E-17));
#349=CARTESIAN_POINT('',(28.1664869483695,8.09450852818086,2.3004163831469E-16));
#350=CARTESIAN_POINT('',(28.2039391034034,8.1228503374839,2.54255411094932E-16));
#351=CARTESIAN_POINT('',(28.2597538141588,8.17177117769791,2.77344920304273E-16));
#352=CARTESIAN_POINT('',(28.326321758725,8.24584485880723,2.81675314721956E-16));
#353=CARTESIAN_POINT('',(28.3967054281333,8.35451270547625,2.55593876486806E-16));
#354=CARTESIAN_POINT('',(28.4486623199238,8.47430481058969,2.05179841863827E-16));
#355=CARTESIAN_POINT('',(28.4803964293292,8.60138342754148,1.39020834948392E-16));
#356=CARTESIAN_POINT('',(28.4908658427435,8.72962911369641,6.48174182901775E-17));
#357=CARTESIAN_POINT('',(28.480720461759,8.85568670023888,-1.20295456219614E-17));
#358=CARTESIAN_POINT('',(28.4530172957732,8.97120189330968,-8.42524433140724E-17));
#359=CARTESIAN_POINT('',(28.4094536080368,9.0817162830842,-1.54732883800674E-16));
#360=CARTESIAN_POINT('',(28.3454605563463,9.1907957642682,-2.25579374805718E-16));
#361=CARTESIAN_POINT('',(28.263325811304,9.28984347141583,-2.89224802838513E-16));
#362=CARTESIAN_POINT('',(28.1644414504633,9.37573824289363,-3.39955650413672E-16));
#363=CARTESIAN_POINT('',(28.0531709275842,9.44406494184994,-3.70194613297524E-16));
#364=CARTESIAN_POINT('',(27.9331866846655,9.49271001632079,-3.71207750090907E-16));
#365=CARTESIAN_POINT('',(27.836170498752,9.51520581921004,-3.43630169598459E-16));
#366=CARTESIAN_POINT('',(27.762389923142,9.52326542258862,-3.00542152259523E-16));
#367=CARTESIAN_POINT('',(27.7154547198032,9.525,-2.62490554512463E-16));
#368=CARTESIAN_POINT('',(24.9242653300853,9.525,-4.80678686959966E-17));
#369=CARTESIAN_POINT('',(22.1565435420368,9.525,1.97215226305253E-31));
#370=CARTESIAN_POINT('',(19.3888217539883,9.525,1.97215226305253E-31));
#371=CARTESIAN_POINT('',(16.6210999659398,9.525,-4.80678686959966E-17));
#372=CARTESIAN_POINT('',(13.80564113222,9.52499999999999,-3.3808012896476E-16));
#373=CARTESIAN_POINT('',(13.7101670408774,9.51782259675771,-4.60399016710197E-16));
#374=CARTESIAN_POINT('',(13.6122417750822,9.49603696180984,-4.85670348219447E-16));
#375=CARTESIAN_POINT('',(13.5195303665615,9.45771508423,-4.42168810649033E-16));
#376=CARTESIAN_POINT('',(13.4372057800876,9.40883277969245,-3.12644572110898E-16));
#377=CARTESIAN_POINT('',(11.1309169208346,7.79395193515438,-4.30274148400376E-17));
#378=CARTESIAN_POINT('',(8.86373196013147,6.20645193515438,9.86076131526265E-32));
#379=CARTESIAN_POINT('',(6.59654699942838,4.61895193515439,3.54987407349455E-31));
#380=CARTESIAN_POINT('',(4.32936203872527,3.03145193515439,-4.30274148400376E-17));
#381=CARTESIAN_POINT('',(2.04295354414009,1.43049147181914,-2.30041638314689E-16));
#382=CARTESIAN_POINT('',(2.00550138910614,1.40214966251611,-2.54255411094931E-16));
#383=CARTESIAN_POINT('',(1.94968667835071,1.35322882230209,-2.77344920304272E-16));
#384=CARTESIAN_POINT('',(1.88311873378457,1.27915514119277,-2.81675314721955E-16));
#385=CARTESIAN_POINT('',(1.81273506437629,1.17048729452375,-2.55593876486805E-16));
#386=CARTESIAN_POINT('',(1.76077817258577,1.05069518941031,-2.05179841863827E-16));
#387=CARTESIAN_POINT('',(1.72904406318036,0.923616572458517,-1.39020834948392E-16));
#388=CARTESIAN_POINT('',(1.71857464976606,0.795370886303589,-6.48174182901779E-17));
#389=CARTESIAN_POINT('',(1.72872003075054,0.669313299761118,1.20295456219609E-17));
#390=CARTESIAN_POINT('',(1.75642319673639,0.553798106690324,8.42524433140722E-17));
#391=CARTESIAN_POINT('',(1.7999868844727,0.443283716915797,1.54732883800674E-16));
#392=CARTESIAN_POINT('',(1.86397993616321,0.3342042357318,2.25579374805718E-16));
#393=CARTESIAN_POINT('',(1.94611468120555,0.235156528584167,2.89224802838513E-16));
#394=CARTESIAN_POINT('',(2.04499904204627,0.149261757106374,3.39955650413672E-16));
#395=CARTESIAN_POINT('',(2.15626956492536,0.0809350581500565,3.70194613297525E-16));
#396=CARTESIAN_POINT('',(2.27625380784411,0.0322899836792114,3.71207750090907E-16));
#397=CARTESIAN_POINT('',(2.37326999375757,0.00979418078995842,3.4363016959846E-16));
#398=CARTESIAN_POINT('',(2.44705056936753,0.00173457741138616,3.00542152259523E-16));
#399=CARTESIAN_POINT('',(2.49398577270638,0.0,2.62490554512463E-16));
#400=CARTESIAN_POINT('',(5.2851751624243,-1.77635683940025E-15,4.80678686959966E-17));
#401=CARTESIAN_POINT('',(8.05289695047278,-1.77635683940025E-15,1.97215226305253E-32));
#402=CARTESIAN_POINT('',(10.8206187385213,-1.77635683940025E-15,0.0));
#403=CARTESIAN_POINT('',(13.5883405265698,-1.77635683940025E-15,0.0));
#404=CARTESIAN_POINT('',(16.4037993602895,-5.32907051820075E-15,4.84508462587034E-16));
#405=CARTESIAN_POINT('',(0.0,0.0,0.0));
#406=CARTESIAN_POINT('',(15.1047202462548,4.7625,0.0));
#407=CARTESIAN_POINT('',(15.1047202462548,4.7625,-4.7625));
#408=CARTESIAN_POINT('',(13.2878894550794,4.18965545194436,-4.7625));
#409=CARTESIAN_POINT('',(15.1047202462548,9.52499999999999,-4.7625));
#410=CARTESIAN_POINT('',(13.8533781778913,9.52499999999999,-4.7625));
#411=CARTESIAN_POINT('',(27.6919871181337,9.525,-4.7625));
#412=CARTESIAN_POINT('',(27.6919871181337,8.73125,-4.7625));
#413=CARTESIAN_POINT('',(28.1472634144874,8.0810480648456,-4.7625));
#414=CARTESIAN_POINT('',(17.8363780243766,0.861288389073673,-4.7625));
#415=CARTESIAN_POINT('',(16.8113386109719,0.143548064845605,-4.7625));
#416=CARTESIAN_POINT('',(16.3560623146182,0.793749999999997,-4.7625));
#417=CARTESIAN_POINT('',(16.3560623146182,-6.07153216591882E-15,-4.7625));
#418=CARTESIAN_POINT('',(15.1047202462548,-6.07153216591882E-15,-4.7625));
#419=CARTESIAN_POINT('',(2.51745337437581,-3.46944695195361E-15,-4.7625));
#420=CARTESIAN_POINT('',(2.51745337437581,0.793749999999999,-4.7625));
#421=CARTESIAN_POINT('',(2.06217707802217,1.44395193515439,-4.7625));
#422=CARTESIAN_POINT('',(12.3730624681329,8.66371161092631,-4.7625));
#423=CARTESIAN_POINT('',(13.3981018815377,9.38145193515438,-4.7625));
#424=CARTESIAN_POINT('',(13.8533781778913,8.73124999999998,-4.7625));
#425=CARTESIAN_POINT('',(14.8598410645383,4.29209146865531,-4.7625));
#426=CARTESIAN_POINT('',(15.1047202462548,9.52499999999999,-5.81748951963656E-15));
#427=CARTESIAN_POINT('',(27.6919871181337,9.525,-4.80765727720478E-15));
#428=CARTESIAN_POINT('',(13.8533781778913,9.52499999999999,-5.91788030182994E-15));
#429=CARTESIAN_POINT('',(27.6919871181337,9.525,-4.33680868994202E-15));
#430=CARTESIAN_POINT('',(13.8533781778913,9.52499999999999,-5.20417042793042E-15));
#431=CARTESIAN_POINT('',(15.1047202462548,9.52499999999999,-5.81748951963656E-15));
#432=CARTESIAN_POINT('',(2.06217707802217,1.44395193515439,-1.73472347597681E-15));
#433=CARTESIAN_POINT('',(2.06217707802217,1.44395193515439,-1.97013035390912E-15));
#434=CARTESIAN_POINT('',(12.3730624681329,8.66371161092632,-5.51506228827902E-15));
#435=CARTESIAN_POINT('',(13.3981018815377,9.38145193515438,-5.86747576327034E-15));
#436=CARTESIAN_POINT('',(13.3981018815377,9.38145193515438,-5.20417042793042E-15));
#437=CARTESIAN_POINT('',(12.3730624681329,8.66371161092631,-5.51506228827901E-15));
#438=CARTESIAN_POINT('',(16.3560623146182,-3.46944695195361E-15,-9.14816723583937E-31));
#439=CARTESIAN_POINT('',(16.3560623146182,-3.46944695195361E-15,5.10455060763829E-17));
#440=CARTESIAN_POINT('',(15.1047202462548,-3.46944695195361E-15,-4.93452761169929E-17));
#441=CARTESIAN_POINT('',(2.51745337437581,-8.67361737988404E-16,-1.05917751854878E-15));
#442=CARTESIAN_POINT('',(2.51745337437581,-8.67361737988404E-16,-8.67361737988405E-16));
#443=CARTESIAN_POINT('',(15.1047202462548,-2.60208521396521E-15,-4.93452761169945E-17));
#444=CARTESIAN_POINT('',(28.1472634144874,8.08104806484561,-3.46944695195361E-15));
#445=CARTESIAN_POINT('',(28.1472634144874,8.08104806484561,-3.89670444184444E-15));
#446=CARTESIAN_POINT('',(17.8363780243767,0.861288389073683,-3.51772507474542E-16));
#447=CARTESIAN_POINT('',(16.8113386109719,0.143548064845607,6.40967516793932E-19));
#448=CARTESIAN_POINT('',(16.8113386109719,0.143548064845607,-3.85185988877447E-31));
#449=CARTESIAN_POINT('',(17.8363780243766,0.861288389073676,-3.51772507474539E-16));
#450=CARTESIAN_POINT('',(15.1047202462548,4.7625,-6.93889390390723E-15));
#451=CARTESIAN_POINT('',(13.2878894550794,4.18965545194436,-6.93889390390723E-15));
#452=CARTESIAN_POINT('',(27.6919871181337,8.73125,-4.32697859024481E-15));
#453=CARTESIAN_POINT('',(13.8533781778913,8.73124999999999,-5.43720161486997E-15));
#454=CARTESIAN_POINT('',(2.51745337437581,0.793750000000002,-1.53985620550875E-15));
#455=CARTESIAN_POINT('',(16.3560623146182,0.793749999999999,-4.29633180883583E-16));
#456=CARTESIAN_POINT('',(15.1047202462548,4.7625,-2.93341739787678E-15));
#457=CARTESIAN_POINT('',(27.6919871181337,8.73125,-4.33680868994202E-15));
#458=CARTESIAN_POINT('',(16.3560623146182,0.793749999999999,0.0));
#459=CARTESIAN_POINT('',(2.51745337437581,0.793750000000002,-8.67361737988404E-16));
#460=CARTESIAN_POINT('',(13.8533781778913,8.73124999999999,-5.20417042793042E-15));
#461=CARTESIAN_POINT('',(15.1047202462548,4.7625,-33.3676978394524));
#462=MECHANICAL_DESIGN_GEOMETRIC_PRESENTATION_REPRESENTATION('',(#232,#233,#234,
     #235),#463);
#463=(GEOMETRIC_REPRESENTATION_CONTEXT(3)GLOBAL_UNCERTAINTY_ASSIGNED_CONTEXT((#464))
     GLOBAL_UNIT_ASSIGNED_CONTEXT((#470,#466,#465))REPRESENTATION_CONTEXT('VNMG160408',
     'TOP_LEVEL_ASSEMBLY_PART'));
#464=UNCERTAINTY_MEASURE_WITH_UNIT(LENGTH_MEASURE(2.0E-5),#470,'DISTANCE_ACCURACY_VALUE',
     'Maximum Tolerance applied to model');
#465=(NAMED_UNIT(*)SI_UNIT($,.STERADIAN.)SOLID_ANGLE_UNIT());
#466=(CONVERSION_BASED_UNIT('DEGREE',#468)NAMED_UNIT(#467)PLANE_ANGLE_UNIT());
#467=DIMENSIONAL_EXPONENTS(0.0,0.0,0.0,0.0,0.0,0.0,0.0);
#468=PLANE_ANGLE_MEASURE_WITH_UNIT(PLANE_ANGLE_MEASURE(0.0174532925),#469);
#469=(NAMED_UNIT(*)PLANE_ANGLE_UNIT()SI_UNIT($,.RADIAN.));
#470=(LENGTH_UNIT()NAMED_UNIT(*)SI_UNIT(.MILLI.,.METRE.));
#471=CONSTRUCTIVE_GEOMETRY_REPRESENTATION('supplemental geometry',(#249,#250),#463);
#472=CONSTRUCTIVE_GEOMETRY_REPRESENTATION_RELATIONSHIP('supplemental geometry','contains PCS and MCS coordinate systems',
     #24,#471);
ENDSEC;
END-ISO-10303-21;
