ISO-10303-21;
HEADER;
FILE_DESCRIPTION(
/* description */ (''),
/* implementation_level */ '2;1');
FILE_NAME(
/* name */ 'DNGA110408.stp',
/* time_stamp */ '2017-03-21T10:54:03',
/* author */ ('Sandvik Coromant R&D'),
/* organization */ ('Sandvik Machining Solutions'),
/* preprocessor_version */ 'ST-DEVELOPER v15',
/* originating_system */ 'SIEMENS PLM Software NX v8.5.3.3(64 bits)',
/* authorization */ '');
FILE_SCHEMA(('AUTOMOTIVE_DESIGN'));
ENDSEC;
DATA;
#10=GEOMETRICALLY_BOUNDED_WIREFRAME_SHAPE_REPRESENTATION('IsoTurningInsert-None',
     (#25),#463);
#11=SHAPE_REPRESENTATION_RELATIONSHIP('None','relationship between IsoTurningInsert-None and IsoTurningInsert-None',
     #24,#13);
#12=SHAPE_REPRESENTATION_RELATIONSHIP('None','relationship between IsoTurningInsert-None and IsoTurningInsert-None',
     #24,#10);
#13=ADVANCED_BREP_SHAPE_REPRESENTATION('IsoTurningInsert-None',(#31),#463);
#14=SHAPE_DEFINITION_REPRESENTATION(#15,#24);
#15=PRODUCT_DEFINITION_SHAPE('','',#16);
#16=PRODUCT_DEFINITION(' ','',#18,#17);
#17=PRODUCT_DEFINITION_CONTEXT('part definition',#23,'design');
#18=PRODUCT_DEFINITION_FORMATION_WITH_SPECIFIED_SOURCE(' ',' ',#20,.NOT_KNOWN.);
#19=PRODUCT_RELATED_PRODUCT_CATEGORY('part','',(#20));
#20=PRODUCT('IsoTurningInsert','IsoTurningInsert',' ',(#21));
#21=PRODUCT_CONTEXT(' ',#23,'mechanical');
#22=APPLICATION_PROTOCOL_DEFINITION('international standard','automotive_design',
     2010,#23);
#23=APPLICATION_CONTEXT('core data for automotive mechanical design processes');
#24=SHAPE_REPRESENTATION('IsoTurningInsert-None',(#248),#463);
#25=GEOMETRIC_CURVE_SET('geometric curve set',(#228));
#26=SURFACE_STYLE_USAGE(.BOTH.,#27);
#27=SURFACE_SIDE_STYLE('',(#28));
#28=SURFACE_STYLE_FILL_AREA(#29);
#29=FILL_AREA_STYLE('',(#30));
#30=FILL_AREA_STYLE_COLOUR('',#247);
#31=MANIFOLD_SOLID_BREP('CUT',#32);
#32=CLOSED_SHELL('',(#46,#47,#48,#49,#50,#51,#52,#53,#54,#55,#56));
#33=CYLINDRICAL_SURFACE('',#267,0.79375);
#34=CYLINDRICAL_SURFACE('',#268,0.79375);
#35=CYLINDRICAL_SURFACE('',#269,0.79375);
#36=CYLINDRICAL_SURFACE('',#270,0.79375);
#37=CYLINDRICAL_SURFACE('',#271,1.905);
#38=FACE_OUTER_BOUND('',#103,.T.);
#39=FACE_OUTER_BOUND('',#104,.T.);
#40=FACE_OUTER_BOUND('',#105,.T.);
#41=FACE_OUTER_BOUND('',#106,.T.);
#42=FACE_OUTER_BOUND('',#109,.T.);
#43=FACE_OUTER_BOUND('',#110,.T.);
#44=FACE_OUTER_BOUND('',#111,.T.);
#45=FACE_OUTER_BOUND('',#112,.T.);
#46=ADVANCED_FACE('',(#95,#96),#57,.F.);
#47=ADVANCED_FACE('',(#38),#58,.T.);
#48=ADVANCED_FACE('',(#39),#59,.T.);
#49=ADVANCED_FACE('',(#40),#60,.T.);
#50=ADVANCED_FACE('',(#41),#61,.T.);
#51=ADVANCED_FACE('',(#97,#98),#62,.T.);
#52=ADVANCED_FACE('',(#42),#33,.T.);
#53=ADVANCED_FACE('',(#43),#34,.T.);
#54=ADVANCED_FACE('',(#44),#35,.T.);
#55=ADVANCED_FACE('',(#45),#36,.T.);
#56=ADVANCED_FACE('',(#99,#100),#37,.F.);
#57=PLANE('',#256);
#58=PLANE('',#257);
#59=PLANE('',#258);
#60=PLANE('',#259);
#61=PLANE('',#260);
#62=PLANE('',#266);
#63=LINE('',#409,#79);
#64=LINE('',#414,#80);
#65=LINE('',#418,#81);
#66=LINE('',#422,#82);
#67=LINE('',#426,#83);
#68=LINE('',#429,#84);
#69=LINE('',#430,#85);
#70=LINE('',#432,#86);
#71=LINE('',#434,#87);
#72=LINE('',#436,#88);
#73=LINE('',#438,#89);
#74=LINE('',#440,#90);
#75=LINE('',#442,#91);
#76=LINE('',#444,#92);
#77=LINE('',#446,#93);
#78=LINE('',#448,#94);
#79=VECTOR('',#280,1.0);
#80=VECTOR('',#283,1.0);
#81=VECTOR('',#286,1.0);
#82=VECTOR('',#289,1.0);
#83=VECTOR('',#294,1.0);
#84=VECTOR('',#295,1.0);
#85=VECTOR('',#296,1.0);
#86=VECTOR('',#299,1.0);
#87=VECTOR('',#300,1.0);
#88=VECTOR('',#301,1.0);
#89=VECTOR('',#304,1.0);
#90=VECTOR('',#305,1.0);
#91=VECTOR('',#306,1.0);
#92=VECTOR('',#309,1.0);
#93=VECTOR('',#310,1.0);
#94=VECTOR('',#311,1.0);
#95=FACE_BOUND('',#101,.T.);
#96=FACE_BOUND('',#102,.T.);
#97=FACE_BOUND('',#107,.T.);
#98=FACE_BOUND('',#108,.T.);
#99=FACE_BOUND('',#113,.T.);
#100=FACE_BOUND('',#114,.T.);
#101=EDGE_LOOP('',(#115));
#102=EDGE_LOOP('',(#116,#117,#118,#119,#120,#121,#122,#123));
#103=EDGE_LOOP('',(#124,#125,#126,#127));
#104=EDGE_LOOP('',(#128,#129,#130,#131));
#105=EDGE_LOOP('',(#132,#133,#134,#135));
#106=EDGE_LOOP('',(#136,#137,#138,#139));
#107=EDGE_LOOP('',(#140));
#108=EDGE_LOOP('',(#141,#142,#143,#144,#145,#146,#147,#148));
#109=EDGE_LOOP('',(#149,#150,#151,#152));
#110=EDGE_LOOP('',(#153,#154,#155,#156));
#111=EDGE_LOOP('',(#157,#158,#159,#160));
#112=EDGE_LOOP('',(#161,#162,#163,#164));
#113=EDGE_LOOP('',(#165));
#114=EDGE_LOOP('',(#166));
#115=ORIENTED_EDGE('',*,*,#185,.T.);
#116=ORIENTED_EDGE('',*,*,#186,.T.);
#117=ORIENTED_EDGE('',*,*,#187,.T.);
#118=ORIENTED_EDGE('',*,*,#188,.T.);
#119=ORIENTED_EDGE('',*,*,#189,.T.);
#120=ORIENTED_EDGE('',*,*,#190,.T.);
#121=ORIENTED_EDGE('',*,*,#191,.T.);
#122=ORIENTED_EDGE('',*,*,#192,.T.);
#123=ORIENTED_EDGE('',*,*,#193,.T.);
#124=ORIENTED_EDGE('',*,*,#194,.F.);
#125=ORIENTED_EDGE('',*,*,#195,.T.);
#126=ORIENTED_EDGE('',*,*,#186,.F.);
#127=ORIENTED_EDGE('',*,*,#196,.T.);
#128=ORIENTED_EDGE('',*,*,#192,.F.);
#129=ORIENTED_EDGE('',*,*,#197,.T.);
#130=ORIENTED_EDGE('',*,*,#198,.F.);
#131=ORIENTED_EDGE('',*,*,#199,.T.);
#132=ORIENTED_EDGE('',*,*,#190,.F.);
#133=ORIENTED_EDGE('',*,*,#200,.T.);
#134=ORIENTED_EDGE('',*,*,#201,.F.);
#135=ORIENTED_EDGE('',*,*,#202,.T.);
#136=ORIENTED_EDGE('',*,*,#188,.F.);
#137=ORIENTED_EDGE('',*,*,#203,.T.);
#138=ORIENTED_EDGE('',*,*,#204,.F.);
#139=ORIENTED_EDGE('',*,*,#205,.T.);
#140=ORIENTED_EDGE('',*,*,#206,.F.);
#141=ORIENTED_EDGE('',*,*,#204,.T.);
#142=ORIENTED_EDGE('',*,*,#207,.T.);
#143=ORIENTED_EDGE('',*,*,#194,.T.);
#144=ORIENTED_EDGE('',*,*,#208,.T.);
#145=ORIENTED_EDGE('',*,*,#198,.T.);
#146=ORIENTED_EDGE('',*,*,#209,.T.);
#147=ORIENTED_EDGE('',*,*,#201,.T.);
#148=ORIENTED_EDGE('',*,*,#210,.T.);
#149=ORIENTED_EDGE('',*,*,#187,.F.);
#150=ORIENTED_EDGE('',*,*,#195,.F.);
#151=ORIENTED_EDGE('',*,*,#207,.F.);
#152=ORIENTED_EDGE('',*,*,#203,.F.);
#153=ORIENTED_EDGE('',*,*,#189,.F.);
#154=ORIENTED_EDGE('',*,*,#205,.F.);
#155=ORIENTED_EDGE('',*,*,#210,.F.);
#156=ORIENTED_EDGE('',*,*,#200,.F.);
#157=ORIENTED_EDGE('',*,*,#191,.F.);
#158=ORIENTED_EDGE('',*,*,#202,.F.);
#159=ORIENTED_EDGE('',*,*,#209,.F.);
#160=ORIENTED_EDGE('',*,*,#197,.F.);
#161=ORIENTED_EDGE('',*,*,#193,.F.);
#162=ORIENTED_EDGE('',*,*,#199,.F.);
#163=ORIENTED_EDGE('',*,*,#208,.F.);
#164=ORIENTED_EDGE('',*,*,#196,.F.);
#165=ORIENTED_EDGE('',*,*,#185,.F.);
#166=ORIENTED_EDGE('',*,*,#206,.T.);
#167=VERTEX_POINT('',#408);
#168=VERTEX_POINT('',#410);
#169=VERTEX_POINT('',#411);
#170=VERTEX_POINT('',#413);
#171=VERTEX_POINT('',#415);
#172=VERTEX_POINT('',#417);
#173=VERTEX_POINT('',#419);
#174=VERTEX_POINT('',#421);
#175=VERTEX_POINT('',#423);
#176=VERTEX_POINT('',#427);
#177=VERTEX_POINT('',#428);
#178=VERTEX_POINT('',#433);
#179=VERTEX_POINT('',#435);
#180=VERTEX_POINT('',#439);
#181=VERTEX_POINT('',#441);
#182=VERTEX_POINT('',#445);
#183=VERTEX_POINT('',#447);
#184=VERTEX_POINT('',#451);
#185=EDGE_CURVE('',#167,#167,#211,.T.);
#186=EDGE_CURVE('',#168,#169,#63,.T.);
#187=EDGE_CURVE('',#169,#170,#212,.T.);
#188=EDGE_CURVE('',#170,#171,#64,.T.);
#189=EDGE_CURVE('',#171,#172,#213,.T.);
#190=EDGE_CURVE('',#172,#173,#65,.T.);
#191=EDGE_CURVE('',#173,#174,#214,.T.);
#192=EDGE_CURVE('',#174,#175,#66,.T.);
#193=EDGE_CURVE('',#175,#168,#215,.T.);
#194=EDGE_CURVE('',#176,#177,#67,.T.);
#195=EDGE_CURVE('',#176,#169,#68,.T.);
#196=EDGE_CURVE('',#168,#177,#69,.T.);
#197=EDGE_CURVE('',#174,#178,#70,.T.);
#198=EDGE_CURVE('',#179,#178,#71,.T.);
#199=EDGE_CURVE('',#179,#175,#72,.T.);
#200=EDGE_CURVE('',#172,#180,#73,.T.);
#201=EDGE_CURVE('',#181,#180,#74,.T.);
#202=EDGE_CURVE('',#181,#173,#75,.T.);
#203=EDGE_CURVE('',#170,#182,#76,.T.);
#204=EDGE_CURVE('',#183,#182,#77,.T.);
#205=EDGE_CURVE('',#183,#171,#78,.T.);
#206=EDGE_CURVE('',#184,#184,#216,.T.);
#207=EDGE_CURVE('',#182,#176,#217,.T.);
#208=EDGE_CURVE('',#177,#179,#218,.T.);
#209=EDGE_CURVE('',#178,#181,#219,.T.);
#210=EDGE_CURVE('',#180,#183,#220,.T.);
#211=CIRCLE('',#251,1.905);
#212=CIRCLE('',#252,0.79375);
#213=CIRCLE('',#253,0.79375);
#214=CIRCLE('',#254,0.79375);
#215=CIRCLE('',#255,0.79375);
#216=CIRCLE('',#261,1.905);
#217=CIRCLE('',#262,0.79375);
#218=CIRCLE('',#263,0.79375);
#219=CIRCLE('',#264,0.79375);
#220=CIRCLE('',#265,0.79375);
#221=CURVE_STYLE('',#225,POSITIVE_LENGTH_MEASURE(0.18),#224);
#222=CURVE_STYLE('',#226,POSITIVE_LENGTH_MEASURE(0.18),#246);
#223=CURVE_STYLE('',#227,POSITIVE_LENGTH_MEASURE(0.18),#246);
#224=DRAUGHTING_PRE_DEFINED_COLOUR('blue');
#225=DRAUGHTING_PRE_DEFINED_CURVE_FONT('continuous');
#226=DRAUGHTING_PRE_DEFINED_CURVE_FONT('continuous');
#227=DRAUGHTING_PRE_DEFINED_CURVE_FONT('continuous');
#228=B_SPLINE_CURVE_WITH_KNOTS('CUTTING EDGE LINE',5,(#339,#340,#341,#342,#343,#344,
     #345,#346,#347,#348,#349,#350,#351,#352,#353,#354,#355,#356,#357,#358,#359,
     #360,#361,#362,#363,#364,#365,#366,#367,#368,#369,#370,#371,#372,#373,#374,
     #375,#376,#377,#378,#379,#380,#381,#382,#383,#384,#385,#386,#387,#388,#389,
     #390,#391,#392,#393,#394,#395,#396,#397,#398,#399,#400,#401,#402,#403,#404),
     .UNSPECIFIED.,.T.,.F.,(2,4,1,4,4,1,1,1,1,1,1,1,1,1,1,1,1,1,1,1,4,4,1,4,4,1,
     1,1,1,1,1,1,1,1,1,1,1,1,1,1,4,4,1,1),(-0.2214992287,0.0,0.00870856900000005,
     0.017417138,0.2389163666,0.24139039189375,0.2438644171875,0.24633844248125,
     0.248812467775,0.25128649306875,0.2537605183625,0.25623454365625,0.25870856895,
     0.26118259424375,0.2636566195375,0.26613064483125,0.268604670125006,0.27107869541875,
     0.2735527207125,0.27602674600625,0.2785007713,0.5,0.508708569,0.517417138,0.7389163666,
     0.74139039189375,0.7438644171875,0.74633844248125,0.748812467775,0.75128649306875,
     0.7537605183625,0.75623454365625,0.75870856895,0.76118259424375,0.7636566195375,
     0.76613064483125,0.768604670125006,0.77107869541875,0.7735527207125,0.77602674600625,
     0.7785007713,1.0,1.008708569,1.017417138),.UNSPECIFIED.);
#229=PRESENTATION_LAYER_ASSIGNMENT('1','Layer 1',(#228,#249,#250,#31));
#232=STYLED_ITEM('',(#238),#228);
#233=STYLED_ITEM('',(#239),#249);
#234=STYLED_ITEM('',(#240),#250);
#235=STYLED_ITEM('',(#241),#31);
#236=PRESENTATION_STYLE_ASSIGNMENT((#242));
#237=PRESENTATION_STYLE_ASSIGNMENT((#243));
#238=PRESENTATION_STYLE_ASSIGNMENT((#221));
#239=PRESENTATION_STYLE_ASSIGNMENT((#222));
#240=PRESENTATION_STYLE_ASSIGNMENT((#223));
#241=PRESENTATION_STYLE_ASSIGNMENT((#26));
#242=POINT_STYLE('',#244,POSITIVE_LENGTH_MEASURE(3.0),#246);
#243=POINT_STYLE('',#245,POSITIVE_LENGTH_MEASURE(3.0),#246);
#244=PRE_DEFINED_POINT_MARKER_SYMBOL('plus');
#245=PRE_DEFINED_POINT_MARKER_SYMBOL('plus');
#246=COLOUR_RGB('Medium Maroon',0.6,0.4,0.4);
#247=COLOUR_RGB('IsoInsertColor',0.8,0.8,0.8);
#248=AXIS2_PLACEMENT_3D('',#336,#272,#273);
#249=AXIS2_PLACEMENT_3D('PCS',#405,#274,#275);
#250=AXIS2_PLACEMENT_3D('MCS',#406,#276,#277);
#251=AXIS2_PLACEMENT_3D('',#407,#278,#279);
#252=AXIS2_PLACEMENT_3D('',#412,#281,#282);
#253=AXIS2_PLACEMENT_3D('',#416,#284,#285);
#254=AXIS2_PLACEMENT_3D('',#420,#287,#288);
#255=AXIS2_PLACEMENT_3D('',#424,#290,#291);
#256=AXIS2_PLACEMENT_3D('',#425,#292,#293);
#257=AXIS2_PLACEMENT_3D('',#431,#297,#298);
#258=AXIS2_PLACEMENT_3D('',#437,#302,#303);
#259=AXIS2_PLACEMENT_3D('',#443,#307,#308);
#260=AXIS2_PLACEMENT_3D('',#449,#312,#313);
#261=AXIS2_PLACEMENT_3D('',#450,#314,#315);
#262=AXIS2_PLACEMENT_3D('',#452,#316,#317);
#263=AXIS2_PLACEMENT_3D('',#453,#318,#319);
#264=AXIS2_PLACEMENT_3D('',#454,#320,#321);
#265=AXIS2_PLACEMENT_3D('',#455,#322,#323);
#266=AXIS2_PLACEMENT_3D('',#456,#324,#325);
#267=AXIS2_PLACEMENT_3D('',#457,#326,#327);
#268=AXIS2_PLACEMENT_3D('',#458,#328,#329);
#269=AXIS2_PLACEMENT_3D('',#459,#330,#331);
#270=AXIS2_PLACEMENT_3D('',#460,#332,#333);
#271=AXIS2_PLACEMENT_3D('',#461,#334,#335);
#272=DIRECTION('',(0.0,0.0,1.0));
#273=DIRECTION('',(1.0,0.0,0.0));
#274=DIRECTION('',(0.0,0.0,1.0));
#275=DIRECTION('',(1.0,0.0,0.0));
#276=DIRECTION('',(0.0,0.0,1.0));
#277=DIRECTION('',(1.0,0.0,0.0));
#278=DIRECTION('',(0.0,0.0,1.0));
#279=DIRECTION('',(-0.887010833178222,-0.461748613235034,0.0));
#280=DIRECTION('',(1.0,3.33066907387547E-16,0.0));
#281=DIRECTION('',(0.0,0.0,-1.0));
#282=DIRECTION('',(-0.887010833178223,-0.461748613235034,0.0));
#283=DIRECTION('',(-0.573576436351046,-0.819152044288992,0.0));
#284=DIRECTION('',(0.0,0.0,-1.0));
#285=DIRECTION('',(-0.887010833178221,-0.461748613235034,0.0));
#286=DIRECTION('',(-1.0,3.33066907387547E-16,0.0));
#287=DIRECTION('',(0.0,0.0,-1.0));
#288=DIRECTION('',(-0.887010833178222,-0.461748613235034,0.0));
#289=DIRECTION('',(0.573576436351046,0.819152044288991,0.0));
#290=DIRECTION('',(0.0,0.0,-1.0));
#291=DIRECTION('',(-0.887010833178222,-0.461748613235034,0.0));
#292=DIRECTION('',(0.0,0.0,1.0));
#293=DIRECTION('',(-0.887010833178222,-0.461748613235034,0.0));
#294=DIRECTION('',(-1.0,-3.33066907387547E-16,-1.14575302077279E-16));
#295=DIRECTION('',(1.1457530207728E-16,-5.71230636268423E-16,-1.0));
#296=DIRECTION('',(-1.1457530207728E-16,5.71230636268423E-16,1.0));
#297=DIRECTION('',(-3.33066907387547E-16,1.0,-5.71230636268424E-16));
#298=DIRECTION('',(-1.0,-3.33066907387547E-16,0.0));
#299=DIRECTION('',(-1.1457530207728E-16,5.71230636268423E-16,1.0));
#300=DIRECTION('',(-0.573576436351046,-0.819152044288991,4.0220705000045E-16));
#301=DIRECTION('',(1.1457530207728E-16,-5.71230636268423E-16,-1.0));
#302=DIRECTION('',(-0.819152044288992,0.573576436351046,-4.21499025607016E-16));
#303=DIRECTION('',(-0.573576436351046,-0.819152044288991,0.0));
#304=DIRECTION('',(-1.1457530207728E-16,5.71230636268423E-16,1.0));
#305=DIRECTION('',(1.0,-3.33066907387547E-16,1.1457530207728E-16));
#306=DIRECTION('',(1.1457530207728E-16,-5.71230636268423E-16,-1.0));
#307=DIRECTION('',(-3.33066907387547E-16,-1.0,5.71230636268423E-16));
#308=DIRECTION('',(1.0,-3.33066907387547E-16,0.0));
#309=DIRECTION('',(-1.1457530207728E-16,5.71230636268423E-16,1.0));
#310=DIRECTION('',(0.573576436351046,0.819152044288992,-4.0220705000045E-16));
#311=DIRECTION('',(1.1457530207728E-16,-5.71230636268423E-16,-1.0));
#312=DIRECTION('',(0.819152044288992,-0.573576436351046,4.21499025607015E-16));
#313=DIRECTION('',(0.573576436351046,0.819152044288992,0.0));
#314=DIRECTION('',(0.0,0.0,1.0));
#315=DIRECTION('',(-0.887010833178222,-0.461748613235034,0.0));
#316=DIRECTION('',(-1.1457530207728E-16,5.71230636268423E-16,1.0));
#317=DIRECTION('',(-0.461748613235032,0.887010833178221,-5.5959274945855E-16));
#318=DIRECTION('',(-1.1457530207728E-16,5.71230636268423E-16,1.0));
#319=DIRECTION('',(-0.461748613235034,0.887010833178221,-5.5959274945855E-16));
#320=DIRECTION('',(-1.1457530207728E-16,5.71230636268423E-16,1.0));
#321=DIRECTION('',(-0.461748613235034,0.887010833178221,-5.59592749458549E-16));
#322=DIRECTION('',(-1.1457530207728E-16,5.71230636268423E-16,1.0));
#323=DIRECTION('',(-0.461748613235034,0.887010833178221,-5.59592749458549E-16));
#324=DIRECTION('',(-1.1457530207728E-16,5.71230636268423E-16,1.0));
#325=DIRECTION('',(-0.461748613235034,0.887010833178222,-5.59592749458549E-16));
#326=DIRECTION('',(-1.1457530207728E-16,5.71230636268423E-16,1.0));
#327=DIRECTION('',(-0.461748613235032,0.887010833178221,-5.5959274945855E-16));
#328=DIRECTION('',(-1.1457530207728E-16,5.71230636268423E-16,1.0));
#329=DIRECTION('',(-0.461748613235034,0.887010833178221,-5.59592749458549E-16));
#330=DIRECTION('',(-1.1457530207728E-16,5.71230636268423E-16,1.0));
#331=DIRECTION('',(-0.461748613235034,0.887010833178221,-5.59592749458549E-16));
#332=DIRECTION('',(-1.1457530207728E-16,5.71230636268423E-16,1.0));
#333=DIRECTION('',(-0.461748613235034,0.887010833178221,-5.5959274945855E-16));
#334=DIRECTION('',(0.0,0.0,1.0));
#335=DIRECTION('',(-0.887010833178222,-0.461748613235034,0.0));
#336=CARTESIAN_POINT('',(0.0,0.0,0.0));
#339=CARTESIAN_POINT('',(9.2766982019186,0.0,0.0));
#340=CARTESIAN_POINT('',(11.2879804539285,-8.88178419700125E-16,4.61812984199732E-16));
#341=CARTESIAN_POINT('',(11.4345856386306,0.0169236851823156,4.68942990068371E-16));
#342=CARTESIAN_POINT('',(11.5917272970863,0.0694447734028412,4.59829116060586E-16));
#343=CARTESIAN_POINT('',(11.7248828063298,0.16804282555499,3.93267857913651E-16));
#344=CARTESIAN_POINT('',(11.8228351570358,0.2784277352703,2.59897995147066E-16));
#345=CARTESIAN_POINT('',(12.9764592636397,1.92597370364636,3.34564851575569E-17));
#346=CARTESIAN_POINT('',(14.0880387305476,3.51347370364635,-4.43734259186819E-32));
#347=CARTESIAN_POINT('',(15.1996181974555,5.10097370364635,3.94430452610506E-32));
#348=CARTESIAN_POINT('',(16.3111976643634,6.68847370364635,3.3456485157557E-17));
#349=CARTESIAN_POINT('',(17.4345863896525,8.29283907246446,1.75729702352016E-16));
#350=CARTESIAN_POINT('',(17.4571112436233,8.32733560103155,1.88577558963451E-16));
#351=CARTESIAN_POINT('',(17.4887704278493,8.38327989401842,1.97634322398123E-16));
#352=CARTESIAN_POINT('',(17.5232354711846,8.46209869935273,1.90833527712E-16));
#353=CARTESIAN_POINT('',(17.5534794937095,8.56865360145977,1.5981168921145E-16));
#354=CARTESIAN_POINT('',(17.5685163539077,8.67901981696584,1.12424578214039E-16));
#355=CARTESIAN_POINT('',(17.5679692217747,8.79069992876767,5.49391276849724E-17));
#356=CARTESIAN_POINT('',(17.5521045408318,8.89975353581633,-7.13551935743355E-18));
#357=CARTESIAN_POINT('',(17.5216821028239,9.00429596633895,-7.01073242461978E-17));
#358=CARTESIAN_POINT('',(17.4795385482753,9.09927182708492,-1.2921854626226E-16));
#359=CARTESIAN_POINT('',(17.4259114276278,9.18826972167938,-1.86261869113781E-16));
#360=CARTESIAN_POINT('',(17.3577248755215,9.27315339872376,-2.42240152783223E-16));
#361=CARTESIAN_POINT('',(17.2774929975323,9.34869956384748,-2.91828727408462E-16));
#362=CARTESIAN_POINT('',(17.1863238277413,9.41320482879336,-3.30484383124363E-16));
#363=CARTESIAN_POINT('',(17.0872923280032,9.46419081460489,-3.52071666300007E-16));
#364=CARTESIAN_POINT('',(16.9826604034522,9.50053374275283,-3.49068180008303E-16));
#365=CARTESIAN_POINT('',(16.8983274811994,9.51751024152911,-3.21978799457986E-16));
#366=CARTESIAN_POINT('',(16.8343416371667,9.52366488425547,-2.82158169122401E-16));
#367=CARTESIAN_POINT('',(16.7931640098002,9.52499999999999,-2.47018905098762E-16));
#368=CARTESIAN_POINT('',(14.8345955364582,9.52499999999999,-4.53414317538061E-17));
#369=CARTESIAN_POINT('',(12.8966158767994,9.52499999999999,1.97215226305253E-32));
#370=CARTESIAN_POINT('',(10.9586362171405,9.52499999999999,-2.36658271566304E-31));
#371=CARTESIAN_POINT('',(9.02065655748173,9.52499999999999,-4.53414317538063E-17));
#372=CARTESIAN_POINT('',(7.00937430547186,9.52499999999999,-3.20665598341945E-16));
#373=CARTESIAN_POINT('',(6.86276912076974,9.50807631481767,-4.38298211427897E-16));
#374=CARTESIAN_POINT('',(6.70562746231403,9.45555522659715,-4.6373656984695E-16));
#375=CARTESIAN_POINT('',(6.57247195307058,9.356957174445,-3.93267857913652E-16));
#376=CARTESIAN_POINT('',(6.47451960236456,9.24657226472969,-2.59897995147067E-16));
#377=CARTESIAN_POINT('',(5.32089549576063,7.59902629635363,-3.34564851575569E-17));
#378=CARTESIAN_POINT('',(4.20931602885271,6.01152629635364,1.08468374467889E-31));
#379=CARTESIAN_POINT('',(3.0977365619448,4.42402629635364,5.91645678915759E-32));
#380=CARTESIAN_POINT('',(1.98615709503689,2.83652629635364,-3.34564851575569E-17));
#381=CARTESIAN_POINT('',(0.862768369747844,1.23216092753553,-1.75729702352016E-16));
#382=CARTESIAN_POINT('',(0.840243515777068,1.19766439896845,-1.88577558963451E-16));
#383=CARTESIAN_POINT('',(0.808584331551039,1.14172010598157,-1.97634322398123E-16));
#384=CARTESIAN_POINT('',(0.774119288215728,1.06290130064726,-1.90833527711999E-16));
#385=CARTESIAN_POINT('',(0.743875265690868,0.956346398540219,-1.59811689211449E-16));
#386=CARTESIAN_POINT('',(0.728838405492619,0.845980183034157,-1.12424578214038E-16));
#387=CARTESIAN_POINT('',(0.729385537625646,0.734300071232324,-5.49391276849715E-17));
#388=CARTESIAN_POINT('',(0.745250218568517,0.62524646418366,7.1355193574346E-18));
#389=CARTESIAN_POINT('',(0.775672656576443,0.520704033661036,7.01073242461987E-17));
#390=CARTESIAN_POINT('',(0.817816211125018,0.42572817291507,1.29218546262261E-16));
#391=CARTESIAN_POINT('',(0.87144333177249,0.336730278320609,1.86261869113782E-16));
#392=CARTESIAN_POINT('',(0.939629883878869,0.251846601276235,2.42240152783224E-16));
#393=CARTESIAN_POINT('',(1.01986176186804,0.176300436152512,2.91828727408463E-16));
#394=CARTESIAN_POINT('',(1.11103093165904,0.111795171206629,3.30484383124364E-16));
#395=CARTESIAN_POINT('',(1.21006243139717,0.0608091853951001,3.52071666300008E-16));
#396=CARTESIAN_POINT('',(1.31469435594816,0.0244662572471652,3.49068180008304E-16));
#397=CARTESIAN_POINT('',(1.39902727820096,0.00748975847087774,3.21978799457986E-16));
#398=CARTESIAN_POINT('',(1.46301312223363,0.00133511574451983,2.82158169122401E-16));
#399=CARTESIAN_POINT('',(1.50419074960012,5.32907051820075E-15,2.47018905098763E-16));
#400=CARTESIAN_POINT('',(3.46275922294217,8.88178419700125E-16,4.53414317538061E-17));
#401=CARTESIAN_POINT('',(5.40073888260098,0.0,1.18329135783152E-31));
#402=CARTESIAN_POINT('',(7.33871854225979,8.88178419700125E-16,0.0));
#403=CARTESIAN_POINT('',(9.2766982019186,0.0,0.0));
#404=CARTESIAN_POINT('',(11.2879804539285,-8.88178419700125E-16,4.61812984199732E-16));
#405=CARTESIAN_POINT('',(0.0,0.0,0.0));
#406=CARTESIAN_POINT('',(9.14867737970017,4.7625,0.0));
#407=CARTESIAN_POINT('',(9.14867737970017,4.7625,-4.7625));
#408=CARTESIAN_POINT('',(7.45892174249566,3.88286889178726,-4.7625));
#409=CARTESIAN_POINT('',(9.14867737970017,9.52499999999999,-4.7625));
#410=CARTESIAN_POINT('',(7.08267689782293,9.52499999999998,-4.7625));
#411=CARTESIAN_POINT('',(16.772575196117,9.52499999999999,-4.7625));
#412=CARTESIAN_POINT('',(16.772575196117,8.73124999999999,-4.7625));
#413=CARTESIAN_POINT('',(17.4227771312714,8.27597370364635,-4.7625));
#414=CARTESIAN_POINT('',(13.0498889906265,2.03084222187814,-4.7625));
#415=CARTESIAN_POINT('',(11.8648797967318,0.338473703646354,-4.7625));
#416=CARTESIAN_POINT('',(11.2146778615774,0.793749999999997,-4.7625));
#417=CARTESIAN_POINT('',(11.2146778615774,-3.46944695195361E-15,-4.7625));
#418=CARTESIAN_POINT('',(9.14867737970017,-2.60208521396521E-15,-4.7625));
#419=CARTESIAN_POINT('',(1.52477956328336,0.0,-4.7625));
#420=CARTESIAN_POINT('',(1.52477956328336,0.793749999999999,-4.7625));
#421=CARTESIAN_POINT('',(0.874577628128976,1.24902629635364,-4.7625));
#422=CARTESIAN_POINT('',(5.24746576877385,7.49415777812185,-4.7625));
#423=CARTESIAN_POINT('',(6.43247496266854,9.18652629635363,-4.7625));
#424=CARTESIAN_POINT('',(7.08267689782293,8.73124999999999,-4.7625));
#425=CARTESIAN_POINT('',(8.98920404722148,4.25671520759503,-4.7625));
#426=CARTESIAN_POINT('',(9.14867737970017,9.52499999999999,-5.65390330310514E-15));
#427=CARTESIAN_POINT('',(16.772575196117,9.52499999999999,-4.78039290778288E-15));
#428=CARTESIAN_POINT('',(7.08267689782292,9.52499999999999,-5.89061593240803E-15));
#429=CARTESIAN_POINT('',(16.772575196117,9.52499999999999,-4.33680868994202E-15));
#430=CARTESIAN_POINT('',(7.08267689782292,9.52499999999999,-5.20417042793042E-15));
#431=CARTESIAN_POINT('',(9.14867737970017,9.52499999999999,-5.65390330310514E-15));
#432=CARTESIAN_POINT('',(0.874577628128974,1.24902629635365,-1.73472347597681E-15));
#433=CARTESIAN_POINT('',(0.874577628128974,1.24902629635365,-1.87442105708431E-15));
#434=CARTESIAN_POINT('',(5.24746576877385,7.49415777812186,-4.94080650733019E-15));
#435=CARTESIAN_POINT('',(6.43247496266854,9.18652629635363,-5.77176646644554E-15));
#436=CARTESIAN_POINT('',(6.43247496266854,9.18652629635363,-5.20417042793042E-15));
#437=CARTESIAN_POINT('',(5.24746576877385,7.49415777812185,-4.94080650733019E-15));
#438=CARTESIAN_POINT('',(11.2146778615774,-8.67361737988404E-16,-2.88889491658085E-31));
#439=CARTESIAN_POINT('',(11.2146778615774,-8.67361737988404E-16,2.37811366544755E-17));
#440=CARTESIAN_POINT('',(9.14867737970017,0.0,-2.12931492648415E-16));
#441=CARTESIAN_POINT('',(1.52477956328336,2.60208521396521E-15,-1.08644188797068E-15));
#442=CARTESIAN_POINT('',(1.52477956328336,2.60208521396521E-15,-8.67361737988404E-16));
#443=CARTESIAN_POINT('',(9.14867737970017,0.0,-2.12931492648416E-16));
#444=CARTESIAN_POINT('',(17.4227771312714,8.27597370364635,-3.46944695195362E-15));
#445=CARTESIAN_POINT('',(17.4227771312714,8.27597370364635,-3.99241373866925E-15));
#446=CARTESIAN_POINT('',(13.0498889906265,2.03084222187815,-9.26028288423374E-16));
#447=CARTESIAN_POINT('',(11.8648797967318,0.338473703646357,-9.50683293080174E-17));
#448=CARTESIAN_POINT('',(11.8648797967318,0.338473703646357,1.92592994438724E-31));
#449=CARTESIAN_POINT('',(13.0498889906265,2.03084222187814,-9.26028288423372E-16));
#450=CARTESIAN_POINT('',(9.14867737970017,4.7625,0.0));
#451=CARTESIAN_POINT('',(7.45892174249566,3.88286889178726,0.0));
#452=CARTESIAN_POINT('',(16.772575196117,8.73124999999999,-4.32697859024482E-15));
#453=CARTESIAN_POINT('',(7.08267689782293,8.73124999999999,-5.43720161486997E-15));
#454=CARTESIAN_POINT('',(1.52477956328336,0.793750000000002,-1.53985620550875E-15));
#455=CARTESIAN_POINT('',(11.2146778615774,0.793749999999999,-4.29633180883586E-16));
#456=CARTESIAN_POINT('',(9.14867737970017,4.7625,-2.93341739787678E-15));
#457=CARTESIAN_POINT('',(16.772575196117,8.73124999999999,-4.33680868994202E-15));
#458=CARTESIAN_POINT('',(11.2146778615774,0.793749999999999,0.0));
#459=CARTESIAN_POINT('',(1.52477956328336,0.793750000000002,-8.67361737988404E-16));
#460=CARTESIAN_POINT('',(7.08267689782293,8.73124999999999,-5.20417042793042E-15));
#461=CARTESIAN_POINT('',(9.14867737970017,4.7625,-33.3676978394524));
#462=MECHANICAL_DESIGN_GEOMETRIC_PRESENTATION_REPRESENTATION('',(#232,#233,#234,
     #235),#463);
#463=(GEOMETRIC_REPRESENTATION_CONTEXT(3)GLOBAL_UNCERTAINTY_ASSIGNED_CONTEXT((#464))
     GLOBAL_UNIT_ASSIGNED_CONTEXT((#470,#466,#465))REPRESENTATION_CONTEXT('DNGA110408',
     'TOP_LEVEL_ASSEMBLY_PART'));
#464=UNCERTAINTY_MEASURE_WITH_UNIT(LENGTH_MEASURE(2.0E-5),#470,'DISTANCE_ACCURACY_VALUE',
     'Maximum Tolerance applied to model');
#465=(NAMED_UNIT(*)SI_UNIT($,.STERADIAN.)SOLID_ANGLE_UNIT());
#466=(CONVERSION_BASED_UNIT('DEGREE',#468)NAMED_UNIT(#467)PLANE_ANGLE_UNIT());
#467=DIMENSIONAL_EXPONENTS(0.0,0.0,0.0,0.0,0.0,0.0,0.0);
#468=PLANE_ANGLE_MEASURE_WITH_UNIT(PLANE_ANGLE_MEASURE(0.0174532925),#469);
#469=(NAMED_UNIT(*)PLANE_ANGLE_UNIT()SI_UNIT($,.RADIAN.));
#470=(LENGTH_UNIT()NAMED_UNIT(*)SI_UNIT(.MILLI.,.METRE.));
#471=CONSTRUCTIVE_GEOMETRY_REPRESENTATION('supplemental geometry',(#249,#250),#463);
#472=CONSTRUCTIVE_GEOMETRY_REPRESENTATION_RELATIONSHIP('supplemental geometry','contains PCS and MCS coordinate systems',
     #24,#471);
ENDSEC;
END-ISO-10303-21;
