ISO-10303-21;
HEADER;
FILE_DESCRIPTION(
/* description */ (''),
/* implementation_level */ '2;1');
FILE_NAME(
/* name */ 'CCGW09T308.stp',
/* time_stamp */ '2017-03-21T10:53:50',
/* author */ ('Sandvik Coromant R&D'),
/* organization */ ('Sandvik Machining Solutions'),
/* preprocessor_version */ 'ST-DEVELOPER v15',
/* originating_system */ 'SIEMENS PLM Software NX v8.5.3.3(64 bits)',
/* authorization */ '');
FILE_SCHEMA(('AUTOMOTIVE_DESIGN'));
ENDSEC;
DATA;
#10=GEOMETRICALLY_BOUNDED_WIREFRAME_SHAPE_REPRESENTATION('IsoTurningInsert-None',
     (#25),#519);
#11=SHAPE_REPRESENTATION_RELATIONSHIP('None','relationship between IsoTurningInsert-None and IsoTurningInsert-None',
     #24,#13);
#12=SHAPE_REPRESENTATION_RELATIONSHIP('None','relationship between IsoTurningInsert-None and IsoTurningInsert-None',
     #24,#10);
#13=ADVANCED_BREP_SHAPE_REPRESENTATION('IsoTurningInsert-None',(#31),#519);
#14=SHAPE_DEFINITION_REPRESENTATION(#15,#24);
#15=PRODUCT_DEFINITION_SHAPE('','',#16);
#16=PRODUCT_DEFINITION(' ','',#18,#17);
#17=PRODUCT_DEFINITION_CONTEXT('part definition',#23,'design');
#18=PRODUCT_DEFINITION_FORMATION_WITH_SPECIFIED_SOURCE(' ',' ',#20,.NOT_KNOWN.);
#19=PRODUCT_RELATED_PRODUCT_CATEGORY('part','',(#20));
#20=PRODUCT('IsoTurningInsert','IsoTurningInsert',' ',(#21));
#21=PRODUCT_CONTEXT(' ',#23,'mechanical');
#22=APPLICATION_PROTOCOL_DEFINITION('international standard','automotive_design',
     2010,#23);
#23=APPLICATION_CONTEXT('core data for automotive mechanical design processes');
#24=SHAPE_REPRESENTATION('IsoTurningInsert-None',(#281),#519);
#25=GEOMETRIC_CURVE_SET('geometric curve set',(#261));
#26=SURFACE_STYLE_USAGE(.BOTH.,#27);
#27=SURFACE_SIDE_STYLE('',(#28));
#28=SURFACE_STYLE_FILL_AREA(#29);
#29=FILL_AREA_STYLE('',(#30));
#30=FILL_AREA_STYLE_COLOUR('',#280);
#31=MANIFOLD_SOLID_BREP('CUT',#32);
#32=CLOSED_SHELL('',(#49,#50,#51,#52,#53,#54,#55,#56,#57,#58,#59,#60,#61,#62));
#33=CYLINDRICAL_SURFACE('',#309,2.2);
#34=TOROIDAL_SURFACE('',#308,6.19999999999999,4.0);
#35=TOROIDAL_SURFACE('',#310,2.70678285826048,0.3);
#36=CONICAL_SURFACE('',#300,0.793750000000002,7.0);
#37=CONICAL_SURFACE('',#301,0.793750000000002,7.0);
#38=CONICAL_SURFACE('',#302,0.793750000000002,7.0);
#39=CONICAL_SURFACE('',#303,0.793750000000002,7.0);
#40=CONICAL_SURFACE('',#305,2.99999999999613,4.00000000019647);
#41=FACE_OUTER_BOUND('',#115,.T.);
#42=FACE_OUTER_BOUND('',#116,.T.);
#43=FACE_OUTER_BOUND('',#117,.T.);
#44=FACE_OUTER_BOUND('',#118,.T.);
#45=FACE_OUTER_BOUND('',#121,.T.);
#46=FACE_OUTER_BOUND('',#122,.T.);
#47=FACE_OUTER_BOUND('',#123,.T.);
#48=FACE_OUTER_BOUND('',#124,.T.);
#49=ADVANCED_FACE('',(#101,#102),#63,.F.);
#50=ADVANCED_FACE('',(#41),#64,.F.);
#51=ADVANCED_FACE('',(#42),#65,.F.);
#52=ADVANCED_FACE('',(#43),#66,.F.);
#53=ADVANCED_FACE('',(#44),#67,.F.);
#54=ADVANCED_FACE('',(#103,#104),#68,.T.);
#55=ADVANCED_FACE('',(#45),#36,.T.);
#56=ADVANCED_FACE('',(#46),#37,.T.);
#57=ADVANCED_FACE('',(#47),#38,.T.);
#58=ADVANCED_FACE('',(#48),#39,.T.);
#59=ADVANCED_FACE('',(#105,#106),#40,.F.);
#60=ADVANCED_FACE('',(#107,#108),#34,.T.);
#61=ADVANCED_FACE('',(#109,#110),#33,.F.);
#62=ADVANCED_FACE('',(#111,#112),#35,.F.);
#63=PLANE('',#289);
#64=PLANE('',#290);
#65=PLANE('',#291);
#66=PLANE('',#292);
#67=PLANE('',#293);
#68=PLANE('',#299);
#69=LINE('',#456,#85);
#70=LINE('',#461,#86);
#71=LINE('',#465,#87);
#72=LINE('',#469,#88);
#73=LINE('',#473,#89);
#74=LINE('',#476,#90);
#75=LINE('',#477,#91);
#76=LINE('',#479,#92);
#77=LINE('',#481,#93);
#78=LINE('',#483,#94);
#79=LINE('',#485,#95);
#80=LINE('',#487,#96);
#81=LINE('',#489,#97);
#82=LINE('',#491,#98);
#83=LINE('',#493,#99);
#84=LINE('',#495,#100);
#85=VECTOR('',#319,1.0);
#86=VECTOR('',#322,1.0);
#87=VECTOR('',#325,1.0);
#88=VECTOR('',#328,1.0);
#89=VECTOR('',#333,1.0);
#90=VECTOR('',#334,1.0);
#91=VECTOR('',#335,1.0);
#92=VECTOR('',#338,1.0);
#93=VECTOR('',#339,1.0);
#94=VECTOR('',#340,1.0);
#95=VECTOR('',#343,1.0);
#96=VECTOR('',#344,1.0);
#97=VECTOR('',#345,1.0);
#98=VECTOR('',#348,1.0);
#99=VECTOR('',#349,1.0);
#100=VECTOR('',#350,1.0);
#101=FACE_BOUND('',#113,.T.);
#102=FACE_BOUND('',#114,.T.);
#103=FACE_BOUND('',#119,.T.);
#104=FACE_BOUND('',#120,.T.);
#105=FACE_BOUND('',#125,.T.);
#106=FACE_BOUND('',#126,.T.);
#107=FACE_BOUND('',#127,.T.);
#108=FACE_BOUND('',#128,.T.);
#109=FACE_BOUND('',#129,.T.);
#110=FACE_BOUND('',#130,.T.);
#111=FACE_BOUND('',#131,.T.);
#112=FACE_BOUND('',#132,.T.);
#113=EDGE_LOOP('',(#133));
#114=EDGE_LOOP('',(#134,#135,#136,#137,#138,#139,#140,#141));
#115=EDGE_LOOP('',(#142,#143,#144,#145));
#116=EDGE_LOOP('',(#146,#147,#148,#149));
#117=EDGE_LOOP('',(#150,#151,#152,#153));
#118=EDGE_LOOP('',(#154,#155,#156,#157));
#119=EDGE_LOOP('',(#158));
#120=EDGE_LOOP('',(#159,#160,#161,#162,#163,#164,#165,#166));
#121=EDGE_LOOP('',(#167,#168,#169,#170));
#122=EDGE_LOOP('',(#171,#172,#173,#174));
#123=EDGE_LOOP('',(#175,#176,#177,#178));
#124=EDGE_LOOP('',(#179,#180,#181,#182));
#125=EDGE_LOOP('',(#183));
#126=EDGE_LOOP('',(#184));
#127=EDGE_LOOP('',(#185));
#128=EDGE_LOOP('',(#186));
#129=EDGE_LOOP('',(#187));
#130=EDGE_LOOP('',(#188));
#131=EDGE_LOOP('',(#189));
#132=EDGE_LOOP('',(#190));
#133=ORIENTED_EDGE('',*,*,#212,.T.);
#134=ORIENTED_EDGE('',*,*,#213,.T.);
#135=ORIENTED_EDGE('',*,*,#214,.T.);
#136=ORIENTED_EDGE('',*,*,#215,.T.);
#137=ORIENTED_EDGE('',*,*,#216,.T.);
#138=ORIENTED_EDGE('',*,*,#217,.T.);
#139=ORIENTED_EDGE('',*,*,#218,.T.);
#140=ORIENTED_EDGE('',*,*,#219,.T.);
#141=ORIENTED_EDGE('',*,*,#220,.T.);
#142=ORIENTED_EDGE('',*,*,#221,.F.);
#143=ORIENTED_EDGE('',*,*,#222,.T.);
#144=ORIENTED_EDGE('',*,*,#213,.F.);
#145=ORIENTED_EDGE('',*,*,#223,.T.);
#146=ORIENTED_EDGE('',*,*,#219,.F.);
#147=ORIENTED_EDGE('',*,*,#224,.T.);
#148=ORIENTED_EDGE('',*,*,#225,.F.);
#149=ORIENTED_EDGE('',*,*,#226,.T.);
#150=ORIENTED_EDGE('',*,*,#217,.F.);
#151=ORIENTED_EDGE('',*,*,#227,.T.);
#152=ORIENTED_EDGE('',*,*,#228,.F.);
#153=ORIENTED_EDGE('',*,*,#229,.T.);
#154=ORIENTED_EDGE('',*,*,#215,.F.);
#155=ORIENTED_EDGE('',*,*,#230,.T.);
#156=ORIENTED_EDGE('',*,*,#231,.F.);
#157=ORIENTED_EDGE('',*,*,#232,.T.);
#158=ORIENTED_EDGE('',*,*,#233,.F.);
#159=ORIENTED_EDGE('',*,*,#231,.T.);
#160=ORIENTED_EDGE('',*,*,#234,.T.);
#161=ORIENTED_EDGE('',*,*,#221,.T.);
#162=ORIENTED_EDGE('',*,*,#235,.T.);
#163=ORIENTED_EDGE('',*,*,#225,.T.);
#164=ORIENTED_EDGE('',*,*,#236,.T.);
#165=ORIENTED_EDGE('',*,*,#228,.T.);
#166=ORIENTED_EDGE('',*,*,#237,.T.);
#167=ORIENTED_EDGE('',*,*,#214,.F.);
#168=ORIENTED_EDGE('',*,*,#222,.F.);
#169=ORIENTED_EDGE('',*,*,#234,.F.);
#170=ORIENTED_EDGE('',*,*,#230,.F.);
#171=ORIENTED_EDGE('',*,*,#216,.F.);
#172=ORIENTED_EDGE('',*,*,#232,.F.);
#173=ORIENTED_EDGE('',*,*,#237,.F.);
#174=ORIENTED_EDGE('',*,*,#227,.F.);
#175=ORIENTED_EDGE('',*,*,#218,.F.);
#176=ORIENTED_EDGE('',*,*,#229,.F.);
#177=ORIENTED_EDGE('',*,*,#236,.F.);
#178=ORIENTED_EDGE('',*,*,#224,.F.);
#179=ORIENTED_EDGE('',*,*,#220,.F.);
#180=ORIENTED_EDGE('',*,*,#226,.F.);
#181=ORIENTED_EDGE('',*,*,#235,.F.);
#182=ORIENTED_EDGE('',*,*,#223,.F.);
#183=ORIENTED_EDGE('',*,*,#238,.T.);
#184=ORIENTED_EDGE('',*,*,#233,.T.);
#185=ORIENTED_EDGE('',*,*,#239,.T.);
#186=ORIENTED_EDGE('',*,*,#240,.T.);
#187=ORIENTED_EDGE('',*,*,#240,.F.);
#188=ORIENTED_EDGE('',*,*,#212,.F.);
#189=ORIENTED_EDGE('',*,*,#239,.F.);
#190=ORIENTED_EDGE('',*,*,#238,.F.);
#191=VERTEX_POINT('',#455);
#192=VERTEX_POINT('',#457);
#193=VERTEX_POINT('',#458);
#194=VERTEX_POINT('',#460);
#195=VERTEX_POINT('',#462);
#196=VERTEX_POINT('',#464);
#197=VERTEX_POINT('',#466);
#198=VERTEX_POINT('',#468);
#199=VERTEX_POINT('',#470);
#200=VERTEX_POINT('',#474);
#201=VERTEX_POINT('',#475);
#202=VERTEX_POINT('',#480);
#203=VERTEX_POINT('',#482);
#204=VERTEX_POINT('',#486);
#205=VERTEX_POINT('',#488);
#206=VERTEX_POINT('',#492);
#207=VERTEX_POINT('',#494);
#208=VERTEX_POINT('',#498);
#209=VERTEX_POINT('',#509);
#210=VERTEX_POINT('',#512);
#211=VERTEX_POINT('',#514);
#212=EDGE_CURVE('',#191,#191,#241,.T.);
#213=EDGE_CURVE('',#192,#193,#69,.T.);
#214=EDGE_CURVE('',#193,#194,#242,.T.);
#215=EDGE_CURVE('',#194,#195,#70,.T.);
#216=EDGE_CURVE('',#195,#196,#243,.T.);
#217=EDGE_CURVE('',#196,#197,#71,.T.);
#218=EDGE_CURVE('',#197,#198,#244,.T.);
#219=EDGE_CURVE('',#198,#199,#72,.T.);
#220=EDGE_CURVE('',#199,#192,#245,.T.);
#221=EDGE_CURVE('',#200,#201,#73,.T.);
#222=EDGE_CURVE('',#200,#193,#74,.T.);
#223=EDGE_CURVE('',#192,#201,#75,.T.);
#224=EDGE_CURVE('',#198,#202,#76,.T.);
#225=EDGE_CURVE('',#203,#202,#77,.T.);
#226=EDGE_CURVE('',#203,#199,#78,.T.);
#227=EDGE_CURVE('',#196,#204,#79,.T.);
#228=EDGE_CURVE('',#205,#204,#80,.T.);
#229=EDGE_CURVE('',#205,#197,#81,.T.);
#230=EDGE_CURVE('',#194,#206,#82,.T.);
#231=EDGE_CURVE('',#207,#206,#83,.T.);
#232=EDGE_CURVE('',#207,#195,#84,.T.);
#233=EDGE_CURVE('',#208,#208,#246,.T.);
#234=EDGE_CURVE('',#206,#200,#247,.T.);
#235=EDGE_CURVE('',#201,#203,#248,.T.);
#236=EDGE_CURVE('',#202,#205,#249,.T.);
#237=EDGE_CURVE('',#204,#207,#250,.T.);
#238=EDGE_CURVE('',#209,#209,#251,.T.);
#239=EDGE_CURVE('',#210,#210,#252,.T.);
#240=EDGE_CURVE('',#211,#211,#253,.T.);
#241=CIRCLE('',#284,2.2);
#242=CIRCLE('',#285,0.3064487739166);
#243=CIRCLE('',#286,0.306448773916599);
#244=CIRCLE('',#287,0.306448773916599);
#245=CIRCLE('',#288,0.3064487739166);
#246=CIRCLE('',#294,3.07132534818238);
#247=CIRCLE('',#295,0.793750000000001);
#248=CIRCLE('',#296,0.793750000000001);
#249=CIRCLE('',#297,0.793750000000001);
#250=CIRCLE('',#298,0.793750000000001);
#251=CIRCLE('',#304,3.00605207333835);
#252=CIRCLE('',#306,2.95049568210277);
#253=CIRCLE('',#307,2.2);
#254=CURVE_STYLE('',#258,POSITIVE_LENGTH_MEASURE(0.18),#257);
#255=CURVE_STYLE('',#259,POSITIVE_LENGTH_MEASURE(0.18),#279);
#256=CURVE_STYLE('',#260,POSITIVE_LENGTH_MEASURE(0.18),#279);
#257=DRAUGHTING_PRE_DEFINED_COLOUR('blue');
#258=DRAUGHTING_PRE_DEFINED_CURVE_FONT('continuous');
#259=DRAUGHTING_PRE_DEFINED_CURVE_FONT('continuous');
#260=DRAUGHTING_PRE_DEFINED_CURVE_FONT('continuous');
#261=B_SPLINE_CURVE_WITH_KNOTS('CUTTING EDGE LINE',5,(#390,#391,#392,#393,#394,#395,
     #396,#397,#398,#399,#400,#401,#402,#403,#404,#405,#406,#407,#408,#409,#410,
     #411,#412,#413,#414,#415,#416,#417,#418,#419,#420,#421,#422,#423,#424,#425,
     #426,#427,#428,#429,#430,#431,#432,#433,#434,#435,#436,#437,#438,#439,#440,
     #441,#442,#443,#444,#445,#446,#447,#448,#449,#450,#451),.UNSPECIFIED.,.T.,.F.,
     (2,4,1,1,1,1,1,1,1,4,4,1,1,1,1,1,1,1,4,4,1,1,1,1,1,1,1,4,4,1,1,1,1,1,1,1,4,
     4,1,1),(-0.2165077194,0.0,0.00372136451250005,0.00744272902499998,0.0111640935375,
     0.01488545805,0.0186068225625,0.022328187075,0.0260495515875,0.0297709161,0.2462786354,
     0.25093034105,0.2555820467,0.26023375235,0.264885458,0.26953716365,0.2741888693,
     0.27884057495,0.2834922806,0.5,0.5037213645125,0.507442729025,0.5111640935375,
     0.51488545805,0.5186068225625,0.522328187075,0.5260495515875,0.5297709161,0.7462786354,
     0.75093034105,0.7555820467,0.76023375235,0.764885458,0.76953716365,0.7741888693,
     0.77884057495,0.7834922806,1.0,1.0037213645125,1.007442729025),.UNSPECIFIED.);
#262=PRESENTATION_LAYER_ASSIGNMENT('1','Layer 1',(#261,#282,#283,#31));
#265=STYLED_ITEM('',(#271),#261);
#266=STYLED_ITEM('',(#272),#282);
#267=STYLED_ITEM('',(#273),#283);
#268=STYLED_ITEM('',(#274),#31);
#269=PRESENTATION_STYLE_ASSIGNMENT((#275));
#270=PRESENTATION_STYLE_ASSIGNMENT((#276));
#271=PRESENTATION_STYLE_ASSIGNMENT((#254));
#272=PRESENTATION_STYLE_ASSIGNMENT((#255));
#273=PRESENTATION_STYLE_ASSIGNMENT((#256));
#274=PRESENTATION_STYLE_ASSIGNMENT((#26));
#275=POINT_STYLE('',#277,POSITIVE_LENGTH_MEASURE(3.0),#279);
#276=POINT_STYLE('',#278,POSITIVE_LENGTH_MEASURE(3.0),#279);
#277=PRE_DEFINED_POINT_MARKER_SYMBOL('plus');
#278=PRE_DEFINED_POINT_MARKER_SYMBOL('plus');
#279=COLOUR_RGB('Medium Maroon',0.6,0.4,0.4);
#280=COLOUR_RGB('IsoInsertColor',0.8,0.8,0.8);
#281=AXIS2_PLACEMENT_3D('',#387,#311,#312);
#282=AXIS2_PLACEMENT_3D('PCS',#452,#313,#314);
#283=AXIS2_PLACEMENT_3D('MCS',#453,#315,#316);
#284=AXIS2_PLACEMENT_3D('',#454,#317,#318);
#285=AXIS2_PLACEMENT_3D('',#459,#320,#321);
#286=AXIS2_PLACEMENT_3D('',#463,#323,#324);
#287=AXIS2_PLACEMENT_3D('',#467,#326,#327);
#288=AXIS2_PLACEMENT_3D('',#471,#329,#330);
#289=AXIS2_PLACEMENT_3D('',#472,#331,#332);
#290=AXIS2_PLACEMENT_3D('',#478,#336,#337);
#291=AXIS2_PLACEMENT_3D('',#484,#341,#342);
#292=AXIS2_PLACEMENT_3D('',#490,#346,#347);
#293=AXIS2_PLACEMENT_3D('',#496,#351,#352);
#294=AXIS2_PLACEMENT_3D('',#497,#353,#354);
#295=AXIS2_PLACEMENT_3D('',#499,#355,#356);
#296=AXIS2_PLACEMENT_3D('',#500,#357,#358);
#297=AXIS2_PLACEMENT_3D('',#501,#359,#360);
#298=AXIS2_PLACEMENT_3D('',#502,#361,#362);
#299=AXIS2_PLACEMENT_3D('',#503,#363,#364);
#300=AXIS2_PLACEMENT_3D('',#504,#365,#366);
#301=AXIS2_PLACEMENT_3D('',#505,#367,#368);
#302=AXIS2_PLACEMENT_3D('',#506,#369,#370);
#303=AXIS2_PLACEMENT_3D('',#507,#371,#372);
#304=AXIS2_PLACEMENT_3D('',#508,#373,#374);
#305=AXIS2_PLACEMENT_3D('',#510,#375,#376);
#306=AXIS2_PLACEMENT_3D('',#511,#377,#378);
#307=AXIS2_PLACEMENT_3D('',#513,#379,#380);
#308=AXIS2_PLACEMENT_3D('',#515,#381,#382);
#309=AXIS2_PLACEMENT_3D('',#516,#383,#384);
#310=AXIS2_PLACEMENT_3D('',#517,#385,#386);
#311=DIRECTION('',(0.0,0.0,1.0));
#312=DIRECTION('',(1.0,0.0,0.0));
#313=DIRECTION('',(0.0,0.0,1.0));
#314=DIRECTION('',(1.0,0.0,0.0));
#315=DIRECTION('',(0.0,0.0,1.0));
#316=DIRECTION('',(1.0,0.0,0.0));
#317=DIRECTION('',(0.0,0.0,1.0));
#318=DIRECTION('',(-0.766044443118978,-0.642787609686539,0.0));
#319=DIRECTION('',(1.0,6.66133814775094E-16,0.0));
#320=DIRECTION('',(0.0,0.0,-1.0));
#321=DIRECTION('',(-0.766044443118979,-0.642787609686538,0.0));
#322=DIRECTION('',(-0.173648177666929,-0.984807753012208,0.0));
#323=DIRECTION('',(0.0,0.0,-1.0));
#324=DIRECTION('',(-0.766044443118981,-0.642787609686539,0.0));
#325=DIRECTION('',(-1.0,1.27675647831893E-15,0.0));
#326=DIRECTION('',(0.0,0.0,-1.0));
#327=DIRECTION('',(-0.766044443118978,-0.642787609686539,0.0));
#328=DIRECTION('',(0.17364817766693,0.984807753012208,0.0));
#329=DIRECTION('',(0.0,0.0,-1.0));
#330=DIRECTION('',(-0.766044443118978,-0.642787609686538,0.0));
#331=DIRECTION('',(0.0,0.0,1.0));
#332=DIRECTION('',(-0.766044443118978,-0.642787609686539,0.0));
#333=DIRECTION('',(-1.0,-5.55111512312578E-16,-1.49331675452002E-16));
#334=DIRECTION('',(2.22044604925031E-16,-0.121869343405148,-0.992546151641322));
#335=DIRECTION('',(-2.22044604925031E-16,0.121869343405148,0.992546151641322));
#336=DIRECTION('',(6.10622663543836E-16,-0.992546151641322,0.121869343405148));
#337=DIRECTION('',(1.0,6.66133814775094E-16,0.0));
#338=DIRECTION('',(-0.120017874239897,0.0211623893957697,0.992546151641322));
#339=DIRECTION('',(-0.17364817766693,-0.984807753012208,4.8999484254872E-16));
#340=DIRECTION('',(0.120017874239897,-0.0211623893957697,-0.992546151641322));
#341=DIRECTION('',(0.977467145358805,-0.17235383048284,0.121869343405148));
#342=DIRECTION('',(0.17364817766693,0.984807753012208,0.0));
#343=DIRECTION('',(-3.05311331771918E-16,-0.121869343405147,0.992546151641322));
#344=DIRECTION('',(1.0,-1.27675647831893E-15,1.42515763122859E-16));
#345=DIRECTION('',(3.05311331771918E-16,0.121869343405147,-0.992546151641322));
#346=DIRECTION('',(1.22124532708767E-15,0.992546151641322,0.121869343405147));
#347=DIRECTION('',(-1.0,1.27675647831893E-15,0.0));
#348=DIRECTION('',(0.120017874239896,-0.0211623893957685,0.992546151641322));
#349=DIRECTION('',(0.173648177666929,0.984807753012208,-4.83178930219575E-16));
#350=DIRECTION('',(-0.120017874239896,0.0211623893957685,-0.992546151641322));
#351=DIRECTION('',(-0.977467145358805,0.172353830482839,0.121869343405147));
#352=DIRECTION('',(-0.173648177666929,-0.984807753012208,0.0));
#353=DIRECTION('',(0.0,0.0,1.0));
#354=DIRECTION('',(-0.766044443118978,-0.642787609686539,0.0));
#355=DIRECTION('',(-1.37745668311625E-16,5.15292423860319E-16,1.0));
#356=DIRECTION('',(-0.64278760968654,0.766044443118977,-4.83278106758211E-16));
#357=DIRECTION('',(-1.37745668311625E-16,5.15292423860319E-16,1.0));
#358=DIRECTION('',(-0.642787609686539,0.766044443118977,-4.83278106758211E-16));
#359=DIRECTION('',(-1.37745668311625E-16,5.15292423860319E-16,1.0));
#360=DIRECTION('',(-0.642787609686539,0.766044443118978,-4.83278106758211E-16));
#361=DIRECTION('',(-1.37745668311625E-16,5.15292423860319E-16,1.0));
#362=DIRECTION('',(-0.64278760968654,0.766044443118978,-4.83278106758211E-16));
#363=DIRECTION('',(-1.37745668311625E-16,5.15292423860319E-16,1.0));
#364=DIRECTION('',(-0.642787609686539,0.766044443118978,-4.83278106758211E-16));
#365=DIRECTION('',(-1.37745668311625E-16,5.15292423860319E-16,1.0));
#366=DIRECTION('',(-0.642787609686539,0.766044443118978,-8.63302734865801E-16));
#367=DIRECTION('',(-1.37745668311625E-16,5.15292423860319E-16,1.0));
#368=DIRECTION('',(-0.642787609686539,0.766044443118978,-8.98396341974166E-16));
#369=DIRECTION('',(-1.37745668311625E-16,5.15292423860319E-16,1.0));
#370=DIRECTION('',(-0.642787609686539,0.766044443118978,-8.91377620552493E-16));
#371=DIRECTION('',(-1.37745668311625E-16,5.15292423860319E-16,1.0));
#372=DIRECTION('',(-0.642787609686539,0.766044443118978,-8.56284013444127E-16));
#373=DIRECTION('',(0.0,0.0,-1.0));
#374=DIRECTION('',(0.766044443118978,0.642787609686539,0.0));
#375=DIRECTION('',(0.0,0.0,1.0));
#376=DIRECTION('',(-0.766044443118978,-0.642787609686539,4.75743674970643E-16));
#377=DIRECTION('',(0.0,0.0,1.0));
#378=DIRECTION('',(0.766044443118978,0.642787609686539,0.0));
#379=DIRECTION('',(0.0,0.0,-1.0));
#380=DIRECTION('',(-0.766044443118978,-0.642787609686539,0.0));
#381=DIRECTION('',(0.0,0.0,1.0));
#382=DIRECTION('',(-0.766044443118978,-0.642787609686539,0.0));
#383=DIRECTION('',(0.0,0.0,1.0));
#384=DIRECTION('',(-0.766044443118978,-0.642787609686539,0.0));
#385=DIRECTION('',(0.0,0.0,-1.0));
#386=DIRECTION('',(0.766044443118978,0.642787609686539,0.0));
#387=CARTESIAN_POINT('',(0.0,0.0,0.0));
#390=CARTESIAN_POINT('',(7.3939133995961,3.64153152077051E-14,0.0));
#391=CARTESIAN_POINT('',(9.03141377922415,3.37507799486048E-14,4.12527340666502E-16));
#392=CARTESIAN_POINT('',(9.08243504574302,0.00204973987183532,4.18219866514316E-16));
#393=CARTESIAN_POINT('',(9.16340680689061,0.011628853865429,4.23132456545194E-16));
#394=CARTESIAN_POINT('',(9.26974584685151,0.0386932046924784,4.2014741654356E-16));
#395=CARTESIAN_POINT('',(9.40085417117381,0.0975702289839759,3.99847861109767E-16));
#396=CARTESIAN_POINT('',(9.52033711595794,0.180671468108074,3.62164563996715E-16));
#397=CARTESIAN_POINT('',(9.62292385615638,0.283908819748526,3.09034944555334E-16));
#398=CARTESIAN_POINT('',(9.70367312774842,0.402801426050843,2.42697703162505E-16));
#399=CARTESIAN_POINT('',(9.74879189077719,0.502825261851221,1.83745766825035E-16));
#400=CARTESIAN_POINT('',(9.77228607527085,0.580903484315913,1.36112995491335E-16));
#401=CARTESIAN_POINT('',(9.78316442494152,0.630793689558769,1.05107313188995E-16));
#402=CARTESIAN_POINT('',(10.0675133817928,2.2434167589769,5.36096985809795E-17));
#403=CARTESIAN_POINT('',(10.3474324636675,3.83091675897689,3.57397990539863E-17));
#404=CARTESIAN_POINT('',(10.6273515455422,5.41841675897688,3.57397990539864E-17));
#405=CARTESIAN_POINT('',(10.9072706274169,7.00591675897688,5.36096985809796E-17));
#406=CARTESIAN_POINT('',(11.1924690287097,8.62335726721293,7.75202214564505E-17));
#407=CARTESIAN_POINT('',(11.2001606975512,8.68374380784802,5.38938325619504E-17));
#408=CARTESIAN_POINT('',(11.2037444817469,8.78395211138321,1.54072142914174E-17));
#409=CARTESIAN_POINT('',(11.1865082548223,8.91930536346896,-3.48455622002131E-17));
#410=CARTESIAN_POINT('',(11.1248672083409,9.09181632915426,-9.57817707392109E-17));
#411=CARTESIAN_POINT('',(11.0218648335831,9.24844271674545,-1.47417217398892E-16));
#412=CARTESIAN_POINT('',(10.8855041274291,9.37707814076537,-1.8576400968382E-16));
#413=CARTESIAN_POINT('',(10.7263178463332,9.46773893606285,-2.07842012358268E-16));
#414=CARTESIAN_POINT('',(10.5960139536802,9.5082171515369,-2.13053053608717E-16));
#415=CARTESIAN_POINT('',(10.496705721847,9.52208880237179,-2.10551517445467E-16));
#416=CARTESIAN_POINT('',(10.4359009441744,9.52499999999999,-2.06891601374273E-16));
#417=CARTESIAN_POINT('',(8.79350880896952,9.52499999999999,-1.22704008431739E-16));
#418=CARTESIAN_POINT('',(7.18151906260092,9.52499999999999,-8.18026722878257E-17));
#419=CARTESIAN_POINT('',(5.56952931623231,9.52499999999999,-8.18026722878257E-17));
#420=CARTESIAN_POINT('',(3.9575395698637,9.52499999999999,-1.22704008431739E-16));
#421=CARTESIAN_POINT('',(2.32003919023566,9.52499999999998,-2.15853720264234E-16));
#422=CARTESIAN_POINT('',(2.26901792371679,9.52295026012818,-2.37101391082804E-16));
#423=CARTESIAN_POINT('',(2.18804616256919,9.51337114613458,-2.66357798974987E-16));
#424=CARTESIAN_POINT('',(2.08170712260829,9.48630679530754,-2.94558945897907E-16));
#425=CARTESIAN_POINT('',(1.95059879828599,9.42742977101605,-3.11328625156216E-16));
#426=CARTESIAN_POINT('',(1.83111585350187,9.34432853189194,-3.0583344920534E-16));
#427=CARTESIAN_POINT('',(1.72852911330342,9.2410911802515,-2.78613761694153E-16));
#428=CARTESIAN_POINT('',(1.64777984171139,9.12219857394917,-2.30633643585188E-16));
#429=CARTESIAN_POINT('',(1.60266107868261,9.0221747381488,-1.80120034943608E-16));
#430=CARTESIAN_POINT('',(1.57916689418895,8.94409651568411,-1.35473912114087E-16));
#431=CARTESIAN_POINT('',(1.56828854451828,8.89420631044125,-1.05107313188996E-16));
#432=CARTESIAN_POINT('',(1.28393958766696,7.28158324102312,-5.36096985809797E-17));
#433=CARTESIAN_POINT('',(1.00402050579228,5.69408324102313,-3.57397990539865E-17));
#434=CARTESIAN_POINT('',(0.724101423917591,4.10658324102315,-3.57397990539865E-17));
#435=CARTESIAN_POINT('',(0.444182342042904,2.51908324102316,-5.36096985809798E-17));
#436=CARTESIAN_POINT('',(0.158983940750078,0.901642732787107,-7.75202214564509E-17));
#437=CARTESIAN_POINT('',(0.151292271908594,0.841256192152013,-5.38938325619508E-17));
#438=CARTESIAN_POINT('',(0.14770848771285,0.741047888616828,-1.54072142914178E-17));
#439=CARTESIAN_POINT('',(0.16494471463749,0.605694636531073,3.48455622002126E-17));
#440=CARTESIAN_POINT('',(0.226585761118911,0.433183670845778,9.57817707392107E-17));
#441=CARTESIAN_POINT('',(0.3295881358767,0.27655728325459,1.47417217398891E-16));
#442=CARTESIAN_POINT('',(0.465948842030719,0.147921859234659,1.8576400968382E-16));
#443=CARTESIAN_POINT('',(0.625135123126578,0.0572610639371902,2.07842012358267E-16));
#444=CARTESIAN_POINT('',(0.755439015779548,0.0167828484631309,2.13053053608717E-16));
#445=CARTESIAN_POINT('',(0.854747247612807,0.00291119762824099,2.10551517445467E-16));
#446=CARTESIAN_POINT('',(0.915552025285376,4.35207425653061E-14,2.06891601374273E-16));
#447=CARTESIAN_POINT('',(2.55794416049027,4.17443857259059E-14,1.22704008431739E-16));
#448=CARTESIAN_POINT('',(4.16993390685888,3.99680288865056E-14,6.13520042158692E-17));
#449=CARTESIAN_POINT('',(5.78192365322749,3.99680288865056E-14,2.04506680719564E-17));
#450=CARTESIAN_POINT('',(7.3939133995961,3.64153152077051E-14,0.0));
#451=CARTESIAN_POINT('',(9.03141377922415,3.37507799486048E-14,4.12527340666502E-16));
#452=CARTESIAN_POINT('',(0.0,0.0,0.0));
#453=CARTESIAN_POINT('',(5.67572648472992,4.7625,0.0));
#454=CARTESIAN_POINT('',(5.67572648472992,4.7625,-3.96875000000001));
#455=CARTESIAN_POINT('',(3.99042870986817,3.34836725868961,-3.96875000000001));
#456=CARTESIAN_POINT('',(5.6757264847299,9.03769877391658,-3.96875));
#457=CARTESIAN_POINT('',(2.34554982349509,9.03769877391658,-3.96875));
#458=CARTESIAN_POINT('',(10.4054985553381,9.03769877391658,-3.96875));
#459=CARTESIAN_POINT('',(10.4054985553381,8.73124999999999,-3.96875));
#460=CARTESIAN_POINT('',(10.7072916837923,8.67803572886111,-3.96875));
#461=CARTESIAN_POINT('',(9.88597538295123,4.02011952374551,-3.96875));
#462=CARTESIAN_POINT('',(9.30769627441886,0.740535728861152,-3.96875));
#463=CARTESIAN_POINT('',(9.00590314596471,0.793750000000037,-3.96875));
#464=CARTESIAN_POINT('',(9.00590314596471,0.487301226083435,-3.96875));
#465=CARTESIAN_POINT('',(5.6757264847299,0.487301226083438,-3.96875));
#466=CARTESIAN_POINT('',(0.945954414121662,0.487301226083444,-3.96875));
#467=CARTESIAN_POINT('',(0.945954414121663,0.793750000000046,-3.96875));
#468=CARTESIAN_POINT('',(0.64416128566751,0.846964271138927,-3.96875));
#469=CARTESIAN_POINT('',(1.46547758650857,5.50488047625452,-3.96875));
#470=CARTESIAN_POINT('',(2.04375669504094,8.78446427113886,-3.96875));
#471=CARTESIAN_POINT('',(2.34554982349509,8.73124999999999,-3.96875));
#472=CARTESIAN_POINT('',(5.62950517219276,4.23418798019793,-3.96875));
#473=CARTESIAN_POINT('',(5.67572648472992,9.52499999999999,-5.38749756651153E-15));
#474=CARTESIAN_POINT('',(10.4054985553381,9.52499999999999,-4.73599195168394E-15));
#475=CARTESIAN_POINT('',(2.34554982349509,9.52499999999998,-5.8462149763091E-15));
#476=CARTESIAN_POINT('',(10.4054985553381,9.52499999999999,-4.31571944107352E-15));
#477=CARTESIAN_POINT('',(2.34554982349509,9.52499999999998,-5.12973583752994E-15));
#478=CARTESIAN_POINT('',(5.6757264847299,9.52499999999999,-5.38749756651153E-15));
#479=CARTESIAN_POINT('',(0.164263260168219,0.931583241023172,-1.79993902249258E-15));
#480=CARTESIAN_POINT('',(0.164263260168219,0.931583241023172,-1.71855520077868E-15));
#481=CARTESIAN_POINT('',(0.985579561009281,5.58949944613875,-4.00561136949636E-15));
#482=CARTESIAN_POINT('',(1.56385866954165,8.86908324102311,-5.6159006101399E-15));
#483=CARTESIAN_POINT('',(1.56385866954165,8.86908324102311,-5.24867223740742E-15));
#484=CARTESIAN_POINT('',(0.985579561009283,5.58949944613876,-4.00561136949636E-15));
#485=CARTESIAN_POINT('',(9.00590314596471,3.38271077815477E-14,6.48378197839402E-17));
#486=CARTESIAN_POINT('',(9.00590314596471,3.38271077815477E-14,-2.06198194444537E-17));
#487=CARTESIAN_POINT('',(5.67572648472992,3.90312782094782E-14,-4.7933722924202E-16));
#488=CARTESIAN_POINT('',(0.945954414121661,4.5102810375397E-14,-1.13084284406962E-15));
#489=CARTESIAN_POINT('',(0.945954414121661,4.5102810375397E-14,-8.55921344531379E-16));
#490=CARTESIAN_POINT('',(5.6757264847299,3.90312782094782E-14,-4.79337229242023E-16));
#491=CARTESIAN_POINT('',(11.1871897092916,8.59341675897686,-3.36822455698724E-15));
#492=CARTESIAN_POINT('',(11.1871897092916,8.59341675897686,-4.14827959497488E-15));
#493=CARTESIAN_POINT('',(10.3658734084505,3.93550055386126,-1.86122342625719E-15));
#494=CARTESIAN_POINT('',(9.78759429991815,0.655916758976911,-2.5093418561365E-16));
#495=CARTESIAN_POINT('',(9.78759429991815,0.655916758976911,2.2356115576166E-17));
#496=CARTESIAN_POINT('',(10.3658734084505,3.93550055386127,-1.86122342625719E-15));
#497=CARTESIAN_POINT('',(5.67572648472992,4.7625,0.0));
#498=CARTESIAN_POINT('',(3.32295476874435,2.78829012087216,0.0));
#499=CARTESIAN_POINT('',(10.4054985553381,8.73124999999999,-4.32697859024481E-15));
#500=CARTESIAN_POINT('',(2.34554982349509,8.73124999999998,-5.43720161486997E-15));
#501=CARTESIAN_POINT('',(0.945954414121662,0.793750000000045,-1.53985620550875E-15));
#502=CARTESIAN_POINT('',(9.00590314596471,0.793750000000036,-4.29633180883582E-16));
#503=CARTESIAN_POINT('',(5.67572648472992,4.7625,-2.93341739787677E-15));
#504=CARTESIAN_POINT('',(10.4054985553381,8.73124999999999,-4.33680868994202E-15));
#505=CARTESIAN_POINT('',(9.00590314596471,0.793750000000036,0.0));
#506=CARTESIAN_POINT('',(0.945954414121662,0.793750000000045,-8.67361737988404E-16));
#507=CARTESIAN_POINT('',(2.34554982349509,8.73124999999998,-5.20417042793042E-15));
#508=CARTESIAN_POINT('',(5.67572648472992,4.7625,-0.933451318981107));
#509=CARTESIAN_POINT('',(7.97849597123705,6.69475302681442,-0.933451318981107));
#510=CARTESIAN_POINT('',(5.67572648472992,4.7625,-1.02000000000516));
#511=CARTESIAN_POINT('',(5.67572648472992,4.7625,-1.08746453661102));
#512=CARTESIAN_POINT('',(7.93593730645129,6.65904206688929,-1.08746453661102));
#513=CARTESIAN_POINT('',(5.67572648472992,4.7625,-3.42000000000001));
#514=CARTESIAN_POINT('',(3.99042870986817,3.34836725868961,-3.42000000000001));
#515=CARTESIAN_POINT('',(5.67572648472992,4.7625,-3.42000000000001));
#516=CARTESIAN_POINT('',(5.67572648472992,4.7625,-33.3676978394524));
#517=CARTESIAN_POINT('',(5.67572648472992,4.7625,-0.912524376856842));
#518=MECHANICAL_DESIGN_GEOMETRIC_PRESENTATION_REPRESENTATION('',(#265,#266,#267,
     #268),#519);
#519=(GEOMETRIC_REPRESENTATION_CONTEXT(3)GLOBAL_UNCERTAINTY_ASSIGNED_CONTEXT((#520))
     GLOBAL_UNIT_ASSIGNED_CONTEXT((#526,#522,#521))REPRESENTATION_CONTEXT('CCGW09T308',
     'TOP_LEVEL_ASSEMBLY_PART'));
#520=UNCERTAINTY_MEASURE_WITH_UNIT(LENGTH_MEASURE(2.0E-5),#526,'DISTANCE_ACCURACY_VALUE',
     'Maximum Tolerance applied to model');
#521=(NAMED_UNIT(*)SI_UNIT($,.STERADIAN.)SOLID_ANGLE_UNIT());
#522=(CONVERSION_BASED_UNIT('DEGREE',#524)NAMED_UNIT(#523)PLANE_ANGLE_UNIT());
#523=DIMENSIONAL_EXPONENTS(0.0,0.0,0.0,0.0,0.0,0.0,0.0);
#524=PLANE_ANGLE_MEASURE_WITH_UNIT(PLANE_ANGLE_MEASURE(0.0174532925),#525);
#525=(NAMED_UNIT(*)PLANE_ANGLE_UNIT()SI_UNIT($,.RADIAN.));
#526=(LENGTH_UNIT()NAMED_UNIT(*)SI_UNIT(.MILLI.,.METRE.));
#527=CONSTRUCTIVE_GEOMETRY_REPRESENTATION('supplemental geometry',(#282,#283),#519);
#528=CONSTRUCTIVE_GEOMETRY_REPRESENTATION_RELATIONSHIP('supplemental geometry','contains PCS and MCS coordinate systems',
     #24,#527);
ENDSEC;
END-ISO-10303-21;
